ISO-10303-21;
HEADER;
FILE_DESCRIPTION (( 'STEP AP203' ),
    '1' );
FILE_NAME ('dd30.STEP',
    '2022-07-08T14:49:06',
    ( '' ),
    ( '' ),
    'SwSTEP 2.0',
    'SolidWorks 2019',
    '' );
FILE_SCHEMA (( 'CONFIG_CONTROL_DESIGN' ));
ENDSEC;

DATA;
#1 = ORIENTED_EDGE ( 'NONE', *, *, #165, .F. ) ;
#2 = CIRCLE ( 'NONE', #250, 0.5000000000000004441 ) ;
#3 = DATE_AND_TIME ( #303, #107 ) ;
#4 = DIRECTION ( 'NONE',  ( 1.000000000000000000, 0.000000000000000000, 0.000000000000000000 ) ) ;
#5 = MANIFOLD_SOLID_BREP ( 'Odebrat vysunutím3', #236 ) ;
#6 = AXIS2_PLACEMENT_3D ( 'NONE', #195, #234, #143 ) ;
#7 = APPROVAL_STATUS ( 'not_yet_approved' ) ;
#8 = PRODUCT ( 'dd30', 'dd30', '', ( #148 ) ) ;
#9 = AXIS2_PLACEMENT_3D ( 'NONE', #136, #75, #342 ) ;
#10 = VERTEX_POINT ( 'NONE', #257 ) ;
#11 = PERSON_AND_ORGANIZATION ( #343, #65 ) ;
#12 = ORIENTED_EDGE ( 'NONE', *, *, #95, .F. ) ;
#13 = VECTOR ( 'NONE', #24, 1000.000000000000000 ) ;
#14 = CYLINDRICAL_SURFACE ( 'NONE', #38, 3.100000000000000089 ) ;
#15 = ADVANCED_FACE ( 'NONE', ( #47 ), #14, .F. ) ;
#16 = ADVANCED_BREP_SHAPE_REPRESENTATION ( 'dd30', ( #5, #228 ), #346 ) ;
#17 = COORDINATED_UNIVERSAL_TIME_OFFSET ( 1, 0, .AHEAD. ) ;
#18 = CARTESIAN_POINT ( 'NONE',  ( 0.000000000000000000, 0.000000000000000000, 0.000000000000000000 ) ) ;
#19 = VERTEX_POINT ( 'NONE', #314 ) ;
#20 = CYLINDRICAL_SURFACE ( 'NONE', #242, 5.000000000000000000 ) ;
#21 = CIRCLE ( 'NONE', #233, 5.000000000000000000 ) ;
#22 = ORIENTED_EDGE ( 'NONE', *, *, #106, .F. ) ;
#23 = CARTESIAN_POINT ( 'NONE',  ( -8.000000000000000000, 0.000000000000000000, 5.000000000000000000 ) ) ;
#24 = DIRECTION ( 'NONE',  ( -0.000000000000000000, -0.000000000000000000, -1.000000000000000000 ) ) ;
#25 = FACE_OUTER_BOUND ( 'NONE', #51, .T. ) ;
#26 = ADVANCED_FACE ( 'NONE', ( #134 ), #319, .T. ) ;
#27 = AXIS2_PLACEMENT_3D ( 'NONE', #296, #352, #179 ) ;
#28 = CARTESIAN_POINT ( 'NONE',  ( -8.000000000000000000, 0.000000000000000000, 0.000000000000000000 ) ) ;
#29 = VERTEX_POINT ( 'NONE', #337 ) ;
#30 = CARTESIAN_POINT ( 'NONE',  ( 5.500000000000000000, 0.000000000000000000, 5.500000000000005329 ) ) ;
#31 = ORIENTED_EDGE ( 'NONE', *, *, #126, .T. ) ;
#32 = EDGE_CURVE ( 'NONE', #188, #127, #201, .T. ) ;
#33 = DIRECTION ( 'NONE',  ( 1.000000000000000000, 0.000000000000000000, 0.000000000000000000 ) ) ;
#34 = AXIS2_PLACEMENT_3D ( 'NONE', #377, #259, #33 ) ;
#35 = ORIENTED_EDGE ( 'NONE', *, *, #285, .T. ) ;
#36 = PRODUCT_DEFINITION_FORMATION_WITH_SPECIFIED_SOURCE ( 'LIBOVOLNÝ', '', #8, .NOT_KNOWN. ) ;
#37 = PERSON_AND_ORGANIZATION ( #343, #65 ) ;
#38 = AXIS2_PLACEMENT_3D ( 'NONE', #279, #365, #196 ) ;
#39 = PERSON_AND_ORGANIZATION ( #343, #65 ) ;
#40 = CARTESIAN_POINT ( 'NONE',  ( 5.000000000000000000, 6.123233995736766282E-16, 505.0000000000000000 ) ) ;
#41 = ADVANCED_FACE ( 'NONE', ( #312 ), #20, .T. ) ;
#42 =( NAMED_UNIT ( * ) SI_UNIT ( $, .STERADIAN. ) SOLID_ANGLE_UNIT ( ) );
#43 = ORIENTED_EDGE ( 'NONE', *, *, #126, .F. ) ;
#44 = DIRECTION ( 'NONE',  ( 0.000000000000000000, 0.000000000000000000, 1.000000000000000000 ) ) ;
#45 = CARTESIAN_POINT ( 'NONE',  ( 0.000000000000000000, 0.000000000000000000, 5.000000000000000000 ) ) ;
#46 = DATE_TIME_ROLE ( 'classification_date' ) ;
#47 = FACE_OUTER_BOUND ( 'NONE', #336, .T. ) ;
#48 = EDGE_CURVE ( 'NONE', #243, #19, #90, .T. ) ;
#49 = DATE_AND_TIME ( #366, #102 ) ;
#50 = ORIENTED_EDGE ( 'NONE', *, *, #197, .T. ) ;
#51 = EDGE_LOOP ( 'NONE', ( #189, #295, #335, #157 ) ) ;
#52 = DIRECTION ( 'NONE',  ( 1.000000000000000000, 0.000000000000000000, 0.000000000000000000 ) ) ;
#53 = CIRCLE ( 'NONE', #96, 0.5000000000000004441 ) ;
#54 = FACE_BOUND ( 'NONE', #125, .T. ) ;
#55 = ORIENTED_EDGE ( 'NONE', *, *, #223, .T. ) ;
#56 = DIRECTION ( 'NONE',  ( 0.000000000000000000, 0.000000000000000000, 1.000000000000000000 ) ) ;
#57 = DIRECTION ( 'NONE',  ( 1.000000000000000000, 0.000000000000000000, 0.000000000000000000 ) ) ;
#58 = DIRECTION ( 'NONE',  ( 1.000000000000000000, 0.000000000000000000, 0.000000000000000000 ) ) ;
#59 = VECTOR ( 'NONE', #287, 1000.000000000000000 ) ;
#60 = VERTEX_POINT ( 'NONE', #344 ) ;
#61 = EDGE_CURVE ( 'NONE', #364, #264, #283, .T. ) ;
#62 = CARTESIAN_POINT ( 'NONE',  ( 0.000000000000000000, 0.000000000000000000, 5.000000000000000000 ) ) ;
#63 = ORIENTED_EDGE ( 'NONE', *, *, #101, .T. ) ;
#64 = APPLICATION_PROTOCOL_DEFINITION ( 'international standard', 'config_control_design', 1994, #77 ) ;
#65 = ORGANIZATION ( 'NEURÈENÝ', 'NEURÈENÝ', '' ) ;
#66 = CALENDAR_DATE ( 2022, 8, 7 ) ;
#67 = ORIENTED_EDGE ( 'NONE', *, *, #163, .T. ) ;
#68 = EDGE_LOOP ( 'NONE', ( #118, #266, #63, #50 ) ) ;
#69 = EDGE_CURVE ( 'NONE', #29, #60, #162, .T. ) ;
#70 = DIRECTION ( 'NONE',  ( 0.000000000000000000, 0.000000000000000000, -1.000000000000000000 ) ) ;
#71 = CARTESIAN_POINT ( 'NONE',  ( -5.000000000000000000, 0.000000000000000000, 505.0000000000000000 ) ) ;
#72 = CIRCLE ( 'NONE', #369, 8.000000000000000000 ) ;
#73 = PERSON_AND_ORGANIZATION_ROLE ( 'creator' ) ;
#74 = FACE_OUTER_BOUND ( 'NONE', #68, .T. ) ;
#75 = DIRECTION ( 'NONE',  ( 0.000000000000000000, 0.000000000000000000, 1.000000000000000000 ) ) ;
#76 = DIRECTION ( 'NONE',  ( 1.224646799147353207E-16, 1.000000000000000000, -0.000000000000000000 ) ) ;
#77 = APPLICATION_CONTEXT ( 'configuration controlled 3d designs of mechanical parts and assemblies' ) ;
#78 = AXIS2_PLACEMENT_3D ( 'NONE', #62, #139, #232 ) ;
#79 = PLANE ( 'NONE',  #255 ) ;
#80 = CC_DESIGN_APPROVAL ( #150, ( #146 ) ) ;
#81 = CARTESIAN_POINT ( 'NONE',  ( -3.100000000000000089, 0.000000000000000000, 505.0000000000000000 ) ) ;
#82 = FACE_OUTER_BOUND ( 'NONE', #205, .T. ) ;
#83 = DIRECTION ( 'NONE',  ( -0.000000000000000000, -0.000000000000000000, -1.000000000000000000 ) ) ;
#84 = CC_DESIGN_APPROVAL ( #313, ( #36 ) ) ;
#85 = ORIENTED_EDGE ( 'NONE', *, *, #263, .T. ) ;
#86 = ORIENTED_EDGE ( 'NONE', *, *, #114, .T. ) ;
#87 = COORDINATED_UNIVERSAL_TIME_OFFSET ( 1, 0, .AHEAD. ) ;
#88 = APPROVAL_ROLE ( '' ) ;
#89 = DIRECTION ( 'NONE',  ( 0.000000000000000000, 0.000000000000000000, 1.000000000000000000 ) ) ;
#90 = CIRCLE ( 'NONE', #317, 8.000000000000000000 ) ;
#91 = CARTESIAN_POINT ( 'NONE',  ( 0.000000000000000000, 0.000000000000000000, 5.500000000000005329 ) ) ;
#92 = EDGE_LOOP ( 'NONE', ( #215, #85, #86, #94 ) ) ;
#93 = DIRECTION ( 'NONE',  ( 0.000000000000000000, 0.000000000000000000, 1.000000000000000000 ) ) ;
#94 = ORIENTED_EDGE ( 'NONE', *, *, #165, .T. ) ;
#95 = EDGE_CURVE ( 'NONE', #127, #243, #226, .T. ) ;
#96 = AXIS2_PLACEMENT_3D ( 'NONE', #30, #292, #199 ) ;
#97 = ORIENTED_EDGE ( 'NONE', *, *, #163, .F. ) ;
#98 = LINE ( 'NONE', #339, #171 ) ;
#99 = PERSON_AND_ORGANIZATION ( #343, #65 ) ;
#100 = PLANE ( 'NONE',  #304 ) ;
#101 = EDGE_CURVE ( 'NONE', #264, #217, #258, .T. ) ;
#102 = LOCAL_TIME ( 16, 49, 6.000000000000000000, #221 ) ;
#103 = CARTESIAN_POINT ( 'NONE',  ( 0.000000000000000000, 0.000000000000000000, 0.000000000000000000 ) ) ;
#104 = DIRECTION ( 'NONE',  ( -1.000000000000000000, 0.000000000000000000, 0.000000000000000000 ) ) ;
#105 = FACE_BOUND ( 'NONE', #135, .T. ) ;
#106 = EDGE_CURVE ( 'NONE', #217, #290, #2, .T. ) ;
#107 = LOCAL_TIME ( 16, 49, 6.000000000000000000, #87 ) ;
#108 = FACE_OUTER_BOUND ( 'NONE', #310, .T. ) ;
#109 = CYLINDRICAL_SURFACE ( 'NONE', #268, 3.100000000000000089 ) ;
#110 = CC_DESIGN_PERSON_AND_ORGANIZATION_ASSIGNMENT ( #37, #309, ( #8 ) ) ;
#111 = ADVANCED_FACE ( 'NONE', ( #105, #227 ), #100, .F. ) ;
#112 = LINE ( 'NONE', #262, #203 ) ;
#113 = EDGE_LOOP ( 'NONE', ( #175, #361 ) ) ;
#114 = EDGE_CURVE ( 'NONE', #168, #10, #98, .T. ) ;
#115 = CARTESIAN_POINT ( 'NONE',  ( 0.000000000000000000, 0.000000000000000000, 5.500000000000005329 ) ) ;
#116 = CIRCLE ( 'NONE', #294, 5.000000000000000000 ) ;
#117 = LOCAL_TIME ( 16, 49, 6.000000000000000000, #238 ) ;
#118 = ORIENTED_EDGE ( 'NONE', *, *, #285, .F. ) ;
#119 = DIRECTION ( 'NONE',  ( -0.000000000000000000, -0.000000000000000000, -1.000000000000000000 ) ) ;
#120 = PERSON_AND_ORGANIZATION_ROLE ( 'creator' ) ;
#121 = PERSON_AND_ORGANIZATION ( #343, #65 ) ;
#122 = CIRCLE ( 'NONE', #164, 5.000000000000000000 ) ;
#123 = LOCAL_TIME ( 16, 49, 6.000000000000000000, #210 ) ;
#124 = ORIENTED_EDGE ( 'NONE', *, *, #114, .F. ) ;
#125 = EDGE_LOOP ( 'NONE', ( #31, #247 ) ) ;
#126 = EDGE_CURVE ( 'NONE', #147, #290, #209, .T. ) ;
#127 = VERTEX_POINT ( 'NONE', #284 ) ;
#128 = AXIS2_PLACEMENT_3D ( 'NONE', #208, #149, #155 ) ;
#129 = SECURITY_CLASSIFICATION_LEVEL ( 'unclassified' ) ;
#130 = CARTESIAN_POINT ( 'NONE',  ( 0.000000000000000000, 0.000000000000000000, 505.0000000000000000 ) ) ;
#131 = CALENDAR_DATE ( 2022, 8, 7 ) ;
#132 = CARTESIAN_POINT ( 'NONE',  ( 5.000000000000000000, 6.123233995736766282E-16, 5.500000000000005329 ) ) ;
#133 = DIRECTION ( 'NONE',  ( -0.000000000000000000, -0.000000000000000000, -1.000000000000000000 ) ) ;
#134 = FACE_OUTER_BOUND ( 'NONE', #353, .T. ) ;
#135 = EDGE_LOOP ( 'NONE', ( #1, #97 ) ) ;
#136 = CARTESIAN_POINT ( 'NONE',  ( 0.000000000000000000, 0.000000000000000000, 505.0000000000000000 ) ) ;
#137 = FACE_OUTER_BOUND ( 'NONE', #378, .T. ) ;
#138 = AXIS2_PLACEMENT_3D ( 'NONE', #348, #56, #204 ) ;
#139 = DIRECTION ( 'NONE',  ( 0.000000000000000000, 0.000000000000000000, 1.000000000000000000 ) ) ;
#140 = DESIGN_CONTEXT ( 'detailed design', #156, 'design' ) ;
#141 = DIRECTION ( 'NONE',  ( 0.000000000000000000, 0.000000000000000000, 1.000000000000000000 ) ) ;
#142 = VERTEX_POINT ( 'NONE', #132 ) ;
#143 = DIRECTION ( 'NONE',  ( 1.000000000000000000, 0.000000000000000000, 0.000000000000000000 ) ) ;
#144 = ORIENTED_EDGE ( 'NONE', *, *, #267, .T. ) ;
#145 = CARTESIAN_POINT ( 'NONE',  ( -5.000000000000000000, 0.000000000000000000, 5.500000000000005329 ) ) ;
#146 = SECURITY_CLASSIFICATION ( '', '', #129 ) ;
#147 = VERTEX_POINT ( 'NONE', #251 ) ;
#148 = MECHANICAL_CONTEXT ( 'NONE', #77, 'mechanical' ) ;
#149 = DIRECTION ( 'NONE',  ( 0.000000000000000000, 0.000000000000000000, 1.000000000000000000 ) ) ;
#150 = APPROVAL ( #282, 'NEURÈENÝ' ) ;
#151 = LOCAL_TIME ( 16, 49, 6.000000000000000000, #17 ) ;
#152 = ADVANCED_FACE ( 'NONE', ( #74 ), #194, .T. ) ;
#153 = CARTESIAN_POINT ( 'NONE',  ( 0.000000000000000000, 0.000000000000000000, 5.000000000000000000 ) ) ;
#154 = ORIENTED_EDGE ( 'NONE', *, *, #356, .F. ) ;
#155 = DIRECTION ( 'NONE',  ( 1.000000000000000000, 0.000000000000000000, 0.000000000000000000 ) ) ;
#156 = APPLICATION_CONTEXT ( 'configuration controlled 3d designs of mechanical parts and assemblies' ) ;
#157 = ORIENTED_EDGE ( 'NONE', *, *, #48, .T. ) ;
#158 = DIRECTION ( 'NONE',  ( 1.000000000000000000, 0.000000000000000000, 0.000000000000000000 ) ) ;
#159 = CIRCLE ( 'NONE', #6, 3.100000000000000089 ) ;
#160 = DIRECTION ( 'NONE',  ( 1.000000000000000000, 0.000000000000000000, 0.000000000000000000 ) ) ;
#161 = CARTESIAN_POINT ( 'NONE',  ( 3.100000000000000089, 3.796405077356794918E-16, 505.0000000000000000 ) ) ;
#162 = LINE ( 'NONE', #161, #224 ) ;
#163 = EDGE_CURVE ( 'NONE', #60, #10, #159, .T. ) ;
#164 = AXIS2_PLACEMENT_3D ( 'NONE', #206, #202, #329 ) ;
#165 = EDGE_CURVE ( 'NONE', #10, #60, #379, .T. ) ;
#166 = DIRECTION ( 'NONE',  ( -1.000000000000000000, 0.000000000000000000, 0.000000000000000000 ) ) ;
#167 = CYLINDRICAL_SURFACE ( 'NONE', #192, 8.000000000000000000 ) ;
#168 = VERTEX_POINT ( 'NONE', #81 ) ;
#169 = DIRECTION ( 'NONE',  ( -1.000000000000000000, 0.000000000000000000, 0.000000000000000000 ) ) ;
#170 = PRODUCT_DEFINITION_SHAPE ( 'NONE', 'NONE',  #380 ) ;
#171 = VECTOR ( 'NONE', #70, 1000.000000000000000 ) ;
#172 = TOROIDAL_SURFACE ( 'NONE', #273, 5.500000000000000000, 0.5000000000000000000 ) ;
#173 = DIRECTION ( 'NONE',  ( -1.000000000000000000, 0.000000000000000000, 0.000000000000000000 ) ) ;
#174 = CC_DESIGN_SECURITY_CLASSIFICATION ( #146, ( #36 ) ) ;
#175 = ORIENTED_EDGE ( 'NONE', *, *, #48, .F. ) ;
#176 = CARTESIAN_POINT ( 'NONE',  ( 5.000000000000000000, 6.123233995736766282E-16, 505.0000000000000000 ) ) ;
#177 = ORIENTED_EDGE ( 'NONE', *, *, #101, .F. ) ;
#178 = UNCERTAINTY_MEASURE_WITH_UNIT (LENGTH_MEASURE( 1.000000000000000082E-05 ), #214, 'distance_accuracy_value', 'NONE');
#179 = DIRECTION ( 'NONE',  ( 1.000000000000000000, 0.000000000000000000, 0.000000000000000000 ) ) ;
#180 = ORIENTED_EDGE ( 'NONE', *, *, #190, .T. ) ;
#181 = DIRECTION ( 'NONE',  ( 1.000000000000000000, 0.000000000000000000, 0.000000000000000000 ) ) ;
#182 = APPLICATION_PROTOCOL_DEFINITION ( 'international standard', 'config_control_design', 1994, #156 ) ;
#183 = CC_DESIGN_PERSON_AND_ORGANIZATION_ASSIGNMENT ( #99, #286, ( #146 ) ) ;
#184 = CARTESIAN_POINT ( 'NONE',  ( 0.000000000000000000, 0.000000000000000000, 5.000000000000000000 ) ) ;
#185 =( NAMED_UNIT ( * ) PLANE_ANGLE_UNIT ( ) SI_UNIT ( $, .RADIAN. ) );
#186 = ORIENTED_EDGE ( 'NONE', *, *, #32, .T. ) ;
#187 = AXIS2_PLACEMENT_3D ( 'NONE', #254, #368, #222 ) ;
#188 = VERTEX_POINT ( 'NONE', #261 ) ;
#189 = ORIENTED_EDGE ( 'NONE', *, *, #299, .F. ) ;
#190 = EDGE_CURVE ( 'NONE', #264, #364, #116, .T. ) ;
#191 = CARTESIAN_POINT ( 'NONE',  ( 0.000000000000000000, 0.000000000000000000, 5.000000000000000000 ) ) ;
#192 = AXIS2_PLACEMENT_3D ( 'NONE', #381, #119, #173 ) ;
#193 = PERSON_AND_ORGANIZATION_ROLE ( 'design_supplier' ) ;
#194 = CYLINDRICAL_SURFACE ( 'NONE', #187, 5.000000000000000000 ) ;
#195 = CARTESIAN_POINT ( 'NONE',  ( 0.000000000000000000, 0.000000000000000000, 0.000000000000000000 ) ) ;
#196 = DIRECTION ( 'NONE',  ( -1.000000000000000000, 0.000000000000000000, 0.000000000000000000 ) ) ;
#197 = EDGE_CURVE ( 'NONE', #217, #142, #21, .T. ) ;
#198 = CC_DESIGN_APPROVAL ( #200, ( #380 ) ) ;
#199 = DIRECTION ( 'NONE',  ( 0.000000000000000000, 0.000000000000000000, -1.000000000000000000 ) ) ;
#200 = APPROVAL ( #237, 'NEURÈENÝ' ) ;
#201 = CIRCLE ( 'NONE', #230, 8.000000000000000000 ) ;
#202 = DIRECTION ( 'NONE',  ( 0.000000000000000000, 0.000000000000000000, 1.000000000000000000 ) ) ;
#203 = VECTOR ( 'NONE', #83, 1000.000000000000000 ) ;
#204 = DIRECTION ( 'NONE',  ( 1.000000000000000000, 0.000000000000000000, 0.000000000000000000 ) ) ;
#205 = EDGE_LOOP ( 'NONE', ( #180, #334 ) ) ;
#206 = CARTESIAN_POINT ( 'NONE',  ( 0.000000000000000000, 0.000000000000000000, 5.500000000000005329 ) ) ;
#207 = EDGE_LOOP ( 'NONE', ( #351, #276 ) ) ;
#208 = CARTESIAN_POINT ( 'NONE',  ( 0.000000000000000000, 0.000000000000000000, 505.0000000000000000 ) ) ;
#209 = CIRCLE ( 'NONE', #260, 5.500000000000000000 ) ;
#210 = COORDINATED_UNIVERSAL_TIME_OFFSET ( 1, 0, .AHEAD. ) ;
#211 = DIRECTION ( 'NONE',  ( 1.000000000000000000, 0.000000000000000000, -0.000000000000000000 ) ) ;
#212 = ADVANCED_FACE ( 'NONE', ( #327 ), #109, .F. ) ;
#213 = ORIENTED_EDGE ( 'NONE', *, *, #299, .T. ) ;
#214 =( LENGTH_UNIT ( ) NAMED_UNIT ( * ) SI_UNIT ( .MILLI., .METRE. ) );
#215 = ORIENTED_EDGE ( 'NONE', *, *, #69, .F. ) ;
#216 = CIRCLE ( 'NONE', #27, 3.100000000000000089 ) ;
#217 = VERTEX_POINT ( 'NONE', #145 ) ;
#218 = DIRECTION ( 'NONE',  ( 0.000000000000000000, 0.000000000000000000, 1.000000000000000000 ) ) ;
#219 = APPROVAL_DATE_TIME ( #316, #150 ) ;
#220 = DIRECTION ( 'NONE',  ( -0.000000000000000000, -0.000000000000000000, -1.000000000000000000 ) ) ;
#221 = COORDINATED_UNIVERSAL_TIME_OFFSET ( 1, 0, .AHEAD. ) ;
#222 = DIRECTION ( 'NONE',  ( -1.000000000000000000, 0.000000000000000000, 0.000000000000000000 ) ) ;
#223 = EDGE_CURVE ( 'NONE', #127, #188, #315, .T. ) ;
#224 = VECTOR ( 'NONE', #291, 1000.000000000000000 ) ;
#225 = ADVANCED_FACE ( 'NONE', ( #108 ), #302, .F. ) ;
#226 = LINE ( 'NONE', #23, #59 ) ;
#227 = FACE_OUTER_BOUND ( 'NONE', #113, .T. ) ;
#228 = AXIS2_PLACEMENT_3D ( 'NONE', #333, #93, #331 ) ;
#229 = CARTESIAN_POINT ( 'NONE',  ( -5.000000000000000000, 0.000000000000000000, 505.0000000000000000 ) ) ;
#230 = AXIS2_PLACEMENT_3D ( 'NONE', #191, #44, #52 ) ;
#231 = CARTESIAN_POINT ( 'NONE',  ( 0.000000000000000000, 0.000000000000000000, 0.000000000000000000 ) ) ;
#232 = DIRECTION ( 'NONE',  ( 1.000000000000000000, 0.000000000000000000, 0.000000000000000000 ) ) ;
#233 = AXIS2_PLACEMENT_3D ( 'NONE', #115, #374, #375 ) ;
#234 = DIRECTION ( 'NONE',  ( -0.000000000000000000, -0.000000000000000000, -1.000000000000000000 ) ) ;
#235 = ORIENTED_EDGE ( 'NONE', *, *, #69, .T. ) ;
#236 = CLOSED_SHELL ( 'NONE', ( #15, #363, #41, #26, #280, #332, #111, #152, #277, #225, #212 ) ) ;
#237 = APPROVAL_STATUS ( 'not_yet_approved' ) ;
#238 = COORDINATED_UNIVERSAL_TIME_OFFSET ( 1, 0, .AHEAD. ) ;
#239 = CALENDAR_DATE ( 2022, 8, 7 ) ;
#240 = CIRCLE ( 'NONE', #322, 5.500000000000000000 ) ;
#241 = DATE_AND_TIME ( #239, #123 ) ;
#242 = AXIS2_PLACEMENT_3D ( 'NONE', #130, #370, #104 ) ;
#243 = VERTEX_POINT ( 'NONE', #28 ) ;
#244 = ORIENTED_EDGE ( 'NONE', *, *, #256, .F. ) ;
#245 = CC_DESIGN_PERSON_AND_ORGANIZATION_ASSIGNMENT ( #311, #193, ( #36 ) ) ;
#246 = PERSON_AND_ORGANIZATION ( #343, #65 ) ;
#247 = ORIENTED_EDGE ( 'NONE', *, *, #356, .T. ) ;
#248 = APPROVAL_PERSON_ORGANIZATION ( #288, #150, #253 ) ;
#249 = DIRECTION ( 'NONE',  ( 1.000000000000000000, 0.000000000000000000, -0.000000000000000000 ) ) ;
#250 = AXIS2_PLACEMENT_3D ( 'NONE', #289, #76, #371 ) ;
#251 = CARTESIAN_POINT ( 'NONE',  ( 5.500000000000000000, 0.000000000000000000, 5.000000000000002665 ) ) ;
#252 = CC_DESIGN_PERSON_AND_ORGANIZATION_ASSIGNMENT ( #246, #73, ( #36 ) ) ;
#253 = APPROVAL_ROLE ( '' ) ;
#254 = CARTESIAN_POINT ( 'NONE',  ( 0.000000000000000000, 0.000000000000000000, 505.0000000000000000 ) ) ;
#255 = AXIS2_PLACEMENT_3D ( 'NONE', #300, #269, #350 ) ;
#256 = EDGE_CURVE ( 'NONE', #142, #217, #122, .T. ) ;
#257 = CARTESIAN_POINT ( 'NONE',  ( -3.100000000000000089, 0.000000000000000000, 0.000000000000000000 ) ) ;
#258 = LINE ( 'NONE', #71, #354 ) ;
#259 = DIRECTION ( 'NONE',  ( -0.000000000000000000, -0.000000000000000000, -1.000000000000000000 ) ) ;
#260 = AXIS2_PLACEMENT_3D ( 'NONE', #45, #133, #160 ) ;
#261 = CARTESIAN_POINT ( 'NONE',  ( 8.000000000000000000, 9.797174393178825657E-16, 5.000000000000000000 ) ) ;
#262 = CARTESIAN_POINT ( 'NONE',  ( 8.000000000000000000, 9.797174393178825657E-16, 5.000000000000000000 ) ) ;
#263 = EDGE_CURVE ( 'NONE', #29, #168, #216, .T. ) ;
#264 = VERTEX_POINT ( 'NONE', #229 ) ;
#265 = CARTESIAN_POINT ( 'NONE',  ( 0.000000000000000000, 0.000000000000000000, 505.0000000000000000 ) ) ;
#266 = ORIENTED_EDGE ( 'NONE', *, *, #190, .F. ) ;
#267 = EDGE_CURVE ( 'NONE', #19, #243, #72, .T. ) ;
#268 = AXIS2_PLACEMENT_3D ( 'NONE', #372, #326, #169 ) ;
#269 = DIRECTION ( 'NONE',  ( 0.000000000000000000, 0.000000000000000000, 1.000000000000000000 ) ) ;
#270 = ORIENTED_EDGE ( 'NONE', *, *, #32, .F. ) ;
#271 = APPROVAL_DATE_TIME ( #3, #200 ) ;
#272 = DATE_TIME_ROLE ( 'creation_date' ) ;
#273 = AXIS2_PLACEMENT_3D ( 'NONE', #91, #89, #4 ) ;
#274 = FACE_OUTER_BOUND ( 'NONE', #328, .T. ) ;
#275 = AXIS2_PLACEMENT_3D ( 'NONE', #318, #220, #166 ) ;
#276 = ORIENTED_EDGE ( 'NONE', *, *, #263, .F. ) ;
#277 = ADVANCED_FACE ( 'NONE', ( #325, #82 ), #79, .T. ) ;
#278 = ORIENTED_EDGE ( 'NONE', *, *, #61, .F. ) ;
#279 = CARTESIAN_POINT ( 'NONE',  ( 0.000000000000000000, 0.000000000000000000, 505.0000000000000000 ) ) ;
#280 = ADVANCED_FACE ( 'NONE', ( #25 ), #167, .T. ) ;
#281 = APPROVAL_PERSON_ORGANIZATION ( #11, #200, #355 ) ;
#282 = APPROVAL_STATUS ( 'not_yet_approved' ) ;
#283 = CIRCLE ( 'NONE', #9, 5.000000000000000000 ) ;
#284 = CARTESIAN_POINT ( 'NONE',  ( -8.000000000000000000, 0.000000000000000000, 5.000000000000000000 ) ) ;
#285 = EDGE_CURVE ( 'NONE', #364, #142, #293, .T. ) ;
#286 = PERSON_AND_ORGANIZATION_ROLE ( 'classification_officer' ) ;
#287 = DIRECTION ( 'NONE',  ( -0.000000000000000000, -0.000000000000000000, -1.000000000000000000 ) ) ;
#288 = PERSON_AND_ORGANIZATION ( #343, #65 ) ;
#289 = CARTESIAN_POINT ( 'NONE',  ( -5.500000000000000000, 6.735557395310442023E-16, 5.500000000000005329 ) ) ;
#290 = VERTEX_POINT ( 'NONE', #345 ) ;
#291 = DIRECTION ( 'NONE',  ( 0.000000000000000000, 0.000000000000000000, -1.000000000000000000 ) ) ;
#292 = DIRECTION ( 'NONE',  ( 0.000000000000000000, -1.000000000000000000, 0.000000000000000000 ) ) ;
#293 = LINE ( 'NONE', #176, #13 ) ;
#294 = AXIS2_PLACEMENT_3D ( 'NONE', #265, #323, #58 ) ;
#295 = ORIENTED_EDGE ( 'NONE', *, *, #223, .F. ) ;
#296 = CARTESIAN_POINT ( 'NONE',  ( 0.000000000000000000, 0.000000000000000000, 505.0000000000000000 ) ) ;
#297 = PRODUCT_RELATED_PRODUCT_CATEGORY ( 'detail', '', ( #8 ) ) ;
#298 = ORIENTED_EDGE ( 'NONE', *, *, #106, .T. ) ;
#299 = EDGE_CURVE ( 'NONE', #188, #19, #112, .T. ) ;
#300 = CARTESIAN_POINT ( 'NONE',  ( 0.000000000000000000, 0.000000000000000000, 505.0000000000000000 ) ) ;
#301 = ORIENTED_EDGE ( 'NONE', *, *, #349, .T. ) ;
#302 = TOROIDAL_SURFACE ( 'NONE', #138, 5.500000000000000000, 0.5000000000000000000 ) ;
#303 = CALENDAR_DATE ( 2022, 8, 7 ) ;
#304 = AXIS2_PLACEMENT_3D ( 'NONE', #103, #218, #249 ) ;
#305 = APPROVAL_DATE_TIME ( #241, #313 ) ;
#306 = DIRECTION ( 'NONE',  ( 0.000000000000000000, 0.000000000000000000, 1.000000000000000000 ) ) ;
#307 = ORIENTED_EDGE ( 'NONE', *, *, #308, .T. ) ;
#308 = EDGE_CURVE ( 'NONE', #142, #147, #53, .T. ) ;
#309 = PERSON_AND_ORGANIZATION_ROLE ( 'design_owner' ) ;
#310 = EDGE_LOOP ( 'NONE', ( #22, #244, #307, #154 ) ) ;
#311 = PERSON_AND_ORGANIZATION ( #343, #65 ) ;
#312 = FACE_OUTER_BOUND ( 'NONE', #330, .T. ) ;
#313 = APPROVAL ( #7, 'NEURÈENÝ' ) ;
#314 = CARTESIAN_POINT ( 'NONE',  ( 8.000000000000000000, 9.797174393178825657E-16, 0.000000000000000000 ) ) ;
#315 = CIRCLE ( 'NONE', #78, 8.000000000000000000 ) ;
#316 = DATE_AND_TIME ( #131, #151 ) ;
#317 = AXIS2_PLACEMENT_3D ( 'NONE', #18, #367, #158 ) ;
#318 = CARTESIAN_POINT ( 'NONE',  ( 0.000000000000000000, 0.000000000000000000, 5.000000000000000000 ) ) ;
#319 = CYLINDRICAL_SURFACE ( 'NONE', #275, 8.000000000000000000 ) ;
#320 = DIRECTION ( 'NONE',  ( -0.000000000000000000, -0.000000000000000000, -1.000000000000000000 ) ) ;
#321 = CC_DESIGN_PERSON_AND_ORGANIZATION_ASSIGNMENT ( #39, #120, ( #380 ) ) ;
#322 = AXIS2_PLACEMENT_3D ( 'NONE', #184, #359, #181 ) ;
#323 = DIRECTION ( 'NONE',  ( 0.000000000000000000, 0.000000000000000000, 1.000000000000000000 ) ) ;
#324 = ORIENTED_EDGE ( 'NONE', *, *, #256, .T. ) ;
#325 = FACE_BOUND ( 'NONE', #207, .T. ) ;
#326 = DIRECTION ( 'NONE',  ( 0.000000000000000000, 0.000000000000000000, -1.000000000000000000 ) ) ;
#327 = FACE_OUTER_BOUND ( 'NONE', #92, .T. ) ;
#328 = EDGE_LOOP ( 'NONE', ( #376, #298, #43, #362 ) ) ;
#329 = DIRECTION ( 'NONE',  ( 1.000000000000000000, 0.000000000000000000, 0.000000000000000000 ) ) ;
#330 = EDGE_LOOP ( 'NONE', ( #278, #35, #324, #177 ) ) ;
#331 = DIRECTION ( 'NONE',  ( 1.000000000000000000, 0.000000000000000000, 0.000000000000000000 ) ) ;
#332 = ADVANCED_FACE ( 'NONE', ( #54, #137 ), #347, .T. ) ;
#333 = CARTESIAN_POINT ( 'NONE',  ( 0.000000000000000000, 0.000000000000000000, 0.000000000000000000 ) ) ;
#334 = ORIENTED_EDGE ( 'NONE', *, *, #61, .T. ) ;
#335 = ORIENTED_EDGE ( 'NONE', *, *, #95, .T. ) ;
#336 = EDGE_LOOP ( 'NONE', ( #301, #235, #67, #124 ) ) ;
#337 = CARTESIAN_POINT ( 'NONE',  ( 3.100000000000000089, 3.796405077356794918E-16, 505.0000000000000000 ) ) ;
#338 = SHAPE_DEFINITION_REPRESENTATION ( #170, #16 ) ;
#339 = CARTESIAN_POINT ( 'NONE',  ( -3.100000000000000089, 0.000000000000000000, 505.0000000000000000 ) ) ;
#340 = AXIS2_PLACEMENT_3D ( 'NONE', #153, #306, #211 ) ;
#341 = APPROVAL_PERSON_ORGANIZATION ( #121, #313, #88 ) ;
#342 = DIRECTION ( 'NONE',  ( 1.000000000000000000, 0.000000000000000000, 0.000000000000000000 ) ) ;
#343 = PERSON ( 'NEURÈENÝ', 'NEURÈENÝ', 'NEURÈENÝ', ('NEURÈENÝ'), ('NEURÈENÝ'), ('NEURÈENÝ') ) ;
#344 = CARTESIAN_POINT ( 'NONE',  ( 3.100000000000000089, 3.796405077356794918E-16, 0.000000000000000000 ) ) ;
#345 = CARTESIAN_POINT ( 'NONE',  ( -5.500000000000000000, 6.735557395310442023E-16, 5.000000000000002665 ) ) ;
#346 =( GEOMETRIC_REPRESENTATION_CONTEXT ( 3 ) GLOBAL_UNCERTAINTY_ASSIGNED_CONTEXT ( ( #178 ) ) GLOBAL_UNIT_ASSIGNED_CONTEXT ( ( #214, #185, #42 ) ) REPRESENTATION_CONTEXT ( 'NONE', 'WORKASPACE' ) );
#347 = PLANE ( 'NONE',  #340 ) ;
#348 = CARTESIAN_POINT ( 'NONE',  ( 0.000000000000000000, 0.000000000000000000, 5.500000000000005329 ) ) ;
#349 = EDGE_CURVE ( 'NONE', #168, #29, #358, .T. ) ;
#350 = DIRECTION ( 'NONE',  ( 1.000000000000000000, 0.000000000000000000, -0.000000000000000000 ) ) ;
#351 = ORIENTED_EDGE ( 'NONE', *, *, #349, .F. ) ;
#352 = DIRECTION ( 'NONE',  ( 0.000000000000000000, 0.000000000000000000, 1.000000000000000000 ) ) ;
#353 = EDGE_LOOP ( 'NONE', ( #270, #213, #144, #12 ) ) ;
#354 = VECTOR ( 'NONE', #320, 1000.000000000000000 ) ;
#355 = APPROVAL_ROLE ( '' ) ;
#356 = EDGE_CURVE ( 'NONE', #290, #147, #240, .T. ) ;
#357 = DATE_AND_TIME ( #66, #117 ) ;
#358 = CIRCLE ( 'NONE', #128, 3.100000000000000089 ) ;
#359 = DIRECTION ( 'NONE',  ( -0.000000000000000000, -0.000000000000000000, -1.000000000000000000 ) ) ;
#360 = CC_DESIGN_DATE_AND_TIME_ASSIGNMENT ( #49, #46, ( #146 ) ) ;
#361 = ORIENTED_EDGE ( 'NONE', *, *, #267, .F. ) ;
#362 = ORIENTED_EDGE ( 'NONE', *, *, #308, .F. ) ;
#363 = ADVANCED_FACE ( 'NONE', ( #274 ), #172, .F. ) ;
#364 = VERTEX_POINT ( 'NONE', #40 ) ;
#365 = DIRECTION ( 'NONE',  ( 0.000000000000000000, 0.000000000000000000, -1.000000000000000000 ) ) ;
#366 = CALENDAR_DATE ( 2022, 8, 7 ) ;
#367 = DIRECTION ( 'NONE',  ( 0.000000000000000000, 0.000000000000000000, 1.000000000000000000 ) ) ;
#368 = DIRECTION ( 'NONE',  ( -0.000000000000000000, -0.000000000000000000, -1.000000000000000000 ) ) ;
#369 = AXIS2_PLACEMENT_3D ( 'NONE', #231, #141, #57 ) ;
#370 = DIRECTION ( 'NONE',  ( -0.000000000000000000, -0.000000000000000000, -1.000000000000000000 ) ) ;
#371 = DIRECTION ( 'NONE',  ( -1.000000000000000000, 1.224646799147351482E-16, 0.000000000000000000 ) ) ;
#372 = CARTESIAN_POINT ( 'NONE',  ( 0.000000000000000000, 0.000000000000000000, 505.0000000000000000 ) ) ;
#373 = CC_DESIGN_DATE_AND_TIME_ASSIGNMENT ( #357, #272, ( #380 ) ) ;
#374 = DIRECTION ( 'NONE',  ( 0.000000000000000000, 0.000000000000000000, 1.000000000000000000 ) ) ;
#375 = DIRECTION ( 'NONE',  ( 1.000000000000000000, 0.000000000000000000, 0.000000000000000000 ) ) ;
#376 = ORIENTED_EDGE ( 'NONE', *, *, #197, .F. ) ;
#377 = CARTESIAN_POINT ( 'NONE',  ( 0.000000000000000000, 0.000000000000000000, 0.000000000000000000 ) ) ;
#378 = EDGE_LOOP ( 'NONE', ( #55, #186 ) ) ;
#379 = CIRCLE ( 'NONE', #34, 3.100000000000000089 ) ;
#380 = PRODUCT_DEFINITION ( 'NEZNÁMÝ', '', #36, #140 ) ;
#381 = CARTESIAN_POINT ( 'NONE',  ( 0.000000000000000000, 0.000000000000000000, 5.000000000000000000 ) ) ;
ENDSEC;
END-ISO-10303-21;
