ISO-10303-21;
HEADER;
FILE_DESCRIPTION (( 'STEP AP203' ),
    '1' );
FILE_NAME ('4c50.STEP',
    '2022-07-08T14:40:57',
    ( '' ),
    ( '' ),
    'SwSTEP 2.0',
    'SolidWorks 2019',
    '' );
FILE_SCHEMA (( 'CONFIG_CONTROL_DESIGN' ));
ENDSEC;

DATA;
#1 = FACE_OUTER_BOUND ( 'NONE', #300, .T. ) ;
#2 = PRODUCT_DEFINITION_FORMATION_WITH_SPECIFIED_SOURCE ( 'LIBOVOLNÝ', '', #144, .NOT_KNOWN. ) ;
#3 = VECTOR ( 'NONE', #373, 1000.000000000000000 ) ;
#4 = ADVANCED_FACE ( 'NONE', ( #25 ), #339, .T. ) ;
#5 = ORIENTED_EDGE ( 'NONE', *, *, #230, .T. ) ;
#6 = AXIS2_PLACEMENT_3D ( 'NONE', #358, #295, #317 ) ;
#7 = DIRECTION ( 'NONE',  ( 1.000000000000000000, 0.000000000000000000, -0.000000000000000000 ) ) ;
#8 = EDGE_LOOP ( 'NONE', ( #217, #62, #338, #94 ) ) ;
#9 = DIRECTION ( 'NONE',  ( 1.000000000000000000, 0.000000000000000000, 0.000000000000000000 ) ) ;
#10 = ORIENTED_EDGE ( 'NONE', *, *, #354, .T. ) ;
#11 = COORDINATED_UNIVERSAL_TIME_OFFSET ( 1, 0, .AHEAD. ) ;
#12 = EDGE_LOOP ( 'NONE', ( #282, #236, #183, #215 ) ) ;
#13 = LOCAL_TIME ( 16, 40, 57.00000000000000000, #138 ) ;
#14 = PERSON_AND_ORGANIZATION_ROLE ( 'design_owner' ) ;
#15 = ORIENTED_EDGE ( 'NONE', *, *, #348, .F. ) ;
#16 = FACE_OUTER_BOUND ( 'NONE', #273, .T. ) ;
#17 = CARTESIAN_POINT ( 'NONE',  ( 0.000000000000000000, 0.000000000000000000, 0.000000000000000000 ) ) ;
#18 = DIRECTION ( 'NONE',  ( -0.000000000000000000, -0.000000000000000000, -1.000000000000000000 ) ) ;
#19 = DIRECTION ( 'NONE',  ( -1.000000000000000000, 0.000000000000000000, 0.000000000000000000 ) ) ;
#20 = CIRCLE ( 'NONE', #139, 10.00000000000000000 ) ;
#21 = CARTESIAN_POINT ( 'NONE',  ( -6.500000000000000888, 7.960204194457796463E-16, 7.499999999999951150 ) ) ;
#22 = CARTESIAN_POINT ( 'NONE',  ( 6.500000000000000888, 0.000000000000000000, 6.999999999999975131 ) ) ;
#23 = PERSON_AND_ORGANIZATION ( #350, #352 ) ;
#24 = APPROVAL ( #277, 'NEURÈENÝ' ) ;
#25 = FACE_OUTER_BOUND ( 'NONE', #331, .T. ) ;
#26 = CALENDAR_DATE ( 2022, 8, 7 ) ;
#27 = AXIS2_PLACEMENT_3D ( 'NONE', #151, #381, #115 ) ;
#28 = CYLINDRICAL_SURFACE ( 'NONE', #250, 10.00000000000000000 ) ;
#29 = DATE_AND_TIME ( #26, #312 ) ;
#30 = CARTESIAN_POINT ( 'NONE',  ( -10.00000000000000000, 0.000000000000000000, 7.000000000000000000 ) ) ;
#31 = SHAPE_DEFINITION_REPRESENTATION ( #205, #131 ) ;
#32 = DIRECTION ( 'NONE',  ( 0.000000000000000000, 0.000000000000000000, 1.000000000000000000 ) ) ;
#33 = EDGE_CURVE ( 'NONE', #76, #213, #91, .T. ) ;
#34 = VERTEX_POINT ( 'NONE', #200 ) ;
#35 = APPROVAL_PERSON_ORGANIZATION ( #333, #24, #214 ) ;
#36 = LINE ( 'NONE', #207, #163 ) ;
#37 = ORIENTED_EDGE ( 'NONE', *, *, #233, .F. ) ;
#38 = FACE_BOUND ( 'NONE', #150, .T. ) ;
#39 = ORIENTED_EDGE ( 'NONE', *, *, #305, .T. ) ;
#40 =( GEOMETRIC_REPRESENTATION_CONTEXT ( 3 ) GLOBAL_UNCERTAINTY_ASSIGNED_CONTEXT ( ( #321 ) ) GLOBAL_UNIT_ASSIGNED_CONTEXT ( ( #363, #124, #372 ) ) REPRESENTATION_CONTEXT ( 'NONE', 'WORKASPACE' ) );
#41 = VERTEX_POINT ( 'NONE', #344 ) ;
#42 = COORDINATED_UNIVERSAL_TIME_OFFSET ( 1, 0, .AHEAD. ) ;
#43 = EDGE_CURVE ( 'NONE', #45, #64, #294, .T. ) ;
#44 = VERTEX_POINT ( 'NONE', #22 ) ;
#45 = VERTEX_POINT ( 'NONE', #316 ) ;
#46 = PERSON_AND_ORGANIZATION ( #350, #352 ) ;
#47 = CC_DESIGN_APPROVAL ( #120, ( #2 ) ) ;
#48 = CARTESIAN_POINT ( 'NONE',  ( 3.250000000000000444, 3.980102097228898231E-16, 0.000000000000000000 ) ) ;
#49 = PERSON_AND_ORGANIZATION_ROLE ( 'creator' ) ;
#50 = DIRECTION ( 'NONE',  ( 1.000000000000000000, 0.000000000000000000, 0.000000000000000000 ) ) ;
#51 = TOROIDAL_SURFACE ( 'NONE', #153, 6.500000000000000888, 0.5000000000000000000 ) ;
#52 = CC_DESIGN_PERSON_AND_ORGANIZATION_ASSIGNMENT ( #346, #258, ( #266 ) ) ;
#53 = APPROVAL_STATUS ( 'not_yet_approved' ) ;
#54 = DIRECTION ( 'NONE',  ( -1.000000000000000000, 0.000000000000000000, 0.000000000000000000 ) ) ;
#55 = AXIS2_PLACEMENT_3D ( 'NONE', #88, #61, #9 ) ;
#56 = DIRECTION ( 'NONE',  ( 1.000000000000000000, 0.000000000000000000, 0.000000000000000000 ) ) ;
#57 = CALENDAR_DATE ( 2022, 8, 7 ) ;
#58 = DIRECTION ( 'NONE',  ( 0.000000000000000000, 0.000000000000000000, 1.000000000000000000 ) ) ;
#59 = AXIS2_PLACEMENT_3D ( 'NONE', #21, #311, #189 ) ;
#60 = CIRCLE ( 'NONE', #355, 6.000000000000000888 ) ;
#61 = DIRECTION ( 'NONE',  ( 0.000000000000000000, 0.000000000000000000, 1.000000000000000000 ) ) ;
#62 = ORIENTED_EDGE ( 'NONE', *, *, #357, .T. ) ;
#63 = DIRECTION ( 'NONE',  ( 0.000000000000000000, 0.000000000000000000, 1.000000000000000000 ) ) ;
#64 = VERTEX_POINT ( 'NONE', #166 ) ;
#65 = CIRCLE ( 'NONE', #284, 3.250000000000000444 ) ;
#66 = CARTESIAN_POINT ( 'NONE',  ( 0.000000000000000000, 0.000000000000000000, 0.000000000000000000 ) ) ;
#67 = PRODUCT_RELATED_PRODUCT_CATEGORY ( 'detail', '', ( #144 ) ) ;
#68 = VERTEX_POINT ( 'NONE', #48 ) ;
#69 = CARTESIAN_POINT ( 'NONE',  ( 0.000000000000000000, 0.000000000000000000, 0.000000000000000000 ) ) ;
#70 = ORIENTED_EDGE ( 'NONE', *, *, #206, .T. ) ;
#71 = FACE_OUTER_BOUND ( 'NONE', #243, .T. ) ;
#72 = VERTEX_POINT ( 'NONE', #162 ) ;
#73 = CIRCLE ( 'NONE', #343, 6.000000000000000888 ) ;
#74 = DATE_AND_TIME ( #100, #178 ) ;
#75 = DIRECTION ( 'NONE',  ( -1.000000000000000000, 0.000000000000000000, 0.000000000000000000 ) ) ;
#76 = VERTEX_POINT ( 'NONE', #287 ) ;
#77 = PERSON_AND_ORGANIZATION_ROLE ( 'design_supplier' ) ;
#78 = CYLINDRICAL_SURFACE ( 'NONE', #256, 6.000000000000000888 ) ;
#79 = ORIENTED_EDGE ( 'NONE', *, *, #230, .F. ) ;
#80 = EDGE_LOOP ( 'NONE', ( #245, #367 ) ) ;
#81 = PERSON_AND_ORGANIZATION ( #350, #352 ) ;
#82 = DESIGN_CONTEXT ( 'detailed design', #141, 'design' ) ;
#83 = DIRECTION ( 'NONE',  ( 1.000000000000000000, 0.000000000000000000, -0.000000000000000000 ) ) ;
#84 = CC_DESIGN_APPROVAL ( #24, ( #182 ) ) ;
#85 = CARTESIAN_POINT ( 'NONE',  ( 0.000000000000000000, 0.000000000000000000, 607.0000000000000000 ) ) ;
#86 = AXIS2_PLACEMENT_3D ( 'NONE', #251, #32, #83 ) ;
#87 = TOROIDAL_SURFACE ( 'NONE', #308, 6.500000000000000888, 0.5000000000000000000 ) ;
#88 = CARTESIAN_POINT ( 'NONE',  ( 0.000000000000000000, 0.000000000000000000, 607.0000000000000000 ) ) ;
#89 = ORIENTED_EDGE ( 'NONE', *, *, #322, .F. ) ;
#90 = DIRECTION ( 'NONE',  ( 1.000000000000000000, 0.000000000000000000, 0.000000000000000000 ) ) ;
#91 = CIRCLE ( 'NONE', #59, 0.5000000000000004441 ) ;
#92 = EDGE_LOOP ( 'NONE', ( #70, #359 ) ) ;
#93 = FACE_OUTER_BOUND ( 'NONE', #8, .T. ) ;
#94 = ORIENTED_EDGE ( 'NONE', *, *, #104, .F. ) ;
#95 = AXIS2_PLACEMENT_3D ( 'NONE', #134, #218, #216 ) ;
#96 = DIRECTION ( 'NONE',  ( 0.000000000000000000, 0.000000000000000000, 1.000000000000000000 ) ) ;
#97 = DIRECTION ( 'NONE',  ( -0.000000000000000000, -0.000000000000000000, -1.000000000000000000 ) ) ;
#98 = VERTEX_POINT ( 'NONE', #135 ) ;
#99 = EDGE_CURVE ( 'NONE', #213, #44, #279, .T. ) ;
#100 = CALENDAR_DATE ( 2022, 8, 7 ) ;
#101 = CARTESIAN_POINT ( 'NONE',  ( 0.000000000000000000, 0.000000000000000000, 7.000000000000000000 ) ) ;
#102 = AXIS2_PLACEMENT_3D ( 'NONE', #17, #157, #103 ) ;
#103 = DIRECTION ( 'NONE',  ( 1.000000000000000000, 0.000000000000000000, 0.000000000000000000 ) ) ;
#104 = EDGE_CURVE ( 'NONE', #98, #34, #105, .T. ) ;
#105 = LINE ( 'NONE', #254, #3 ) ;
#106 = APPLICATION_PROTOCOL_DEFINITION ( 'international standard', 'config_control_design', 1994, #125 ) ;
#107 = DIRECTION ( 'NONE',  ( 0.000000000000000000, 0.000000000000000000, -1.000000000000000000 ) ) ;
#108 = DIRECTION ( 'NONE',  ( -0.000000000000000000, -0.000000000000000000, -1.000000000000000000 ) ) ;
#109 = DIRECTION ( 'NONE',  ( -1.000000000000000000, 0.000000000000000000, 0.000000000000000000 ) ) ;
#110 = EDGE_CURVE ( 'NONE', #315, #44, #143, .T. ) ;
#111 = CARTESIAN_POINT ( 'NONE',  ( 0.000000000000000000, 0.000000000000000000, 7.000000000000000000 ) ) ;
#112 = ADVANCED_FACE ( 'NONE', ( #257 ), #225, .T. ) ;
#113 = ADVANCED_FACE ( 'NONE', ( #16 ), #78, .T. ) ;
#114 = VECTOR ( 'NONE', #164, 1000.000000000000000 ) ;
#115 = DIRECTION ( 'NONE',  ( -1.000000000000000000, 0.000000000000000000, 0.000000000000000000 ) ) ;
#116 = CIRCLE ( 'NONE', #6, 6.000000000000000888 ) ;
#117 = EDGE_CURVE ( 'NONE', #285, #315, #130, .T. ) ;
#118 = DIRECTION ( 'NONE',  ( -0.000000000000000000, -0.000000000000000000, -1.000000000000000000 ) ) ;
#119 = ORIENTED_EDGE ( 'NONE', *, *, #237, .F. ) ;
#120 = APPROVAL ( #380, 'NEURÈENÝ' ) ;
#121 = CARTESIAN_POINT ( 'NONE',  ( 0.000000000000000000, 0.000000000000000000, 607.0000000000000000 ) ) ;
#122 = AXIS2_PLACEMENT_3D ( 'NONE', #137, #259, #194 ) ;
#123 = VERTEX_POINT ( 'NONE', #376 ) ;
#124 =( NAMED_UNIT ( * ) PLANE_ANGLE_UNIT ( ) SI_UNIT ( $, .RADIAN. ) );
#125 = APPLICATION_CONTEXT ( 'configuration controlled 3d designs of mechanical parts and assemblies' ) ;
#126 = ORIENTED_EDGE ( 'NONE', *, *, #345, .T. ) ;
#127 = CIRCLE ( 'NONE', #156, 3.250000000000000444 ) ;
#128 = EDGE_LOOP ( 'NONE', ( #155, #240, #5, #210 ) ) ;
#129 = DIRECTION ( 'NONE',  ( 1.000000000000000000, 0.000000000000000000, 0.000000000000000000 ) ) ;
#130 = LINE ( 'NONE', #278, #114 ) ;
#131 = ADVANCED_BREP_SHAPE_REPRESENTATION ( '4c50', ( #323, #260 ), #40 ) ;
#132 = DATE_AND_TIME ( #280, #301 ) ;
#133 = PLANE ( 'NONE',  #86 ) ;
#134 = CARTESIAN_POINT ( 'NONE',  ( 0.000000000000000000, 0.000000000000000000, 0.000000000000000000 ) ) ;
#135 = CARTESIAN_POINT ( 'NONE',  ( -3.250000000000000444, 0.000000000000000000, 607.0000000000000000 ) ) ;
#136 = DIRECTION ( 'NONE',  ( 0.000000000000000000, -1.000000000000000000, 0.000000000000000000 ) ) ;
#137 = CARTESIAN_POINT ( 'NONE',  ( 0.000000000000000000, 0.000000000000000000, 7.000000000000000000 ) ) ;
#138 = COORDINATED_UNIVERSAL_TIME_OFFSET ( 1, 0, .AHEAD. ) ;
#139 = AXIS2_PLACEMENT_3D ( 'NONE', #356, #63, #267 ) ;
#140 = CARTESIAN_POINT ( 'NONE',  ( -6.500000000000000888, 7.960204194457796463E-16, 6.999999999999975131 ) ) ;
#141 = APPLICATION_CONTEXT ( 'configuration controlled 3d designs of mechanical parts and assemblies' ) ;
#142 = DIRECTION ( 'NONE',  ( -0.000000000000000000, -0.000000000000000000, -1.000000000000000000 ) ) ;
#143 = CIRCLE ( 'NONE', #173, 0.5000000000000004441 ) ;
#144 = PRODUCT ( '4c50', '4c50', '', ( #184 ) ) ;
#145 = CYLINDRICAL_SURFACE ( 'NONE', #186, 3.250000000000000444 ) ;
#146 = CIRCLE ( 'NONE', #168, 3.250000000000000444 ) ;
#147 = AXIS2_PLACEMENT_3D ( 'NONE', #101, #18, #75 ) ;
#148 = FACE_OUTER_BOUND ( 'NONE', #304, .T. ) ;
#149 = VECTOR ( 'NONE', #161, 1000.000000000000000 ) ;
#150 = EDGE_LOOP ( 'NONE', ( #15, #303 ) ) ;
#151 = CARTESIAN_POINT ( 'NONE',  ( 0.000000000000000000, 0.000000000000000000, 607.0000000000000000 ) ) ;
#152 = ORIENTED_EDGE ( 'NONE', *, *, #264, .T. ) ;
#153 = AXIS2_PLACEMENT_3D ( 'NONE', #371, #226, #219 ) ;
#154 = EDGE_LOOP ( 'NONE', ( #328, #79, #335, #361 ) ) ;
#155 = ORIENTED_EDGE ( 'NONE', *, *, #275, .F. ) ;
#156 = AXIS2_PLACEMENT_3D ( 'NONE', #365, #180, #370 ) ;
#157 = DIRECTION ( 'NONE',  ( 0.000000000000000000, 0.000000000000000000, 1.000000000000000000 ) ) ;
#158 = EDGE_LOOP ( 'NONE', ( #37, #10, #126, #181 ) ) ;
#159 = APPROVAL_DATE_TIME ( #74, #24 ) ;
#160 = CARTESIAN_POINT ( 'NONE',  ( 0.000000000000000000, 0.000000000000000000, 0.000000000000000000 ) ) ;
#161 = DIRECTION ( 'NONE',  ( 0.000000000000000000, 0.000000000000000000, -1.000000000000000000 ) ) ;
#162 = CARTESIAN_POINT ( 'NONE',  ( 10.00000000000000000, 1.224646799147353256E-15, 7.000000000000000000 ) ) ;
#163 = VECTOR ( 'NONE', #175, 1000.000000000000000 ) ;
#164 = DIRECTION ( 'NONE',  ( -0.000000000000000000, -0.000000000000000000, -1.000000000000000000 ) ) ;
#165 = ADVANCED_FACE ( 'NONE', ( #247 ), #51, .F. ) ;
#166 = CARTESIAN_POINT ( 'NONE',  ( 10.00000000000000000, 1.224646799147353256E-15, 0.000000000000000000 ) ) ;
#167 = DIRECTION ( 'NONE',  ( 0.000000000000000000, 0.000000000000000000, 1.000000000000000000 ) ) ;
#168 = AXIS2_PLACEMENT_3D ( 'NONE', #327, #204, #265 ) ;
#169 = FACE_OUTER_BOUND ( 'NONE', #12, .T. ) ;
#170 = ADVANCED_FACE ( 'NONE', ( #369, #223 ), #133, .T. ) ;
#171 = DATE_AND_TIME ( #57, #13 ) ;
#172 = DIRECTION ( 'NONE',  ( 0.000000000000000000, 0.000000000000000000, 1.000000000000000000 ) ) ;
#173 = AXIS2_PLACEMENT_3D ( 'NONE', #378, #136, #107 ) ;
#174 = APPROVAL_PERSON_ORGANIZATION ( #23, #120, #340 ) ;
#175 = DIRECTION ( 'NONE',  ( -0.000000000000000000, -0.000000000000000000, -1.000000000000000000 ) ) ;
#176 = ORIENTED_EDGE ( 'NONE', *, *, #43, .F. ) ;
#177 = CARTESIAN_POINT ( 'NONE',  ( 0.000000000000000000, 0.000000000000000000, 7.000000000000000000 ) ) ;
#178 = LOCAL_TIME ( 16, 40, 57.00000000000000000, #42 ) ;
#179 = ORIENTED_EDGE ( 'NONE', *, *, #99, .T. ) ;
#180 = DIRECTION ( 'NONE',  ( -0.000000000000000000, -0.000000000000000000, -1.000000000000000000 ) ) ;
#181 = ORIENTED_EDGE ( 'NONE', *, *, #305, .F. ) ;
#182 = PRODUCT_DEFINITION ( 'NEZNÁMÝ', '', #2, #82 ) ;
#183 = ORIENTED_EDGE ( 'NONE', *, *, #104, .T. ) ;
#184 = MECHANICAL_CONTEXT ( 'NONE', #125, 'mechanical' ) ;
#185 = ORIENTED_EDGE ( 'NONE', *, *, #322, .T. ) ;
#186 = AXIS2_PLACEMENT_3D ( 'NONE', #263, #379, #109 ) ;
#187 = DIRECTION ( 'NONE',  ( -0.000000000000000000, -0.000000000000000000, -1.000000000000000000 ) ) ;
#188 = ADVANCED_FACE ( 'NONE', ( #1 ), #87, .F. ) ;
#189 = DIRECTION ( 'NONE',  ( -1.000000000000000000, 1.224646799147351482E-16, 0.000000000000000000 ) ) ;
#190 = DIRECTION ( 'NONE',  ( -0.000000000000000000, -0.000000000000000000, -1.000000000000000000 ) ) ;
#191 = CC_DESIGN_DATE_AND_TIME_ASSIGNMENT ( #132, #249, ( #182 ) ) ;
#192 = ORIENTED_EDGE ( 'NONE', *, *, #288, .T. ) ;
#193 = SECURITY_CLASSIFICATION_LEVEL ( 'unclassified' ) ;
#194 = DIRECTION ( 'NONE',  ( 1.000000000000000000, 0.000000000000000000, 0.000000000000000000 ) ) ;
#195 = CIRCLE ( 'NONE', #220, 6.500000000000000888 ) ;
#196 = APPROVAL_DATE_TIME ( #171, #120 ) ;
#197 = ORIENTED_EDGE ( 'NONE', *, *, #237, .T. ) ;
#198 = DATE_TIME_ROLE ( 'classification_date' ) ;
#199 = CLOSED_SHELL ( 'NONE', ( #248, #188, #112, #336, #4, #170, #375, #113, #292, #165, #253 ) ) ;
#200 = CARTESIAN_POINT ( 'NONE',  ( -3.250000000000000444, 0.000000000000000000, 0.000000000000000000 ) ) ;
#201 = EDGE_CURVE ( 'NONE', #41, #98, #146, .T. ) ;
#202 = CARTESIAN_POINT ( 'NONE',  ( 0.000000000000000000, 0.000000000000000000, 7.499999999999951150 ) ) ;
#203 = CC_DESIGN_PERSON_AND_ORGANIZATION_ASSIGNMENT ( #81, #49, ( #2 ) ) ;
#204 = DIRECTION ( 'NONE',  ( 0.000000000000000000, 0.000000000000000000, 1.000000000000000000 ) ) ;
#205 = PRODUCT_DEFINITION_SHAPE ( 'NONE', 'NONE',  #182 ) ;
#206 = EDGE_CURVE ( 'NONE', #123, #72, #20, .T. ) ;
#207 = CARTESIAN_POINT ( 'NONE',  ( -6.000000000000000888, 0.000000000000000000, 607.0000000000000000 ) ) ;
#208 = ORIENTED_EDGE ( 'NONE', *, *, #206, .F. ) ;
#209 = CARTESIAN_POINT ( 'NONE',  ( 6.000000000000000888, 7.347880794884120722E-16, 607.0000000000000000 ) ) ;
#210 = ORIENTED_EDGE ( 'NONE', *, *, #288, .F. ) ;
#211 = DIRECTION ( 'NONE',  ( 1.000000000000000000, 0.000000000000000000, 0.000000000000000000 ) ) ;
#212 = CIRCLE ( 'NONE', #102, 10.00000000000000000 ) ;
#213 = VERTEX_POINT ( 'NONE', #140 ) ;
#214 = APPROVAL_ROLE ( '' ) ;
#215 = ORIENTED_EDGE ( 'NONE', *, *, #348, .T. ) ;
#216 = DIRECTION ( 'NONE',  ( 1.000000000000000000, 0.000000000000000000, -0.000000000000000000 ) ) ;
#217 = ORIENTED_EDGE ( 'NONE', *, *, #332, .T. ) ;
#218 = DIRECTION ( 'NONE',  ( 0.000000000000000000, 0.000000000000000000, 1.000000000000000000 ) ) ;
#219 = DIRECTION ( 'NONE',  ( 1.000000000000000000, 0.000000000000000000, 0.000000000000000000 ) ) ;
#220 = AXIS2_PLACEMENT_3D ( 'NONE', #111, #142, #231 ) ;
#221 = CC_DESIGN_PERSON_AND_ORGANIZATION_ASSIGNMENT ( #252, #272, ( #182 ) ) ;
#222 = PLANE ( 'NONE',  #95 ) ;
#223 = FACE_OUTER_BOUND ( 'NONE', #92, .T. ) ;
#224 = LINE ( 'NONE', #244, #318 ) ;
#225 = CYLINDRICAL_SURFACE ( 'NONE', #271, 6.000000000000000888 ) ;
#226 = DIRECTION ( 'NONE',  ( 0.000000000000000000, 0.000000000000000000, 1.000000000000000000 ) ) ;
#227 = APPROVAL_PERSON_ORGANIZATION ( #374, #297, #342 ) ;
#228 = ORIENTED_EDGE ( 'NONE', *, *, #110, .F. ) ;
#229 = COORDINATED_UNIVERSAL_TIME_OFFSET ( 1, 0, .AHEAD. ) ;
#230 = EDGE_CURVE ( 'NONE', #315, #76, #116, .T. ) ;
#231 = DIRECTION ( 'NONE',  ( 1.000000000000000000, 0.000000000000000000, 0.000000000000000000 ) ) ;
#232 = CIRCLE ( 'NONE', #329, 3.250000000000000444 ) ;
#233 = EDGE_CURVE ( 'NONE', #72, #123, #337, .T. ) ;
#234 = CIRCLE ( 'NONE', #55, 6.000000000000000888 ) ;
#235 = CARTESIAN_POINT ( 'NONE',  ( 0.000000000000000000, 0.000000000000000000, 7.499999999999951150 ) ) ;
#236 = ORIENTED_EDGE ( 'NONE', *, *, #201, .T. ) ;
#237 = EDGE_CURVE ( 'NONE', #334, #285, #234, .T. ) ;
#238 = ORIENTED_EDGE ( 'NONE', *, *, #43, .T. ) ;
#239 = CARTESIAN_POINT ( 'NONE',  ( 6.000000000000000888, 7.347880794884120722E-16, 7.499999999999951150 ) ) ;
#240 = ORIENTED_EDGE ( 'NONE', *, *, #117, .T. ) ;
#241 = LINE ( 'NONE', #283, #149 ) ;
#242 = LOCAL_TIME ( 16, 40, 57.00000000000000000, #229 ) ;
#243 = EDGE_LOOP ( 'NONE', ( #176, #268 ) ) ;
#244 = CARTESIAN_POINT ( 'NONE',  ( 10.00000000000000000, 1.224646799147353256E-15, 7.000000000000000000 ) ) ;
#245 = ORIENTED_EDGE ( 'NONE', *, *, #332, .F. ) ;
#246 = PERSON_AND_ORGANIZATION ( #350, #352 ) ;
#247 = FACE_OUTER_BOUND ( 'NONE', #154, .T. ) ;
#248 = ADVANCED_FACE ( 'NONE', ( #93 ), #145, .F. ) ;
#249 = DATE_TIME_ROLE ( 'creation_date' ) ;
#250 = AXIS2_PLACEMENT_3D ( 'NONE', #274, #190, #19 ) ;
#251 = CARTESIAN_POINT ( 'NONE',  ( 0.000000000000000000, 0.000000000000000000, 7.000000000000000000 ) ) ;
#252 = PERSON_AND_ORGANIZATION ( #350, #352 ) ;
#253 = ADVANCED_FACE ( 'NONE', ( #169 ), #320, .F. ) ;
#254 = CARTESIAN_POINT ( 'NONE',  ( -3.250000000000000444, 0.000000000000000000, 607.0000000000000000 ) ) ;
#255 = CC_DESIGN_PERSON_AND_ORGANIZATION_ASSIGNMENT ( #246, #14, ( #144 ) ) ;
#256 = AXIS2_PLACEMENT_3D ( 'NONE', #313, #310, #54 ) ;
#257 = FACE_OUTER_BOUND ( 'NONE', #128, .T. ) ;
#258 = PERSON_AND_ORGANIZATION_ROLE ( 'classification_officer' ) ;
#259 = DIRECTION ( 'NONE',  ( -0.000000000000000000, -0.000000000000000000, -1.000000000000000000 ) ) ;
#260 = AXIS2_PLACEMENT_3D ( 'NONE', #69, #96, #129 ) ;
#261 = APPROVAL_DATE_TIME ( #314, #297 ) ;
#262 = DIRECTION ( 'NONE',  ( 0.000000000000000000, 0.000000000000000000, 1.000000000000000000 ) ) ;
#263 = CARTESIAN_POINT ( 'NONE',  ( 0.000000000000000000, 0.000000000000000000, 607.0000000000000000 ) ) ;
#264 = EDGE_CURVE ( 'NONE', #76, #315, #60, .T. ) ;
#265 = DIRECTION ( 'NONE',  ( 1.000000000000000000, 0.000000000000000000, 0.000000000000000000 ) ) ;
#266 = SECURITY_CLASSIFICATION ( '', '', #193 ) ;
#267 = DIRECTION ( 'NONE',  ( 1.000000000000000000, 0.000000000000000000, 0.000000000000000000 ) ) ;
#268 = ORIENTED_EDGE ( 'NONE', *, *, #345, .F. ) ;
#269 = DIRECTION ( 'NONE',  ( 0.000000000000000000, 0.000000000000000000, 1.000000000000000000 ) ) ;
#270 = ORIENTED_EDGE ( 'NONE', *, *, #354, .F. ) ;
#271 = AXIS2_PLACEMENT_3D ( 'NONE', #286, #108, #341 ) ;
#272 = PERSON_AND_ORGANIZATION_ROLE ( 'creator' ) ;
#273 = EDGE_LOOP ( 'NONE', ( #307, #119, #192, #152 ) ) ;
#274 = CARTESIAN_POINT ( 'NONE',  ( 0.000000000000000000, 0.000000000000000000, 7.000000000000000000 ) ) ;
#275 = EDGE_CURVE ( 'NONE', #285, #334, #73, .T. ) ;
#276 = EDGE_LOOP ( 'NONE', ( #185, #179 ) ) ;
#277 = APPROVAL_STATUS ( 'not_yet_approved' ) ;
#278 = CARTESIAN_POINT ( 'NONE',  ( 6.000000000000000888, 7.347880794884120722E-16, 607.0000000000000000 ) ) ;
#279 = CIRCLE ( 'NONE', #122, 6.500000000000000888 ) ;
#280 = CALENDAR_DATE ( 2022, 8, 7 ) ;
#281 = CC_DESIGN_PERSON_AND_ORGANIZATION_ASSIGNMENT ( #46, #77, ( #2 ) ) ;
#282 = ORIENTED_EDGE ( 'NONE', *, *, #357, .F. ) ;
#283 = CARTESIAN_POINT ( 'NONE',  ( 3.250000000000000444, 3.980102097228898231E-16, 607.0000000000000000 ) ) ;
#284 = AXIS2_PLACEMENT_3D ( 'NONE', #66, #187, #306 ) ;
#285 = VERTEX_POINT ( 'NONE', #209 ) ;
#286 = CARTESIAN_POINT ( 'NONE',  ( 0.000000000000000000, 0.000000000000000000, 607.0000000000000000 ) ) ;
#287 = CARTESIAN_POINT ( 'NONE',  ( -6.000000000000000888, 0.000000000000000000, 7.499999999999951150 ) ) ;
#288 = EDGE_CURVE ( 'NONE', #334, #76, #36, .T. ) ;
#289 = DIRECTION ( 'NONE',  ( 0.000000000000000000, 0.000000000000000000, 1.000000000000000000 ) ) ;
#290 = AXIS2_PLACEMENT_3D ( 'NONE', #85, #269, #7 ) ;
#291 = LINE ( 'NONE', #30, #324 ) ;
#292 = ADVANCED_FACE ( 'NONE', ( #299, #148 ), #349, .T. ) ;
#293 = COORDINATED_UNIVERSAL_TIME_OFFSET ( 1, 0, .AHEAD. ) ;
#294 = CIRCLE ( 'NONE', #298, 10.00000000000000000 ) ;
#295 = DIRECTION ( 'NONE',  ( 0.000000000000000000, 0.000000000000000000, 1.000000000000000000 ) ) ;
#296 = CC_DESIGN_SECURITY_CLASSIFICATION ( #266, ( #2 ) ) ;
#297 = APPROVAL ( #53, 'NEURÈENÝ' ) ;
#298 = AXIS2_PLACEMENT_3D ( 'NONE', #160, #347, #50 ) ;
#299 = FACE_BOUND ( 'NONE', #80, .T. ) ;
#300 = EDGE_LOOP ( 'NONE', ( #364, #309, #89, #228 ) ) ;
#301 = LOCAL_TIME ( 16, 40, 57.00000000000000000, #11 ) ;
#302 = DIRECTION ( 'NONE',  ( 1.000000000000000000, 0.000000000000000000, 0.000000000000000000 ) ) ;
#303 = ORIENTED_EDGE ( 'NONE', *, *, #353, .F. ) ;
#304 = EDGE_LOOP ( 'NONE', ( #197, #326 ) ) ;
#305 = EDGE_CURVE ( 'NONE', #123, #45, #291, .T. ) ;
#306 = DIRECTION ( 'NONE',  ( 1.000000000000000000, 0.000000000000000000, 0.000000000000000000 ) ) ;
#307 = ORIENTED_EDGE ( 'NONE', *, *, #117, .F. ) ;
#308 = AXIS2_PLACEMENT_3D ( 'NONE', #202, #172, #325 ) ;
#309 = ORIENTED_EDGE ( 'NONE', *, *, #33, .T. ) ;
#310 = DIRECTION ( 'NONE',  ( -0.000000000000000000, -0.000000000000000000, -1.000000000000000000 ) ) ;
#311 = DIRECTION ( 'NONE',  ( 1.224646799147353207E-16, 1.000000000000000000, -0.000000000000000000 ) ) ;
#312 = LOCAL_TIME ( 16, 40, 57.00000000000000000, #293 ) ;
#313 = CARTESIAN_POINT ( 'NONE',  ( 0.000000000000000000, 0.000000000000000000, 607.0000000000000000 ) ) ;
#314 = DATE_AND_TIME ( #319, #242 ) ;
#315 = VERTEX_POINT ( 'NONE', #239 ) ;
#316 = CARTESIAN_POINT ( 'NONE',  ( -10.00000000000000000, 0.000000000000000000, 0.000000000000000000 ) ) ;
#317 = DIRECTION ( 'NONE',  ( 1.000000000000000000, 0.000000000000000000, 0.000000000000000000 ) ) ;
#318 = VECTOR ( 'NONE', #97, 1000.000000000000000 ) ;
#319 = CALENDAR_DATE ( 2022, 8, 7 ) ;
#320 = CYLINDRICAL_SURFACE ( 'NONE', #27, 3.250000000000000444 ) ;
#321 = UNCERTAINTY_MEASURE_WITH_UNIT (LENGTH_MEASURE( 1.000000000000000082E-05 ), #363, 'distance_accuracy_value', 'NONE');
#322 = EDGE_CURVE ( 'NONE', #44, #213, #195, .T. ) ;
#323 = MANIFOLD_SOLID_BREP ( 'Odebrat vysunutím3', #199 ) ;
#324 = VECTOR ( 'NONE', #118, 1000.000000000000000 ) ;
#325 = DIRECTION ( 'NONE',  ( 1.000000000000000000, 0.000000000000000000, 0.000000000000000000 ) ) ;
#326 = ORIENTED_EDGE ( 'NONE', *, *, #275, .T. ) ;
#327 = CARTESIAN_POINT ( 'NONE',  ( 0.000000000000000000, 0.000000000000000000, 607.0000000000000000 ) ) ;
#328 = ORIENTED_EDGE ( 'NONE', *, *, #33, .F. ) ;
#329 = AXIS2_PLACEMENT_3D ( 'NONE', #360, #167, #211 ) ;
#330 = FACE_OUTER_BOUND ( 'NONE', #158, .T. ) ;
#331 = EDGE_LOOP ( 'NONE', ( #270, #208, #39, #238 ) ) ;
#332 = EDGE_CURVE ( 'NONE', #98, #41, #232, .T. ) ;
#333 = PERSON_AND_ORGANIZATION ( #350, #352 ) ;
#334 = VERTEX_POINT ( 'NONE', #351 ) ;
#335 = ORIENTED_EDGE ( 'NONE', *, *, #110, .T. ) ;
#336 = ADVANCED_FACE ( 'NONE', ( #330 ), #28, .T. ) ;
#337 = CIRCLE ( 'NONE', #362, 10.00000000000000000 ) ;
#338 = ORIENTED_EDGE ( 'NONE', *, *, #353, .T. ) ;
#339 = CYLINDRICAL_SURFACE ( 'NONE', #147, 10.00000000000000000 ) ;
#340 = APPROVAL_ROLE ( '' ) ;
#341 = DIRECTION ( 'NONE',  ( -1.000000000000000000, 0.000000000000000000, 0.000000000000000000 ) ) ;
#342 = APPROVAL_ROLE ( '' ) ;
#343 = AXIS2_PLACEMENT_3D ( 'NONE', #121, #58, #302 ) ;
#344 = CARTESIAN_POINT ( 'NONE',  ( 3.250000000000000444, 3.980102097228898231E-16, 607.0000000000000000 ) ) ;
#345 = EDGE_CURVE ( 'NONE', #64, #45, #212, .T. ) ;
#346 = PERSON_AND_ORGANIZATION ( #350, #352 ) ;
#347 = DIRECTION ( 'NONE',  ( 0.000000000000000000, 0.000000000000000000, 1.000000000000000000 ) ) ;
#348 = EDGE_CURVE ( 'NONE', #34, #68, #65, .T. ) ;
#349 = PLANE ( 'NONE',  #290 ) ;
#350 = PERSON ( 'NEURÈENÝ', 'NEURÈENÝ', 'NEURÈENÝ', ('NEURÈENÝ'), ('NEURÈENÝ'), ('NEURÈENÝ') ) ;
#351 = CARTESIAN_POINT ( 'NONE',  ( -6.000000000000000888, 0.000000000000000000, 607.0000000000000000 ) ) ;
#352 = ORGANIZATION ( 'NEURÈENÝ', 'NEURÈENÝ', '' ) ;
#353 = EDGE_CURVE ( 'NONE', #68, #34, #127, .T. ) ;
#354 = EDGE_CURVE ( 'NONE', #72, #64, #224, .T. ) ;
#355 = AXIS2_PLACEMENT_3D ( 'NONE', #235, #289, #90 ) ;
#356 = CARTESIAN_POINT ( 'NONE',  ( 0.000000000000000000, 0.000000000000000000, 7.000000000000000000 ) ) ;
#357 = EDGE_CURVE ( 'NONE', #41, #68, #241, .T. ) ;
#358 = CARTESIAN_POINT ( 'NONE',  ( 0.000000000000000000, 0.000000000000000000, 7.499999999999951150 ) ) ;
#359 = ORIENTED_EDGE ( 'NONE', *, *, #233, .T. ) ;
#360 = CARTESIAN_POINT ( 'NONE',  ( 0.000000000000000000, 0.000000000000000000, 607.0000000000000000 ) ) ;
#361 = ORIENTED_EDGE ( 'NONE', *, *, #99, .F. ) ;
#362 = AXIS2_PLACEMENT_3D ( 'NONE', #177, #262, #56 ) ;
#363 =( LENGTH_UNIT ( ) NAMED_UNIT ( * ) SI_UNIT ( .MILLI., .METRE. ) );
#364 = ORIENTED_EDGE ( 'NONE', *, *, #264, .F. ) ;
#365 = CARTESIAN_POINT ( 'NONE',  ( 0.000000000000000000, 0.000000000000000000, 0.000000000000000000 ) ) ;
#366 = CC_DESIGN_DATE_AND_TIME_ASSIGNMENT ( #29, #198, ( #266 ) ) ;
#367 = ORIENTED_EDGE ( 'NONE', *, *, #201, .F. ) ;
#368 = APPLICATION_PROTOCOL_DEFINITION ( 'international standard', 'config_control_design', 1994, #141 ) ;
#369 = FACE_BOUND ( 'NONE', #276, .T. ) ;
#370 = DIRECTION ( 'NONE',  ( 1.000000000000000000, 0.000000000000000000, 0.000000000000000000 ) ) ;
#371 = CARTESIAN_POINT ( 'NONE',  ( 0.000000000000000000, 0.000000000000000000, 7.499999999999951150 ) ) ;
#372 =( NAMED_UNIT ( * ) SI_UNIT ( $, .STERADIAN. ) SOLID_ANGLE_UNIT ( ) );
#373 = DIRECTION ( 'NONE',  ( 0.000000000000000000, 0.000000000000000000, -1.000000000000000000 ) ) ;
#374 = PERSON_AND_ORGANIZATION ( #350, #352 ) ;
#375 = ADVANCED_FACE ( 'NONE', ( #38, #71 ), #222, .F. ) ;
#376 = CARTESIAN_POINT ( 'NONE',  ( -10.00000000000000000, 0.000000000000000000, 7.000000000000000000 ) ) ;
#377 = CC_DESIGN_APPROVAL ( #297, ( #266 ) ) ;
#378 = CARTESIAN_POINT ( 'NONE',  ( 6.500000000000000888, 0.000000000000000000, 7.499999999999951150 ) ) ;
#379 = DIRECTION ( 'NONE',  ( 0.000000000000000000, 0.000000000000000000, -1.000000000000000000 ) ) ;
#380 = APPROVAL_STATUS ( 'not_yet_approved' ) ;
#381 = DIRECTION ( 'NONE',  ( 0.000000000000000000, 0.000000000000000000, -1.000000000000000000 ) ) ;
ENDSEC;
END-ISO-10303-21;
