ISO-10303-21;
HEADER;
FILE_DESCRIPTION (( 'STEP AP203' ),
    '1' );
FILE_NAME ('a4c9.STEP',
    '2022-07-08T14:41:23',
    ( '' ),
    ( '' ),
    'SwSTEP 2.0',
    'SolidWorks 2019',
    '' );
FILE_SCHEMA (( 'CONFIG_CONTROL_DESIGN' ));
ENDSEC;

DATA;
#1 = ORIENTED_EDGE ( 'NONE', *, *, #239, .T. ) ;
#2 = ORIENTED_EDGE ( 'NONE', *, *, #256, .T. ) ;
#3 = ORIENTED_EDGE ( 'NONE', *, *, #361, .F. ) ;
#4 = EDGE_CURVE ( 'NONE', #124, #244, #379, .T. ) ;
#5 = DIRECTION ( 'NONE',  ( 0.000000000000000000, 0.000000000000000000, 1.000000000000000000 ) ) ;
#6 = VERTEX_POINT ( 'NONE', #276 ) ;
#7 = FACE_BOUND ( 'NONE', #242, .T. ) ;
#8 = PERSON_AND_ORGANIZATION ( #166, #66 ) ;
#9 = CARTESIAN_POINT ( 'NONE',  ( 0.000000000000000000, 0.000000000000000000, 457.0000000000000000 ) ) ;
#10 = DIRECTION ( 'NONE',  ( 0.000000000000000000, 0.000000000000000000, 1.000000000000000000 ) ) ;
#11 = CALENDAR_DATE ( 2022, 8, 7 ) ;
#12 = DIRECTION ( 'NONE',  ( 1.224646799147353207E-16, 1.000000000000000000, -0.000000000000000000 ) ) ;
#13 = PERSON_AND_ORGANIZATION ( #166, #66 ) ;
#14 = CIRCLE ( 'NONE', #375, 0.5000000000000004441 ) ;
#15 = CALENDAR_DATE ( 2022, 8, 7 ) ;
#16 = DIRECTION ( 'NONE',  ( -1.000000000000000000, 1.224646799147351482E-16, 0.000000000000000000 ) ) ;
#17 = CARTESIAN_POINT ( 'NONE',  ( 6.000000000000000888, 7.347880794884120722E-16, 457.0000000000000000 ) ) ;
#18 = CIRCLE ( 'NONE', #231, 6.500000000000000888 ) ;
#19 = PRODUCT_DEFINITION_FORMATION_WITH_SPECIFIED_SOURCE ( 'LIBOVOLNÝ', '', #334, .NOT_KNOWN. ) ;
#20 = ADVANCED_FACE ( 'NONE', ( #7, #365 ), #94, .F. ) ;
#21 = DIRECTION ( 'NONE',  ( 1.000000000000000000, 0.000000000000000000, 0.000000000000000000 ) ) ;
#22 = CARTESIAN_POINT ( 'NONE',  ( 0.000000000000000000, 0.000000000000000000, 0.000000000000000000 ) ) ;
#23 = DIRECTION ( 'NONE',  ( -0.000000000000000000, -0.000000000000000000, -1.000000000000000000 ) ) ;
#24 = AXIS2_PLACEMENT_3D ( 'NONE', #108, #288, #378 ) ;
#25 = AXIS2_PLACEMENT_3D ( 'NONE', #145, #118, #121 ) ;
#26 = EDGE_LOOP ( 'NONE', ( #143, #300, #357, #273 ) ) ;
#27 = DESIGN_CONTEXT ( 'detailed design', #347, 'design' ) ;
#28 = DIRECTION ( 'NONE',  ( 1.000000000000000000, 0.000000000000000000, 0.000000000000000000 ) ) ;
#29 = VERTEX_POINT ( 'NONE', #95 ) ;
#30 = SECURITY_CLASSIFICATION ( '', '', #368 ) ;
#31 = ADVANCED_FACE ( 'NONE', ( #314, #42 ), #251, .T. ) ;
#32 = VERTEX_POINT ( 'NONE', #161 ) ;
#33 = CARTESIAN_POINT ( 'NONE',  ( 0.000000000000000000, 0.000000000000000000, 0.000000000000000000 ) ) ;
#34 = ORIENTED_EDGE ( 'NONE', *, *, #354, .T. ) ;
#35 = FACE_OUTER_BOUND ( 'NONE', #51, .T. ) ;
#36 = AXIS2_PLACEMENT_3D ( 'NONE', #172, #374, #43 ) ;
#37 = APPROVAL_DATE_TIME ( #129, #179 ) ;
#38 = CC_DESIGN_APPROVAL ( #179, ( #19 ) ) ;
#39 = CARTESIAN_POINT ( 'NONE',  ( 6.000000000000000888, 7.347880794884120722E-16, 7.500000000000007105 ) ) ;
#40 = FACE_OUTER_BOUND ( 'NONE', #331, .T. ) ;
#41 = CYLINDRICAL_SURFACE ( 'NONE', #344, 10.00000000000000000 ) ;
#42 = FACE_OUTER_BOUND ( 'NONE', #329, .T. ) ;
#43 = DIRECTION ( 'NONE',  ( 1.000000000000000000, 0.000000000000000000, 0.000000000000000000 ) ) ;
#44 = CARTESIAN_POINT ( 'NONE',  ( 0.000000000000000000, 0.000000000000000000, 0.000000000000000000 ) ) ;
#45 = VERTEX_POINT ( 'NONE', #132 ) ;
#46 = CIRCLE ( 'NONE', #144, 10.00000000000000000 ) ;
#47 = CC_DESIGN_APPROVAL ( #252, ( #366 ) ) ;
#48 = LINE ( 'NONE', #348, #290 ) ;
#49 = CARTESIAN_POINT ( 'NONE',  ( 0.000000000000000000, 0.000000000000000000, 7.000000000000000000 ) ) ;
#50 = APPLICATION_PROTOCOL_DEFINITION ( 'international standard', 'config_control_design', 1994, #327 ) ;
#51 = EDGE_LOOP ( 'NONE', ( #88, #58, #333, #54 ) ) ;
#52 = CIRCLE ( 'NONE', #24, 10.00000000000000000 ) ;
#53 = CARTESIAN_POINT ( 'NONE',  ( 0.000000000000000000, 0.000000000000000000, 7.500000000000007105 ) ) ;
#54 = ORIENTED_EDGE ( 'NONE', *, *, #258, .T. ) ;
#55 = FACE_OUTER_BOUND ( 'NONE', #56, .T. ) ;
#56 = EDGE_LOOP ( 'NONE', ( #170, #91, #34, #1 ) ) ;
#57 =( NAMED_UNIT ( * ) PLANE_ANGLE_UNIT ( ) SI_UNIT ( $, .RADIAN. ) );
#58 = ORIENTED_EDGE ( 'NONE', *, *, #4, .F. ) ;
#59 = MANIFOLD_SOLID_BREP ( 'Odebrat vysunutím3', #284 ) ;
#60 = AXIS2_PLACEMENT_3D ( 'NONE', #128, #197, #224 ) ;
#61 = CC_DESIGN_APPROVAL ( #247, ( #30 ) ) ;
#62 = ORIENTED_EDGE ( 'NONE', *, *, #101, .F. ) ;
#63 = VERTEX_POINT ( 'NONE', #190 ) ;
#64 = PERSON_AND_ORGANIZATION_ROLE ( 'design_owner' ) ;
#65 = CARTESIAN_POINT ( 'NONE',  ( -6.500000000000000888, 7.960204194457796463E-16, 7.500000000000007105 ) ) ;
#66 = ORGANIZATION ( 'NEURÈENÝ', 'NEURÈENÝ', '' ) ;
#67 = CARTESIAN_POINT ( 'NONE',  ( 0.000000000000000000, 0.000000000000000000, 457.0000000000000000 ) ) ;
#68 = PERSON_AND_ORGANIZATION_ROLE ( 'creator' ) ;
#69 = CARTESIAN_POINT ( 'NONE',  ( -10.00000000000000000, 0.000000000000000000, 7.000000000000000000 ) ) ;
#70 = CARTESIAN_POINT ( 'NONE',  ( 6.000000000000000888, 7.347880794884120722E-16, 457.0000000000000000 ) ) ;
#71 = CARTESIAN_POINT ( 'NONE',  ( 0.000000000000000000, 0.000000000000000000, 7.000000000000000000 ) ) ;
#72 = CIRCLE ( 'NONE', #92, 6.000000000000000888 ) ;
#73 = CIRCLE ( 'NONE', #169, 0.5000000000000004441 ) ;
#74 = CARTESIAN_POINT ( 'NONE',  ( 0.000000000000000000, 0.000000000000000000, 457.0000000000000000 ) ) ;
#75 = ADVANCED_BREP_SHAPE_REPRESENTATION ( 'a4c9', ( #59, #325 ), #151 ) ;
#76 = VERTEX_POINT ( 'NONE', #159 ) ;
#77 = DIRECTION ( 'NONE',  ( 0.000000000000000000, 0.000000000000000000, 1.000000000000000000 ) ) ;
#78 = ORIENTED_EDGE ( 'NONE', *, *, #116, .F. ) ;
#79 = AXIS2_PLACEMENT_3D ( 'NONE', #133, #306, #372 ) ;
#80 = LOCAL_TIME ( 16, 41, 23.00000000000000000, #191 ) ;
#81 = DIRECTION ( 'NONE',  ( 0.000000000000000000, 0.000000000000000000, 1.000000000000000000 ) ) ;
#82 = CARTESIAN_POINT ( 'NONE',  ( 0.000000000000000000, 0.000000000000000000, 7.500000000000007105 ) ) ;
#83 = EDGE_LOOP ( 'NONE', ( #215, #262, #212, #3 ) ) ;
#84 = CARTESIAN_POINT ( 'NONE',  ( 6.500000000000000888, 0.000000000000000000, 7.500000000000007105 ) ) ;
#85 = ORIENTED_EDGE ( 'NONE', *, *, #243, .T. ) ;
#86 = AXIS2_PLACEMENT_3D ( 'NONE', #74, #199, #114 ) ;
#87 = FACE_OUTER_BOUND ( 'NONE', #184, .T. ) ;
#88 = ORIENTED_EDGE ( 'NONE', *, *, #123, .F. ) ;
#89 = VERTEX_POINT ( 'NONE', #279 ) ;
#90 = CYLINDRICAL_SURFACE ( 'NONE', #246, 3.250000000000000444 ) ;
#91 = ORIENTED_EDGE ( 'NONE', *, *, #342, .T. ) ;
#92 = AXIS2_PLACEMENT_3D ( 'NONE', #157, #217, #97 ) ;
#93 = COORDINATED_UNIVERSAL_TIME_OFFSET ( 1, 0, .AHEAD. ) ;
#94 = PLANE ( 'NONE',  #137 ) ;
#95 = CARTESIAN_POINT ( 'NONE',  ( 3.250000000000000444, 3.980102097228898231E-16, 0.000000000000000000 ) ) ;
#96 = DATE_AND_TIME ( #218, #202 ) ;
#97 = DIRECTION ( 'NONE',  ( 1.000000000000000000, 0.000000000000000000, 0.000000000000000000 ) ) ;
#98 = CIRCLE ( 'NONE', #86, 3.250000000000000444 ) ;
#99 = PERSON_AND_ORGANIZATION ( #166, #66 ) ;
#100 = DIRECTION ( 'NONE',  ( 1.000000000000000000, 0.000000000000000000, 0.000000000000000000 ) ) ;
#101 = EDGE_CURVE ( 'NONE', #298, #203, #367, .T. ) ;
#102 = PERSON_AND_ORGANIZATION_ROLE ( 'creator' ) ;
#103 = EDGE_CURVE ( 'NONE', #298, #122, #72, .T. ) ;
#104 = DIRECTION ( 'NONE',  ( -0.000000000000000000, -0.000000000000000000, -1.000000000000000000 ) ) ;
#105 = DIRECTION ( 'NONE',  ( -0.000000000000000000, -0.000000000000000000, -1.000000000000000000 ) ) ;
#106 = AXIS2_PLACEMENT_3D ( 'NONE', #319, #204, #323 ) ;
#107 = SHAPE_DEFINITION_REPRESENTATION ( #241, #75 ) ;
#108 = CARTESIAN_POINT ( 'NONE',  ( 0.000000000000000000, 0.000000000000000000, 0.000000000000000000 ) ) ;
#109 = ORIENTED_EDGE ( 'NONE', *, *, #361, .T. ) ;
#110 = CC_DESIGN_PERSON_AND_ORGANIZATION_ASSIGNMENT ( #216, #311, ( #30 ) ) ;
#111 = EDGE_LOOP ( 'NONE', ( #259, #210 ) ) ;
#112 = CIRCLE ( 'NONE', #330, 3.250000000000000444 ) ;
#113 = ADVANCED_FACE ( 'NONE', ( #282 ), #41, .T. ) ;
#114 = DIRECTION ( 'NONE',  ( 1.000000000000000000, 0.000000000000000000, 0.000000000000000000 ) ) ;
#115 = CARTESIAN_POINT ( 'NONE',  ( 0.000000000000000000, 0.000000000000000000, 457.0000000000000000 ) ) ;
#116 = EDGE_CURVE ( 'NONE', #32, #120, #321, .T. ) ;
#117 = CARTESIAN_POINT ( 'NONE',  ( 0.000000000000000000, 0.000000000000000000, 0.000000000000000000 ) ) ;
#118 = DIRECTION ( 'NONE',  ( 0.000000000000000000, 0.000000000000000000, 1.000000000000000000 ) ) ;
#119 = ORIENTED_EDGE ( 'NONE', *, *, #291, .F. ) ;
#120 = VERTEX_POINT ( 'NONE', #222 ) ;
#121 = DIRECTION ( 'NONE',  ( 1.000000000000000000, 0.000000000000000000, -0.000000000000000000 ) ) ;
#122 = VERTEX_POINT ( 'NONE', #341 ) ;
#123 = EDGE_CURVE ( 'NONE', #244, #76, #287, .T. ) ;
#124 = VERTEX_POINT ( 'NONE', #69 ) ;
#125 = AXIS2_PLACEMENT_3D ( 'NONE', #249, #219, #369 ) ;
#126 = CC_DESIGN_PERSON_AND_ORGANIZATION_ASSIGNMENT ( #221, #64, ( #334 ) ) ;
#127 = PERSON_AND_ORGANIZATION ( #166, #66 ) ;
#128 = CARTESIAN_POINT ( 'NONE',  ( 0.000000000000000000, 0.000000000000000000, 7.500000000000007105 ) ) ;
#129 = DATE_AND_TIME ( #313, #80 ) ;
#130 = DIRECTION ( 'NONE',  ( 1.000000000000000000, 0.000000000000000000, 0.000000000000000000 ) ) ;
#131 = DATE_TIME_ROLE ( 'creation_date' ) ;
#132 = CARTESIAN_POINT ( 'NONE',  ( -6.500000000000000888, 7.960204194457796463E-16, 7.000000000000002665 ) ) ;
#133 = CARTESIAN_POINT ( 'NONE',  ( 0.000000000000000000, 0.000000000000000000, 457.0000000000000000 ) ) ;
#134 = DIRECTION ( 'NONE',  ( 1.000000000000000000, 0.000000000000000000, -0.000000000000000000 ) ) ;
#135 = DIRECTION ( 'NONE',  ( 1.000000000000000000, 0.000000000000000000, 0.000000000000000000 ) ) ;
#136 = APPROVAL_DATE_TIME ( #305, #247 ) ;
#137 = AXIS2_PLACEMENT_3D ( 'NONE', #117, #236, #296 ) ;
#138 = FACE_OUTER_BOUND ( 'NONE', #302, .T. ) ;
#139 = LINE ( 'NONE', #318, #265 ) ;
#140 = ORIENTED_EDGE ( 'NONE', *, *, #281, .T. ) ;
#141 = DIRECTION ( 'NONE',  ( -0.000000000000000000, -0.000000000000000000, -1.000000000000000000 ) ) ;
#142 = CYLINDRICAL_SURFACE ( 'NONE', #339, 6.000000000000000888 ) ;
#143 = ORIENTED_EDGE ( 'NONE', *, *, #103, .F. ) ;
#144 = AXIS2_PLACEMENT_3D ( 'NONE', #44, #77, #293 ) ;
#145 = CARTESIAN_POINT ( 'NONE',  ( 0.000000000000000000, 0.000000000000000000, 7.000000000000000000 ) ) ;
#146 = ORIENTED_EDGE ( 'NONE', *, *, #239, .F. ) ;
#147 = MECHANICAL_CONTEXT ( 'NONE', #327, 'mechanical' ) ;
#148 = EDGE_LOOP ( 'NONE', ( #275, #174, #140, #149 ) ) ;
#149 = ORIENTED_EDGE ( 'NONE', *, *, #294, .F. ) ;
#150 = VECTOR ( 'NONE', #336, 1000.000000000000000 ) ;
#151 =( GEOMETRIC_REPRESENTATION_CONTEXT ( 3 ) GLOBAL_UNCERTAINTY_ASSIGNED_CONTEXT ( ( #158 ) ) GLOBAL_UNIT_ASSIGNED_CONTEXT ( ( #301, #57, #152 ) ) REPRESENTATION_CONTEXT ( 'NONE', 'WORKASPACE' ) );
#152 =( NAMED_UNIT ( * ) SI_UNIT ( $, .STERADIAN. ) SOLID_ANGLE_UNIT ( ) );
#153 = DIRECTION ( 'NONE',  ( 0.000000000000000000, 0.000000000000000000, 1.000000000000000000 ) ) ;
#154 = DIRECTION ( 'NONE',  ( 1.000000000000000000, 0.000000000000000000, 0.000000000000000000 ) ) ;
#155 = VERTEX_POINT ( 'NONE', #192 ) ;
#156 = CYLINDRICAL_SURFACE ( 'NONE', #125, 10.00000000000000000 ) ;
#157 = CARTESIAN_POINT ( 'NONE',  ( 0.000000000000000000, 0.000000000000000000, 457.0000000000000000 ) ) ;
#158 = UNCERTAINTY_MEASURE_WITH_UNIT (LENGTH_MEASURE( 1.000000000000000082E-05 ), #301, 'distance_accuracy_value', 'NONE');
#159 = CARTESIAN_POINT ( 'NONE',  ( 10.00000000000000000, 1.224646799147353256E-15, 0.000000000000000000 ) ) ;
#160 = COORDINATED_UNIVERSAL_TIME_OFFSET ( 1, 0, .AHEAD. ) ;
#161 = CARTESIAN_POINT ( 'NONE',  ( -3.250000000000000444, 0.000000000000000000, 457.0000000000000000 ) ) ;
#162 = PERSON_AND_ORGANIZATION ( #166, #66 ) ;
#163 = LOCAL_TIME ( 16, 41, 23.00000000000000000, #93 ) ;
#164 = DIRECTION ( 'NONE',  ( -1.000000000000000000, 0.000000000000000000, 0.000000000000000000 ) ) ;
#165 = FACE_BOUND ( 'NONE', #207, .T. ) ;
#166 = PERSON ( 'NEURÈENÝ', 'NEURÈENÝ', 'NEURÈENÝ', ('NEURÈENÝ'), ('NEURÈENÝ'), ('NEURÈENÝ') ) ;
#167 = FACE_OUTER_BOUND ( 'NONE', #26, .T. ) ;
#168 = EDGE_CURVE ( 'NONE', #89, #45, #14, .T. ) ;
#169 = AXIS2_PLACEMENT_3D ( 'NONE', #84, #356, #299 ) ;
#170 = ORIENTED_EDGE ( 'NONE', *, *, #243, .F. ) ;
#171 = ORIENTED_EDGE ( 'NONE', *, *, #116, .T. ) ;
#172 = CARTESIAN_POINT ( 'NONE',  ( 0.000000000000000000, 0.000000000000000000, 7.500000000000007105 ) ) ;
#173 = EDGE_CURVE ( 'NONE', #155, #45, #18, .T. ) ;
#174 = ORIENTED_EDGE ( 'NONE', *, *, #123, .T. ) ;
#175 = AXIS2_PLACEMENT_3D ( 'NONE', #82, #81, #135 ) ;
#176 = LOCAL_TIME ( 16, 41, 23.00000000000000000, #335 ) ;
#177 = CARTESIAN_POINT ( 'NONE',  ( 0.000000000000000000, 0.000000000000000000, 7.000000000000000000 ) ) ;
#178 = ORIENTED_EDGE ( 'NONE', *, *, #4, .T. ) ;
#179 = APPROVAL ( #185, 'NEURÈENÝ' ) ;
#180 = DIRECTION ( 'NONE',  ( 1.000000000000000000, 0.000000000000000000, 0.000000000000000000 ) ) ;
#181 = VECTOR ( 'NONE', #226, 1000.000000000000000 ) ;
#182 = AXIS2_PLACEMENT_3D ( 'NONE', #53, #274, #28 ) ;
#183 = DIRECTION ( 'NONE',  ( -1.000000000000000000, 0.000000000000000000, 0.000000000000000000 ) ) ;
#184 = EDGE_LOOP ( 'NONE', ( #240, #346, #109, #269 ) ) ;
#185 = APPROVAL_STATUS ( 'not_yet_approved' ) ;
#186 = ORIENTED_EDGE ( 'NONE', *, *, #291, .T. ) ;
#187 = CALENDAR_DATE ( 2022, 8, 7 ) ;
#188 = DIRECTION ( 'NONE',  ( -1.000000000000000000, 0.000000000000000000, 0.000000000000000000 ) ) ;
#189 = TOROIDAL_SURFACE ( 'NONE', #175, 6.500000000000000888, 0.5000000000000000000 ) ;
#190 = CARTESIAN_POINT ( 'NONE',  ( -3.250000000000000444, 0.000000000000000000, 0.000000000000000000 ) ) ;
#191 = COORDINATED_UNIVERSAL_TIME_OFFSET ( 1, 0, .AHEAD. ) ;
#192 = CARTESIAN_POINT ( 'NONE',  ( 6.500000000000000888, 0.000000000000000000, 7.000000000000002665 ) ) ;
#193 = APPROVAL_DATE_TIME ( #96, #252 ) ;
#194 = ADVANCED_FACE ( 'NONE', ( #312 ), #343, .T. ) ;
#195 = CARTESIAN_POINT ( 'NONE',  ( 0.000000000000000000, 0.000000000000000000, 457.0000000000000000 ) ) ;
#196 = AXIS2_PLACEMENT_3D ( 'NONE', #49, #289, #21 ) ;
#197 = DIRECTION ( 'NONE',  ( 0.000000000000000000, 0.000000000000000000, 1.000000000000000000 ) ) ;
#198 = ADVANCED_FACE ( 'NONE', ( #40 ), #283, .F. ) ;
#199 = DIRECTION ( 'NONE',  ( 0.000000000000000000, 0.000000000000000000, 1.000000000000000000 ) ) ;
#200 = CC_DESIGN_DATE_AND_TIME_ASSIGNMENT ( #223, #131, ( #366 ) ) ;
#201 = LINE ( 'NONE', #316, #278 ) ;
#202 = LOCAL_TIME ( 16, 41, 23.00000000000000000, #277 ) ;
#203 = VERTEX_POINT ( 'NONE', #39 ) ;
#204 = DIRECTION ( 'NONE',  ( -0.000000000000000000, -0.000000000000000000, -1.000000000000000000 ) ) ;
#205 = EDGE_CURVE ( 'NONE', #89, #203, #245, .T. ) ;
#206 = AXIS2_PLACEMENT_3D ( 'NONE', #195, #370, #134 ) ;
#207 = EDGE_LOOP ( 'NONE', ( #237, #235 ) ) ;
#208 = CIRCLE ( 'NONE', #106, 6.500000000000000888 ) ;
#209 = ORIENTED_EDGE ( 'NONE', *, *, #354, .F. ) ;
#210 = ORIENTED_EDGE ( 'NONE', *, *, #281, .F. ) ;
#211 = ADVANCED_FACE ( 'NONE', ( #35 ), #156, .T. ) ;
#212 = ORIENTED_EDGE ( 'NONE', *, *, #173, .F. ) ;
#213 = CIRCLE ( 'NONE', #315, 3.250000000000000444 ) ;
#214 = DATE_TIME_ROLE ( 'classification_date' ) ;
#215 = ORIENTED_EDGE ( 'NONE', *, *, #205, .F. ) ;
#216 = PERSON_AND_ORGANIZATION ( #166, #66 ) ;
#217 = DIRECTION ( 'NONE',  ( 0.000000000000000000, 0.000000000000000000, 1.000000000000000000 ) ) ;
#218 = CALENDAR_DATE ( 2022, 8, 7 ) ;
#219 = DIRECTION ( 'NONE',  ( -0.000000000000000000, -0.000000000000000000, -1.000000000000000000 ) ) ;
#220 = VECTOR ( 'NONE', #271, 1000.000000000000000 ) ;
#221 = PERSON_AND_ORGANIZATION ( #166, #66 ) ;
#222 = CARTESIAN_POINT ( 'NONE',  ( 3.250000000000000444, 3.980102097228898231E-16, 457.0000000000000000 ) ) ;
#223 = DATE_AND_TIME ( #11, #163 ) ;
#224 = DIRECTION ( 'NONE',  ( 1.000000000000000000, 0.000000000000000000, 0.000000000000000000 ) ) ;
#225 = ADVANCED_FACE ( 'NONE', ( #338 ), #189, .F. ) ;
#226 = DIRECTION ( 'NONE',  ( -0.000000000000000000, -0.000000000000000000, -1.000000000000000000 ) ) ;
#227 = CIRCLE ( 'NONE', #272, 6.000000000000000888 ) ;
#228 = DIRECTION ( 'NONE',  ( 1.000000000000000000, 0.000000000000000000, 0.000000000000000000 ) ) ;
#229 = DIRECTION ( 'NONE',  ( 1.000000000000000000, 0.000000000000000000, 0.000000000000000000 ) ) ;
#230 = CARTESIAN_POINT ( 'NONE',  ( 0.000000000000000000, 0.000000000000000000, 0.000000000000000000 ) ) ;
#231 = AXIS2_PLACEMENT_3D ( 'NONE', #71, #104, #130 ) ;
#232 = DIRECTION ( 'NONE',  ( 0.000000000000000000, 0.000000000000000000, 1.000000000000000000 ) ) ;
#233 = APPROVAL_PERSON_ORGANIZATION ( #332, #247, #248 ) ;
#234 = EDGE_CURVE ( 'NONE', #29, #63, #213, .T. ) ;
#235 = ORIENTED_EDGE ( 'NONE', *, *, #308, .T. ) ;
#236 = DIRECTION ( 'NONE',  ( 0.000000000000000000, 0.000000000000000000, 1.000000000000000000 ) ) ;
#237 = ORIENTED_EDGE ( 'NONE', *, *, #173, .T. ) ;
#238 = CC_DESIGN_SECURITY_CLASSIFICATION ( #30, ( #19 ) ) ;
#239 = EDGE_CURVE ( 'NONE', #63, #29, #112, .T. ) ;
#240 = ORIENTED_EDGE ( 'NONE', *, *, #168, .F. ) ;
#241 = PRODUCT_DEFINITION_SHAPE ( 'NONE', 'NONE',  #366 ) ;
#242 = EDGE_LOOP ( 'NONE', ( #146, #320 ) ) ;
#243 = EDGE_CURVE ( 'NONE', #120, #29, #139, .T. ) ;
#244 = VERTEX_POINT ( 'NONE', #263 ) ;
#245 = CIRCLE ( 'NONE', #60, 6.000000000000000888 ) ;
#246 = AXIS2_PLACEMENT_3D ( 'NONE', #115, #297, #183 ) ;
#247 = APPROVAL ( #303, 'NEURÈENÝ' ) ;
#248 = APPROVAL_ROLE ( '' ) ;
#249 = CARTESIAN_POINT ( 'NONE',  ( 0.000000000000000000, 0.000000000000000000, 7.000000000000000000 ) ) ;
#250 = DIRECTION ( 'NONE',  ( -0.000000000000000000, -0.000000000000000000, -1.000000000000000000 ) ) ;
#251 = PLANE ( 'NONE',  #206 ) ;
#252 = APPROVAL ( #280, 'NEURÈENÝ' ) ;
#253 = LOCAL_TIME ( 16, 41, 23.00000000000000000, #160 ) ;
#254 = APPROVAL_ROLE ( '' ) ;
#255 = DIRECTION ( 'NONE',  ( -0.000000000000000000, -0.000000000000000000, -1.000000000000000000 ) ) ;
#256 = EDGE_CURVE ( 'NONE', #122, #89, #48, .T. ) ;
#257 = DATE_AND_TIME ( #15, #253 ) ;
#258 = EDGE_CURVE ( 'NONE', #6, #76, #46, .T. ) ;
#259 = ORIENTED_EDGE ( 'NONE', *, *, #258, .F. ) ;
#260 = DIRECTION ( 'NONE',  ( 1.000000000000000000, 0.000000000000000000, 0.000000000000000000 ) ) ;
#261 = CARTESIAN_POINT ( 'NONE',  ( 0.000000000000000000, 0.000000000000000000, 457.0000000000000000 ) ) ;
#262 = ORIENTED_EDGE ( 'NONE', *, *, #168, .T. ) ;
#263 = CARTESIAN_POINT ( 'NONE',  ( 10.00000000000000000, 1.224646799147353256E-15, 7.000000000000000000 ) ) ;
#264 = ORIENTED_EDGE ( 'NONE', *, *, #342, .F. ) ;
#265 = VECTOR ( 'NONE', #322, 1000.000000000000000 ) ;
#266 = CARTESIAN_POINT ( 'NONE',  ( 0.000000000000000000, 0.000000000000000000, 457.0000000000000000 ) ) ;
#267 = EDGE_CURVE ( 'NONE', #244, #124, #364, .T. ) ;
#268 = LINE ( 'NONE', #358, #220 ) ;
#269 = ORIENTED_EDGE ( 'NONE', *, *, #308, .F. ) ;
#270 = EDGE_LOOP ( 'NONE', ( #78, #264 ) ) ;
#271 = DIRECTION ( 'NONE',  ( 0.000000000000000000, 0.000000000000000000, -1.000000000000000000 ) ) ;
#272 = AXIS2_PLACEMENT_3D ( 'NONE', #261, #232, #229 ) ;
#273 = ORIENTED_EDGE ( 'NONE', *, *, #256, .F. ) ;
#274 = DIRECTION ( 'NONE',  ( 0.000000000000000000, 0.000000000000000000, 1.000000000000000000 ) ) ;
#275 = ORIENTED_EDGE ( 'NONE', *, *, #267, .F. ) ;
#276 = CARTESIAN_POINT ( 'NONE',  ( -10.00000000000000000, 0.000000000000000000, 0.000000000000000000 ) ) ;
#277 = COORDINATED_UNIVERSAL_TIME_OFFSET ( 1, 0, .AHEAD. ) ;
#278 = VECTOR ( 'NONE', #353, 1000.000000000000000 ) ;
#279 = CARTESIAN_POINT ( 'NONE',  ( -6.000000000000000888, 0.000000000000000000, 7.500000000000007105 ) ) ;
#280 = APPROVAL_STATUS ( 'not_yet_approved' ) ;
#281 = EDGE_CURVE ( 'NONE', #76, #6, #52, .T. ) ;
#282 = FACE_OUTER_BOUND ( 'NONE', #148, .T. ) ;
#283 = CYLINDRICAL_SURFACE ( 'NONE', #79, 3.250000000000000444 ) ;
#284 = CLOSED_SHELL ( 'NONE', ( #198, #225, #337, #113, #211, #349, #20, #194, #31, #377, #352 ) ) ;
#285 = APPROVAL_PERSON_ORGANIZATION ( #99, #179, #340 ) ;
#286 = PERSON_AND_ORGANIZATION_ROLE ( 'design_supplier' ) ;
#287 = LINE ( 'NONE', #373, #150 ) ;
#288 = DIRECTION ( 'NONE',  ( 0.000000000000000000, 0.000000000000000000, 1.000000000000000000 ) ) ;
#289 = DIRECTION ( 'NONE',  ( 0.000000000000000000, 0.000000000000000000, 1.000000000000000000 ) ) ;
#290 = VECTOR ( 'NONE', #141, 1000.000000000000000 ) ;
#291 = EDGE_CURVE ( 'NONE', #122, #298, #227, .T. ) ;
#292 = ORIENTED_EDGE ( 'NONE', *, *, #267, .T. ) ;
#293 = DIRECTION ( 'NONE',  ( 1.000000000000000000, 0.000000000000000000, 0.000000000000000000 ) ) ;
#294 = EDGE_CURVE ( 'NONE', #124, #6, #201, .T. ) ;
#295 = TOROIDAL_SURFACE ( 'NONE', #182, 6.500000000000000888, 0.5000000000000000000 ) ;
#296 = DIRECTION ( 'NONE',  ( 1.000000000000000000, 0.000000000000000000, -0.000000000000000000 ) ) ;
#297 = DIRECTION ( 'NONE',  ( 0.000000000000000000, 0.000000000000000000, -1.000000000000000000 ) ) ;
#298 = VERTEX_POINT ( 'NONE', #17 ) ;
#299 = DIRECTION ( 'NONE',  ( 0.000000000000000000, 0.000000000000000000, -1.000000000000000000 ) ) ;
#300 = ORIENTED_EDGE ( 'NONE', *, *, #101, .T. ) ;
#301 =( LENGTH_UNIT ( ) NAMED_UNIT ( * ) SI_UNIT ( .MILLI., .METRE. ) );
#302 = EDGE_LOOP ( 'NONE', ( #178, #292 ) ) ;
#303 = APPROVAL_STATUS ( 'not_yet_approved' ) ;
#304 = ORIENTED_EDGE ( 'NONE', *, *, #205, .T. ) ;
#305 = DATE_AND_TIME ( #187, #176 ) ;
#306 = DIRECTION ( 'NONE',  ( 0.000000000000000000, 0.000000000000000000, -1.000000000000000000 ) ) ;
#307 = CC_DESIGN_DATE_AND_TIME_ASSIGNMENT ( #257, #214, ( #30 ) ) ;
#308 = EDGE_CURVE ( 'NONE', #45, #155, #208, .T. ) ;
#309 = APPLICATION_PROTOCOL_DEFINITION ( 'international standard', 'config_control_design', 1994, #347 ) ;
#310 = CARTESIAN_POINT ( 'NONE',  ( 0.000000000000000000, 0.000000000000000000, 7.000000000000000000 ) ) ;
#311 = PERSON_AND_ORGANIZATION_ROLE ( 'classification_officer' ) ;
#312 = FACE_OUTER_BOUND ( 'NONE', #363, .T. ) ;
#313 = CALENDAR_DATE ( 2022, 8, 7 ) ;
#314 = FACE_BOUND ( 'NONE', #270, .T. ) ;
#315 = AXIS2_PLACEMENT_3D ( 'NONE', #230, #350, #228 ) ;
#316 = CARTESIAN_POINT ( 'NONE',  ( -10.00000000000000000, 0.000000000000000000, 7.000000000000000000 ) ) ;
#317 = CC_DESIGN_PERSON_AND_ORGANIZATION_ASSIGNMENT ( #127, #286, ( #19 ) ) ;
#318 = CARTESIAN_POINT ( 'NONE',  ( 3.250000000000000444, 3.980102097228898231E-16, 457.0000000000000000 ) ) ;
#319 = CARTESIAN_POINT ( 'NONE',  ( 0.000000000000000000, 0.000000000000000000, 7.000000000000000000 ) ) ;
#320 = ORIENTED_EDGE ( 'NONE', *, *, #234, .F. ) ;
#321 = CIRCLE ( 'NONE', #351, 3.250000000000000444 ) ;
#322 = DIRECTION ( 'NONE',  ( 0.000000000000000000, 0.000000000000000000, -1.000000000000000000 ) ) ;
#323 = DIRECTION ( 'NONE',  ( 1.000000000000000000, 0.000000000000000000, 0.000000000000000000 ) ) ;
#324 = CIRCLE ( 'NONE', #36, 6.000000000000000888 ) ;
#325 = AXIS2_PLACEMENT_3D ( 'NONE', #33, #5, #154 ) ;
#326 = ORIENTED_EDGE ( 'NONE', *, *, #234, .T. ) ;
#327 = APPLICATION_CONTEXT ( 'configuration controlled 3d designs of mechanical parts and assemblies' ) ;
#328 = EDGE_CURVE ( 'NONE', #203, #89, #324, .T. ) ;
#329 = EDGE_LOOP ( 'NONE', ( #186, #359 ) ) ;
#330 = AXIS2_PLACEMENT_3D ( 'NONE', #22, #23, #260 ) ;
#331 = EDGE_LOOP ( 'NONE', ( #171, #85, #326, #209 ) ) ;
#332 = PERSON_AND_ORGANIZATION ( #166, #66 ) ;
#333 = ORIENTED_EDGE ( 'NONE', *, *, #294, .T. ) ;
#334 = PRODUCT ( 'a4c9', 'a4c9', '', ( #147 ) ) ;
#335 = COORDINATED_UNIVERSAL_TIME_OFFSET ( 1, 0, .AHEAD. ) ;
#336 = DIRECTION ( 'NONE',  ( -0.000000000000000000, -0.000000000000000000, -1.000000000000000000 ) ) ;
#337 = ADVANCED_FACE ( 'NONE', ( #167 ), #142, .T. ) ;
#338 = FACE_OUTER_BOUND ( 'NONE', #83, .T. ) ;
#339 = AXIS2_PLACEMENT_3D ( 'NONE', #266, #105, #380 ) ;
#340 = APPROVAL_ROLE ( '' ) ;
#341 = CARTESIAN_POINT ( 'NONE',  ( -6.000000000000000888, 0.000000000000000000, 457.0000000000000000 ) ) ;
#342 = EDGE_CURVE ( 'NONE', #120, #32, #98, .T. ) ;
#343 = CYLINDRICAL_SURFACE ( 'NONE', #355, 6.000000000000000888 ) ;
#344 = AXIS2_PLACEMENT_3D ( 'NONE', #310, #255, #164 ) ;
#345 = APPROVAL_PERSON_ORGANIZATION ( #13, #252, #254 ) ;
#346 = ORIENTED_EDGE ( 'NONE', *, *, #328, .F. ) ;
#347 = APPLICATION_CONTEXT ( 'configuration controlled 3d designs of mechanical parts and assemblies' ) ;
#348 = CARTESIAN_POINT ( 'NONE',  ( -6.000000000000000888, 0.000000000000000000, 457.0000000000000000 ) ) ;
#349 = ADVANCED_FACE ( 'NONE', ( #165, #138 ), #362, .T. ) ;
#350 = DIRECTION ( 'NONE',  ( -0.000000000000000000, -0.000000000000000000, -1.000000000000000000 ) ) ;
#351 = AXIS2_PLACEMENT_3D ( 'NONE', #9, #10, #100 ) ;
#352 = ADVANCED_FACE ( 'NONE', ( #55 ), #90, .F. ) ;
#353 = DIRECTION ( 'NONE',  ( -0.000000000000000000, -0.000000000000000000, -1.000000000000000000 ) ) ;
#354 = EDGE_CURVE ( 'NONE', #32, #63, #268, .T. ) ;
#355 = AXIS2_PLACEMENT_3D ( 'NONE', #67, #250, #188 ) ;
#356 = DIRECTION ( 'NONE',  ( 0.000000000000000000, -1.000000000000000000, 0.000000000000000000 ) ) ;
#357 = ORIENTED_EDGE ( 'NONE', *, *, #328, .T. ) ;
#358 = CARTESIAN_POINT ( 'NONE',  ( -3.250000000000000444, 0.000000000000000000, 457.0000000000000000 ) ) ;
#359 = ORIENTED_EDGE ( 'NONE', *, *, #103, .T. ) ;
#360 = PRODUCT_RELATED_PRODUCT_CATEGORY ( 'detail', '', ( #334 ) ) ;
#361 = EDGE_CURVE ( 'NONE', #203, #155, #73, .T. ) ;
#362 = PLANE ( 'NONE',  #25 ) ;
#363 = EDGE_LOOP ( 'NONE', ( #62, #119, #2, #304 ) ) ;
#364 = CIRCLE ( 'NONE', #196, 10.00000000000000000 ) ;
#365 = FACE_OUTER_BOUND ( 'NONE', #111, .T. ) ;
#366 = PRODUCT_DEFINITION ( 'NEZNÁMÝ', '', #19, #27 ) ;
#367 = LINE ( 'NONE', #70, #181 ) ;
#368 = SECURITY_CLASSIFICATION_LEVEL ( 'unclassified' ) ;
#369 = DIRECTION ( 'NONE',  ( -1.000000000000000000, 0.000000000000000000, 0.000000000000000000 ) ) ;
#370 = DIRECTION ( 'NONE',  ( 0.000000000000000000, 0.000000000000000000, 1.000000000000000000 ) ) ;
#371 = AXIS2_PLACEMENT_3D ( 'NONE', #177, #153, #180 ) ;
#372 = DIRECTION ( 'NONE',  ( -1.000000000000000000, 0.000000000000000000, 0.000000000000000000 ) ) ;
#373 = CARTESIAN_POINT ( 'NONE',  ( 10.00000000000000000, 1.224646799147353256E-15, 7.000000000000000000 ) ) ;
#374 = DIRECTION ( 'NONE',  ( 0.000000000000000000, 0.000000000000000000, 1.000000000000000000 ) ) ;
#375 = AXIS2_PLACEMENT_3D ( 'NONE', #65, #12, #16 ) ;
#376 = CC_DESIGN_PERSON_AND_ORGANIZATION_ASSIGNMENT ( #162, #68, ( #19 ) ) ;
#377 = ADVANCED_FACE ( 'NONE', ( #87 ), #295, .F. ) ;
#378 = DIRECTION ( 'NONE',  ( 1.000000000000000000, 0.000000000000000000, 0.000000000000000000 ) ) ;
#379 = CIRCLE ( 'NONE', #371, 10.00000000000000000 ) ;
#380 = DIRECTION ( 'NONE',  ( -1.000000000000000000, 0.000000000000000000, 0.000000000000000000 ) ) ;
#381 = CC_DESIGN_PERSON_AND_ORGANIZATION_ASSIGNMENT ( #8, #102, ( #366 ) ) ;
ENDSEC;
END-ISO-10303-21;
