ISO-10303-21;
HEADER;
FILE_DESCRIPTION (( 'STEP AP203' ),
    '1' );
FILE_NAME ('dca8.STEP',
    '2022-07-08T14:45:45',
    ( '' ),
    ( '' ),
    'SwSTEP 2.0',
    'SolidWorks 2019',
    '' );
FILE_SCHEMA (( 'CONFIG_CONTROL_DESIGN' ));
ENDSEC;

DATA;
#1 = CALENDAR_DATE ( 2022, 8, 7 ) ;
#2 = FACE_OUTER_BOUND ( 'NONE', #295, .T. ) ;
#3 = ADVANCED_FACE ( 'NONE', ( #29 ), #141, .T. ) ;
#4 = LINE ( 'NONE', #360, #178 ) ;
#5 = DIRECTION ( 'NONE',  ( -1.000000000000000000, 0.000000000000000000, 0.000000000000000000 ) ) ;
#6 = FACE_BOUND ( 'NONE', #333, .T. ) ;
#7 = ORIENTED_EDGE ( 'NONE', *, *, #256, .T. ) ;
#8 = AXIS2_PLACEMENT_3D ( 'NONE', #260, #203, #53 ) ;
#9 = ADVANCED_FACE ( 'NONE', ( #358 ), #262, .F. ) ;
#10 = COORDINATED_UNIVERSAL_TIME_OFFSET ( 1, 0, .AHEAD. ) ;
#11 = DIRECTION ( 'NONE',  ( -0.000000000000000000, -0.000000000000000000, -1.000000000000000000 ) ) ;
#12 = ADVANCED_FACE ( 'NONE', ( #88 ), #132, .F. ) ;
#13 = CARTESIAN_POINT ( 'NONE',  ( 0.000000000000000000, 0.000000000000000000, 5.000000000000000000 ) ) ;
#14 = CARTESIAN_POINT ( 'NONE',  ( -5.500000000000000000, 6.735557395310442023E-16, 5.500000000000005329 ) ) ;
#15 = LOCAL_TIME ( 16, 45, 45.00000000000000000, #147 ) ;
#16 = ORIENTED_EDGE ( 'NONE', *, *, #154, .T. ) ;
#17 = APPLICATION_PROTOCOL_DEFINITION ( 'international standard', 'config_control_design', 1994, #199 ) ;
#18 = FACE_OUTER_BOUND ( 'NONE', #52, .T. ) ;
#19 = DIRECTION ( 'NONE',  ( 1.000000000000000000, 0.000000000000000000, 0.000000000000000000 ) ) ;
#20 = EDGE_LOOP ( 'NONE', ( #194, #41 ) ) ;
#21 = AXIS2_PLACEMENT_3D ( 'NONE', #109, #297, #142 ) ;
#22 = CARTESIAN_POINT ( 'NONE',  ( 0.000000000000000000, 0.000000000000000000, 5.000000000000000000 ) ) ;
#23 = CC_DESIGN_DATE_AND_TIME_ASSIGNMENT ( #149, #269, ( #229 ) ) ;
#24 = SHAPE_DEFINITION_REPRESENTATION ( #118, #245 ) ;
#25 = APPLICATION_CONTEXT ( 'configuration controlled 3d designs of mechanical parts and assemblies' ) ;
#26 = AXIS2_PLACEMENT_3D ( 'NONE', #13, #151, #174 ) ;
#27 = CARTESIAN_POINT ( 'NONE',  ( 0.000000000000000000, 0.000000000000000000, 5.000000000000000000 ) ) ;
#28 = DIRECTION ( 'NONE',  ( 0.000000000000000000, 0.000000000000000000, -1.000000000000000000 ) ) ;
#29 = FACE_OUTER_BOUND ( 'NONE', #129, .T. ) ;
#30 = DIRECTION ( 'NONE',  ( -1.000000000000000000, 0.000000000000000000, 0.000000000000000000 ) ) ;
#31 = ORIENTED_EDGE ( 'NONE', *, *, #361, .T. ) ;
#32 = CARTESIAN_POINT ( 'NONE',  ( 5.500000000000000000, 0.000000000000000000, 5.500000000000005329 ) ) ;
#33 = VERTEX_POINT ( 'NONE', #177 ) ;
#34 = ADVANCED_FACE ( 'NONE', ( #179, #244 ), #214, .T. ) ;
#35 = DIRECTION ( 'NONE',  ( 1.000000000000000000, 0.000000000000000000, 0.000000000000000000 ) ) ;
#36 = CALENDAR_DATE ( 2022, 8, 7 ) ;
#37 = SECURITY_CLASSIFICATION ( '', '', #105 ) ;
#38 = CARTESIAN_POINT ( 'NONE',  ( 0.000000000000000000, 0.000000000000000000, 5.500000000000005329 ) ) ;
#39 = VERTEX_POINT ( 'NONE', #274 ) ;
#40 = CYLINDRICAL_SURFACE ( 'NONE', #67, 5.000000000000000000 ) ;
#41 = ORIENTED_EDGE ( 'NONE', *, *, #90, .F. ) ;
#42 = VECTOR ( 'NONE', #160, 1000.000000000000000 ) ;
#43 = DIRECTION ( 'NONE',  ( 0.000000000000000000, 0.000000000000000000, 1.000000000000000000 ) ) ;
#44 = VERTEX_POINT ( 'NONE', #219 ) ;
#45 = DATE_AND_TIME ( #188, #81 ) ;
#46 = PLANE ( 'NONE',  #268 ) ;
#47 = ORIENTED_EDGE ( 'NONE', *, *, #221, .T. ) ;
#48 = CIRCLE ( 'NONE', #124, 0.5000000000000004441 ) ;
#49 = DIRECTION ( 'NONE',  ( 1.000000000000000000, 0.000000000000000000, -0.000000000000000000 ) ) ;
#50 = ORIENTED_EDGE ( 'NONE', *, *, #86, .F. ) ;
#51 = CIRCLE ( 'NONE', #94, 3.250000000000000444 ) ;
#52 = EDGE_LOOP ( 'NONE', ( #327, #93, #373, #321 ) ) ;
#53 = DIRECTION ( 'NONE',  ( -1.000000000000000000, 0.000000000000000000, 0.000000000000000000 ) ) ;
#54 = ORIENTED_EDGE ( 'NONE', *, *, #296, .T. ) ;
#55 = CIRCLE ( 'NONE', #273, 3.250000000000000444 ) ;
#56 = ORIENTED_EDGE ( 'NONE', *, *, #309, .T. ) ;
#57 = DESIGN_CONTEXT ( 'detailed design', #25, 'design' ) ;
#58 = DIRECTION ( 'NONE',  ( 1.000000000000000000, 0.000000000000000000, -0.000000000000000000 ) ) ;
#59 = CC_DESIGN_APPROVAL ( #243, ( #229 ) ) ;
#60 = ADVANCED_FACE ( 'NONE', ( #222 ), #367, .F. ) ;
#61 = CARTESIAN_POINT ( 'NONE',  ( 3.250000000000000444, 3.980102097228898231E-16, 355.0000000000000000 ) ) ;
#62 = PERSON_AND_ORGANIZATION ( #366, #369 ) ;
#63 = DIRECTION ( 'NONE',  ( 1.224646799147353207E-16, 1.000000000000000000, -0.000000000000000000 ) ) ;
#64 = DIRECTION ( 'NONE',  ( 1.000000000000000000, 0.000000000000000000, 0.000000000000000000 ) ) ;
#65 = CARTESIAN_POINT ( 'NONE',  ( -3.250000000000000444, 0.000000000000000000, 0.000000000000000000 ) ) ;
#66 = APPROVAL_STATUS ( 'not_yet_approved' ) ;
#67 = AXIS2_PLACEMENT_3D ( 'NONE', #230, #162, #123 ) ;
#68 = APPROVAL_STATUS ( 'not_yet_approved' ) ;
#69 = ORIENTED_EDGE ( 'NONE', *, *, #183, .T. ) ;
#70 = LINE ( 'NONE', #286, #42 ) ;
#71 = ORIENTED_EDGE ( 'NONE', *, *, #265, .T. ) ;
#72 = AXIS2_PLACEMENT_3D ( 'NONE', #281, #371, #19 ) ;
#73 = EDGE_LOOP ( 'NONE', ( #106, #291 ) ) ;
#74 = DIRECTION ( 'NONE',  ( 0.000000000000000000, -1.000000000000000000, 0.000000000000000000 ) ) ;
#75 = EDGE_LOOP ( 'NONE', ( #31, #56 ) ) ;
#76 = DIRECTION ( 'NONE',  ( 0.000000000000000000, 0.000000000000000000, -1.000000000000000000 ) ) ;
#77 = ORIENTED_EDGE ( 'NONE', *, *, #334, .T. ) ;
#78 = AXIS2_PLACEMENT_3D ( 'NONE', #32, #74, #76 ) ;
#79 = DIRECTION ( 'NONE',  ( 1.000000000000000000, 0.000000000000000000, 0.000000000000000000 ) ) ;
#80 = ORIENTED_EDGE ( 'NONE', *, *, #165, .F. ) ;
#81 = LOCAL_TIME ( 16, 45, 45.00000000000000000, #280 ) ;
#82 = CC_DESIGN_PERSON_AND_ORGANIZATION_ASSIGNMENT ( #349, #202, ( #37 ) ) ;
#83 = FACE_OUTER_BOUND ( 'NONE', #73, .T. ) ;
#84 = ORIENTED_EDGE ( 'NONE', *, *, #334, .F. ) ;
#85 = DIRECTION ( 'NONE',  ( 0.000000000000000000, 0.000000000000000000, 1.000000000000000000 ) ) ;
#86 = EDGE_CURVE ( 'NONE', #100, #110, #48, .T. ) ;
#87 = DIRECTION ( 'NONE',  ( -0.000000000000000000, -0.000000000000000000, -1.000000000000000000 ) ) ;
#88 = FACE_OUTER_BOUND ( 'NONE', #135, .T. ) ;
#89 = CARTESIAN_POINT ( 'NONE',  ( 0.000000000000000000, 0.000000000000000000, 355.0000000000000000 ) ) ;
#90 = EDGE_CURVE ( 'NONE', #39, #197, #351, .T. ) ;
#91 = APPROVAL_DATE_TIME ( #216, #243 ) ;
#92 = DIRECTION ( 'NONE',  ( -0.000000000000000000, -0.000000000000000000, -1.000000000000000000 ) ) ;
#93 = ORIENTED_EDGE ( 'NONE', *, *, #138, .T. ) ;
#94 = AXIS2_PLACEMENT_3D ( 'NONE', #99, #352, #79 ) ;
#95 = APPROVAL_PERSON_ORGANIZATION ( #289, #246, #251 ) ;
#96 = DIRECTION ( 'NONE',  ( 0.000000000000000000, 0.000000000000000000, 1.000000000000000000 ) ) ;
#97 = CARTESIAN_POINT ( 'NONE',  ( 0.000000000000000000, 0.000000000000000000, 0.000000000000000000 ) ) ;
#98 = ORIENTED_EDGE ( 'NONE', *, *, #256, .F. ) ;
#99 = CARTESIAN_POINT ( 'NONE',  ( 0.000000000000000000, 0.000000000000000000, 355.0000000000000000 ) ) ;
#100 = VERTEX_POINT ( 'NONE', #180 ) ;
#101 = UNCERTAINTY_MEASURE_WITH_UNIT (LENGTH_MEASURE( 1.000000000000000082E-05 ), #267, 'distance_accuracy_value', 'NONE');
#102 = CALENDAR_DATE ( 2022, 8, 7 ) ;
#103 = PRODUCT_DEFINITION_FORMATION_WITH_SPECIFIED_SOURCE ( 'LIBOVOLNÝ', '', #155, .NOT_KNOWN. ) ;
#104 = ORIENTED_EDGE ( 'NONE', *, *, #240, .T. ) ;
#105 = SECURITY_CLASSIFICATION_LEVEL ( 'unclassified' ) ;
#106 = ORIENTED_EDGE ( 'NONE', *, *, #215, .T. ) ;
#107 = DIRECTION ( 'NONE',  ( -0.000000000000000000, -0.000000000000000000, -1.000000000000000000 ) ) ;
#108 = AXIS2_PLACEMENT_3D ( 'NONE', #97, #225, #163 ) ;
#109 = CARTESIAN_POINT ( 'NONE',  ( 0.000000000000000000, 0.000000000000000000, 355.0000000000000000 ) ) ;
#110 = VERTEX_POINT ( 'NONE', #308 ) ;
#111 = AXIS2_PLACEMENT_3D ( 'NONE', #143, #146, #5 ) ;
#112 = DIRECTION ( 'NONE',  ( 1.000000000000000000, 0.000000000000000000, 0.000000000000000000 ) ) ;
#113 = DIRECTION ( 'NONE',  ( 1.000000000000000000, 0.000000000000000000, 0.000000000000000000 ) ) ;
#114 = VECTOR ( 'NONE', #347, 1000.000000000000000 ) ;
#115 = DIRECTION ( 'NONE',  ( 0.000000000000000000, 0.000000000000000000, 1.000000000000000000 ) ) ;
#116 = EDGE_CURVE ( 'NONE', #261, #158, #356, .T. ) ;
#117 = AXIS2_PLACEMENT_3D ( 'NONE', #339, #307, #35 ) ;
#118 = PRODUCT_DEFINITION_SHAPE ( 'NONE', 'NONE',  #229 ) ;
#119 = VECTOR ( 'NONE', #310, 1000.000000000000000 ) ;
#120 = CARTESIAN_POINT ( 'NONE',  ( -3.250000000000000444, 0.000000000000000000, 355.0000000000000000 ) ) ;
#121 = ORIENTED_EDGE ( 'NONE', *, *, #208, .F. ) ;
#122 = MECHANICAL_CONTEXT ( 'NONE', #199, 'mechanical' ) ;
#123 = DIRECTION ( 'NONE',  ( -1.000000000000000000, 0.000000000000000000, 0.000000000000000000 ) ) ;
#124 = AXIS2_PLACEMENT_3D ( 'NONE', #14, #63, #242 ) ;
#125 = EDGE_LOOP ( 'NONE', ( #77, #255 ) ) ;
#126 = APPROVAL_DATE_TIME ( #228, #345 ) ;
#127 = VERTEX_POINT ( 'NONE', #211 ) ;
#128 = CIRCLE ( 'NONE', #78, 0.5000000000000004441 ) ;
#129 = EDGE_LOOP ( 'NONE', ( #226, #314, #54, #104 ) ) ;
#130 = CC_DESIGN_DATE_AND_TIME_ASSIGNMENT ( #159, #133, ( #37 ) ) ;
#131 = CARTESIAN_POINT ( 'NONE',  ( -8.000000000000000000, 0.000000000000000000, 5.000000000000000000 ) ) ;
#132 = TOROIDAL_SURFACE ( 'NONE', #341, 5.500000000000000000, 0.5000000000000000000 ) ;
#133 = DATE_TIME_ROLE ( 'classification_date' ) ;
#134 = CARTESIAN_POINT ( 'NONE',  ( 0.000000000000000000, 0.000000000000000000, 0.000000000000000000 ) ) ;
#135 = EDGE_LOOP ( 'NONE', ( #166, #348, #84, #139 ) ) ;
#136 = CIRCLE ( 'NONE', #299, 5.000000000000000000 ) ;
#137 = CYLINDRICAL_SURFACE ( 'NONE', #8, 5.000000000000000000 ) ;
#138 = EDGE_CURVE ( 'NONE', #279, #127, #336, .T. ) ;
#139 = ORIENTED_EDGE ( 'NONE', *, *, #315, .F. ) ;
#140 = CARTESIAN_POINT ( 'NONE',  ( -8.000000000000000000, 0.000000000000000000, 5.000000000000000000 ) ) ;
#141 = CYLINDRICAL_SURFACE ( 'NONE', #111, 8.000000000000000000 ) ;
#142 = DIRECTION ( 'NONE',  ( 1.000000000000000000, 0.000000000000000000, 0.000000000000000000 ) ) ;
#143 = CARTESIAN_POINT ( 'NONE',  ( 0.000000000000000000, 0.000000000000000000, 5.000000000000000000 ) ) ;
#144 = AXIS2_PLACEMENT_3D ( 'NONE', #338, #340, #343 ) ;
#145 = PERSON_AND_ORGANIZATION ( #366, #369 ) ;
#146 = DIRECTION ( 'NONE',  ( -0.000000000000000000, -0.000000000000000000, -1.000000000000000000 ) ) ;
#147 = COORDINATED_UNIVERSAL_TIME_OFFSET ( 1, 0, .AHEAD. ) ;
#148 = DIRECTION ( 'NONE',  ( -0.000000000000000000, -0.000000000000000000, -1.000000000000000000 ) ) ;
#149 = DATE_AND_TIME ( #36, #275 ) ;
#150 = AXIS2_PLACEMENT_3D ( 'NONE', #38, #96, #64 ) ;
#151 = DIRECTION ( 'NONE',  ( 0.000000000000000000, 0.000000000000000000, 1.000000000000000000 ) ) ;
#152 = CC_DESIGN_PERSON_AND_ORGANIZATION_ASSIGNMENT ( #282, #325, ( #103 ) ) ;
#153 = CARTESIAN_POINT ( 'NONE',  ( 0.000000000000000000, 0.000000000000000000, 5.500000000000005329 ) ) ;
#154 = EDGE_CURVE ( 'NONE', #197, #39, #55, .T. ) ;
#155 = PRODUCT ( 'dca8', 'dca8', '', ( #122 ) ) ;
#156 = CARTESIAN_POINT ( 'NONE',  ( 0.000000000000000000, 0.000000000000000000, 355.0000000000000000 ) ) ;
#157 = EDGE_LOOP ( 'NONE', ( #206, #184, #378, #47 ) ) ;
#158 = VERTEX_POINT ( 'NONE', #61 ) ;
#159 = DATE_AND_TIME ( #1, #270 ) ;
#160 = DIRECTION ( 'NONE',  ( -0.000000000000000000, -0.000000000000000000, -1.000000000000000000 ) ) ;
#161 = APPROVAL_ROLE ( '' ) ;
#162 = DIRECTION ( 'NONE',  ( -0.000000000000000000, -0.000000000000000000, -1.000000000000000000 ) ) ;
#163 = DIRECTION ( 'NONE',  ( 1.000000000000000000, 0.000000000000000000, 0.000000000000000000 ) ) ;
#164 = ORIENTED_EDGE ( 'NONE', *, *, #193, .T. ) ;
#165 = EDGE_CURVE ( 'NONE', #110, #187, #212, .T. ) ;
#166 = ORIENTED_EDGE ( 'NONE', *, *, #221, .F. ) ;
#167 = DIRECTION ( 'NONE',  ( 1.000000000000000000, 0.000000000000000000, 0.000000000000000000 ) ) ;
#168 = DIRECTION ( 'NONE',  ( 0.000000000000000000, 0.000000000000000000, 1.000000000000000000 ) ) ;
#169 = DIRECTION ( 'NONE',  ( 1.000000000000000000, 0.000000000000000000, 0.000000000000000000 ) ) ;
#170 = AXIS2_PLACEMENT_3D ( 'NONE', #175, #87, #113 ) ;
#171 = VERTEX_POINT ( 'NONE', #131 ) ;
#172 = CIRCLE ( 'NONE', #21, 5.000000000000000000 ) ;
#173 = APPROVAL_ROLE ( '' ) ;
#174 = DIRECTION ( 'NONE',  ( 1.000000000000000000, 0.000000000000000000, -0.000000000000000000 ) ) ;
#175 = CARTESIAN_POINT ( 'NONE',  ( 0.000000000000000000, 0.000000000000000000, 0.000000000000000000 ) ) ;
#176 = PERSON_AND_ORGANIZATION_ROLE ( 'creator' ) ;
#177 = CARTESIAN_POINT ( 'NONE',  ( 8.000000000000000000, 9.797174393178825657E-16, 0.000000000000000000 ) ) ;
#178 = VECTOR ( 'NONE', #107, 1000.000000000000000 ) ;
#179 = FACE_BOUND ( 'NONE', #125, .T. ) ;
#180 = CARTESIAN_POINT ( 'NONE',  ( -5.000000000000000000, 0.000000000000000000, 5.500000000000005329 ) ) ;
#181 = ADVANCED_FACE ( 'NONE', ( #18 ), #40, .T. ) ;
#182 = CARTESIAN_POINT ( 'NONE',  ( 3.250000000000000444, 3.980102097228898231E-16, 355.0000000000000000 ) ) ;
#183 = EDGE_CURVE ( 'NONE', #44, #33, #70, .T. ) ;
#184 = ORIENTED_EDGE ( 'NONE', *, *, #215, .F. ) ;
#185 = CIRCLE ( 'NONE', #150, 5.000000000000000000 ) ;
#186 = DIRECTION ( 'NONE',  ( 1.000000000000000000, 0.000000000000000000, 0.000000000000000000 ) ) ;
#187 = VERTEX_POINT ( 'NONE', #344 ) ;
#188 = CALENDAR_DATE ( 2022, 8, 7 ) ;
#189 = MANIFOLD_SOLID_BREP ( 'Odebrat vysunutím3', #318 ) ;
#190 = EDGE_CURVE ( 'NONE', #127, #100, #136, .T. ) ;
#191 = DIRECTION ( 'NONE',  ( -0.000000000000000000, -0.000000000000000000, -1.000000000000000000 ) ) ;
#192 = CARTESIAN_POINT ( 'NONE',  ( 0.000000000000000000, 0.000000000000000000, 5.500000000000005329 ) ) ;
#193 = EDGE_CURVE ( 'NONE', #261, #197, #249, .T. ) ;
#194 = ORIENTED_EDGE ( 'NONE', *, *, #154, .F. ) ;
#195 = APPROVAL_PERSON_ORGANIZATION ( #374, #243, #173 ) ;
#196 = CARTESIAN_POINT ( 'NONE',  ( 0.000000000000000000, 0.000000000000000000, 5.000000000000000000 ) ) ;
#197 = VERTEX_POINT ( 'NONE', #65 ) ;
#198 = ADVANCED_FACE ( 'NONE', ( #313 ), #283, .T. ) ;
#199 = APPLICATION_CONTEXT ( 'configuration controlled 3d designs of mechanical parts and assemblies' ) ;
#200 = LINE ( 'NONE', #140, #220 ) ;
#201 = VERTEX_POINT ( 'NONE', #254 ) ;
#202 = PERSON_AND_ORGANIZATION_ROLE ( 'classification_officer' ) ;
#203 = DIRECTION ( 'NONE',  ( -0.000000000000000000, -0.000000000000000000, -1.000000000000000000 ) ) ;
#204 = CIRCLE ( 'NONE', #253, 8.000000000000000000 ) ;
#205 = FACE_OUTER_BOUND ( 'NONE', #232, .T. ) ;
#206 = ORIENTED_EDGE ( 'NONE', *, *, #138, .F. ) ;
#207 = PLANE ( 'NONE',  #238 ) ;
#208 = EDGE_CURVE ( 'NONE', #33, #258, #364, .T. ) ;
#209 = AXIS2_PLACEMENT_3D ( 'NONE', #89, #271, #365 ) ;
#210 =( NAMED_UNIT ( * ) PLANE_ANGLE_UNIT ( ) SI_UNIT ( $, .RADIAN. ) );
#211 = CARTESIAN_POINT ( 'NONE',  ( 5.000000000000000000, 6.123233995736766282E-16, 5.500000000000005329 ) ) ;
#212 = CIRCLE ( 'NONE', #312, 5.500000000000000000 ) ;
#213 = CC_DESIGN_APPROVAL ( #345, ( #103 ) ) ;
#214 = PLANE ( 'NONE',  #26 ) ;
#215 = EDGE_CURVE ( 'NONE', #201, #279, #329, .T. ) ;
#216 = DATE_AND_TIME ( #264, #15 ) ;
#217 = DIRECTION ( 'NONE',  ( 1.000000000000000000, 0.000000000000000000, 0.000000000000000000 ) ) ;
#218 = CC_DESIGN_PERSON_AND_ORGANIZATION_ASSIGNMENT ( #145, #248, ( #155 ) ) ;
#219 = CARTESIAN_POINT ( 'NONE',  ( 8.000000000000000000, 9.797174393178825657E-16, 5.000000000000000000 ) ) ;
#220 = VECTOR ( 'NONE', #328, 1000.000000000000000 ) ;
#221 = EDGE_CURVE ( 'NONE', #100, #127, #185, .T. ) ;
#222 = FACE_OUTER_BOUND ( 'NONE', #320, .T. ) ;
#223 = ORIENTED_EDGE ( 'NONE', *, *, #296, .F. ) ;
#224 = PERSON_AND_ORGANIZATION ( #366, #369 ) ;
#225 = DIRECTION ( 'NONE',  ( 0.000000000000000000, 0.000000000000000000, 1.000000000000000000 ) ) ;
#226 = ORIENTED_EDGE ( 'NONE', *, *, #183, .F. ) ;
#227 = AXIS2_PLACEMENT_3D ( 'NONE', #22, #92, #319 ) ;
#228 = DATE_AND_TIME ( #102, #381 ) ;
#229 = PRODUCT_DEFINITION ( 'NEZNÁMÝ', '', #103, #57 ) ;
#230 = CARTESIAN_POINT ( 'NONE',  ( 0.000000000000000000, 0.000000000000000000, 355.0000000000000000 ) ) ;
#231 = VECTOR ( 'NONE', #148, 1000.000000000000000 ) ;
#232 = EDGE_LOOP ( 'NONE', ( #362, #121 ) ) ;
#233 = COORDINATED_UNIVERSAL_TIME_OFFSET ( 1, 0, .AHEAD. ) ;
#234 = PERSON_AND_ORGANIZATION_ROLE ( 'design_supplier' ) ;
#235 = CARTESIAN_POINT ( 'NONE',  ( 0.000000000000000000, 0.000000000000000000, 355.0000000000000000 ) ) ;
#236 = PRODUCT_RELATED_PRODUCT_CATEGORY ( 'detail', '', ( #155 ) ) ;
#237 = ORIENTED_EDGE ( 'NONE', *, *, #309, .F. ) ;
#238 = AXIS2_PLACEMENT_3D ( 'NONE', #332, #363, #58 ) ;
#239 = EDGE_LOOP ( 'NONE', ( #237, #69, #287, #223 ) ) ;
#240 = EDGE_CURVE ( 'NONE', #258, #33, #306, .T. ) ;
#241 = AXIS2_PLACEMENT_3D ( 'NONE', #247, #85, #305 ) ;
#242 = DIRECTION ( 'NONE',  ( -1.000000000000000000, 1.224646799147351482E-16, 0.000000000000000000 ) ) ;
#243 = APPROVAL ( #303, 'NEURÈENÝ' ) ;
#244 = FACE_OUTER_BOUND ( 'NONE', #75, .T. ) ;
#245 = ADVANCED_BREP_SHAPE_REPRESENTATION ( 'dca8', ( #189, #144 ), #284 ) ;
#246 = APPROVAL ( #68, 'NEURÈENÝ' ) ;
#247 = CARTESIAN_POINT ( 'NONE',  ( 0.000000000000000000, 0.000000000000000000, 355.0000000000000000 ) ) ;
#248 = PERSON_AND_ORGANIZATION_ROLE ( 'design_owner' ) ;
#249 = LINE ( 'NONE', #375, #114 ) ;
#250 = ORIENTED_EDGE ( 'NONE', *, *, #116, .T. ) ;
#251 = APPROVAL_ROLE ( '' ) ;
#252 = LINE ( 'NONE', #182, #119 ) ;
#253 = AXIS2_PLACEMENT_3D ( 'NONE', #196, #323, #380 ) ;
#254 = CARTESIAN_POINT ( 'NONE',  ( -5.000000000000000000, 0.000000000000000000, 355.0000000000000000 ) ) ;
#255 = ORIENTED_EDGE ( 'NONE', *, *, #165, .T. ) ;
#256 = EDGE_CURVE ( 'NONE', #158, #39, #252, .T. ) ;
#257 = CARTESIAN_POINT ( 'NONE',  ( 5.000000000000000000, 6.123233995736766282E-16, 355.0000000000000000 ) ) ;
#258 = VERTEX_POINT ( 'NONE', #276 ) ;
#259 = AXIS2_PLACEMENT_3D ( 'NONE', #27, #326, #167 ) ;
#260 = CARTESIAN_POINT ( 'NONE',  ( 0.000000000000000000, 0.000000000000000000, 355.0000000000000000 ) ) ;
#261 = VERTEX_POINT ( 'NONE', #120 ) ;
#262 = CYLINDRICAL_SURFACE ( 'NONE', #209, 3.250000000000000444 ) ;
#263 = AXIS2_PLACEMENT_3D ( 'NONE', #331, #290, #169 ) ;
#264 = CALENDAR_DATE ( 2022, 8, 7 ) ;
#265 = EDGE_CURVE ( 'NONE', #158, #261, #51, .T. ) ;
#266 = CARTESIAN_POINT ( 'NONE',  ( 0.000000000000000000, 0.000000000000000000, 0.000000000000000000 ) ) ;
#267 =( LENGTH_UNIT ( ) NAMED_UNIT ( * ) SI_UNIT ( .MILLI., .METRE. ) );
#268 = AXIS2_PLACEMENT_3D ( 'NONE', #134, #168, #49 ) ;
#269 = DATE_TIME_ROLE ( 'creation_date' ) ;
#270 = LOCAL_TIME ( 16, 45, 45.00000000000000000, #233 ) ;
#271 = DIRECTION ( 'NONE',  ( 0.000000000000000000, 0.000000000000000000, -1.000000000000000000 ) ) ;
#272 = CC_DESIGN_PERSON_AND_ORGANIZATION_ASSIGNMENT ( #354, #234, ( #103 ) ) ;
#273 = AXIS2_PLACEMENT_3D ( 'NONE', #266, #11, #112 ) ;
#274 = CARTESIAN_POINT ( 'NONE',  ( 3.250000000000000444, 3.980102097228898231E-16, 0.000000000000000000 ) ) ;
#275 = LOCAL_TIME ( 16, 45, 45.00000000000000000, #10 ) ;
#276 = CARTESIAN_POINT ( 'NONE',  ( -8.000000000000000000, 0.000000000000000000, 0.000000000000000000 ) ) ;
#277 = ORIENTED_EDGE ( 'NONE', *, *, #190, .F. ) ;
#278 = ADVANCED_FACE ( 'NONE', ( #355, #205 ), #46, .F. ) ;
#279 = VERTEX_POINT ( 'NONE', #257 ) ;
#280 = COORDINATED_UNIVERSAL_TIME_OFFSET ( 1, 0, .AHEAD. ) ;
#281 = CARTESIAN_POINT ( 'NONE',  ( 0.000000000000000000, 0.000000000000000000, 0.000000000000000000 ) ) ;
#282 = PERSON_AND_ORGANIZATION ( #366, #369 ) ;
#283 = CYLINDRICAL_SURFACE ( 'NONE', #227, 8.000000000000000000 ) ;
#284 =( GEOMETRIC_REPRESENTATION_CONTEXT ( 3 ) GLOBAL_UNCERTAINTY_ASSIGNED_CONTEXT ( ( #101 ) ) GLOBAL_UNIT_ASSIGNED_CONTEXT ( ( #267, #210, #300 ) ) REPRESENTATION_CONTEXT ( 'NONE', 'WORKASPACE' ) );
#285 = APPROVAL_DATE_TIME ( #45, #246 ) ;
#286 = CARTESIAN_POINT ( 'NONE',  ( 8.000000000000000000, 9.797174393178825657E-16, 5.000000000000000000 ) ) ;
#287 = ORIENTED_EDGE ( 'NONE', *, *, #208, .T. ) ;
#288 = ADVANCED_FACE ( 'NONE', ( #2 ), #292, .F. ) ;
#289 = PERSON_AND_ORGANIZATION ( #366, #369 ) ;
#290 = DIRECTION ( 'NONE',  ( 0.000000000000000000, 0.000000000000000000, 1.000000000000000000 ) ) ;
#291 = ORIENTED_EDGE ( 'NONE', *, *, #370, .T. ) ;
#292 = CYLINDRICAL_SURFACE ( 'NONE', #376, 3.250000000000000444 ) ;
#293 = ORIENTED_EDGE ( 'NONE', *, *, #116, .F. ) ;
#294 = FACE_OUTER_BOUND ( 'NONE', #157, .T. ) ;
#295 = EDGE_LOOP ( 'NONE', ( #250, #7, #317, #311 ) ) ;
#296 = EDGE_CURVE ( 'NONE', #171, #258, #200, .T. ) ;
#297 = DIRECTION ( 'NONE',  ( 0.000000000000000000, 0.000000000000000000, 1.000000000000000000 ) ) ;
#298 = EDGE_LOOP ( 'NONE', ( #98, #71, #164, #16 ) ) ;
#299 = AXIS2_PLACEMENT_3D ( 'NONE', #192, #43, #350 ) ;
#300 =( NAMED_UNIT ( * ) SI_UNIT ( $, .STERADIAN. ) SOLID_ANGLE_UNIT ( ) );
#301 = CARTESIAN_POINT ( 'NONE',  ( 5.000000000000000000, 6.123233995736766282E-16, 355.0000000000000000 ) ) ;
#302 = CC_DESIGN_PERSON_AND_ORGANIZATION_ASSIGNMENT ( #62, #176, ( #229 ) ) ;
#303 = APPROVAL_STATUS ( 'not_yet_approved' ) ;
#304 = CARTESIAN_POINT ( 'NONE',  ( 0.000000000000000000, 0.000000000000000000, 5.000000000000000000 ) ) ;
#305 = DIRECTION ( 'NONE',  ( 1.000000000000000000, 0.000000000000000000, 0.000000000000000000 ) ) ;
#306 = CIRCLE ( 'NONE', #72, 8.000000000000000000 ) ;
#307 = DIRECTION ( 'NONE',  ( 0.000000000000000000, 0.000000000000000000, 1.000000000000000000 ) ) ;
#308 = CARTESIAN_POINT ( 'NONE',  ( -5.500000000000000000, 6.735557395310442023E-16, 5.000000000000002665 ) ) ;
#309 = EDGE_CURVE ( 'NONE', #44, #171, #204, .T. ) ;
#310 = DIRECTION ( 'NONE',  ( 0.000000000000000000, 0.000000000000000000, -1.000000000000000000 ) ) ;
#311 = ORIENTED_EDGE ( 'NONE', *, *, #193, .F. ) ;
#312 = AXIS2_PLACEMENT_3D ( 'NONE', #304, #191, #186 ) ;
#313 = FACE_OUTER_BOUND ( 'NONE', #239, .T. ) ;
#314 = ORIENTED_EDGE ( 'NONE', *, *, #361, .F. ) ;
#315 = EDGE_CURVE ( 'NONE', #127, #187, #128, .T. ) ;
#316 = DIRECTION ( 'NONE',  ( 1.000000000000000000, 0.000000000000000000, 0.000000000000000000 ) ) ;
#317 = ORIENTED_EDGE ( 'NONE', *, *, #90, .T. ) ;
#318 = CLOSED_SHELL ( 'NONE', ( #288, #12, #181, #198, #3, #34, #278, #368, #372, #60, #9 ) ) ;
#319 = DIRECTION ( 'NONE',  ( -1.000000000000000000, 0.000000000000000000, 0.000000000000000000 ) ) ;
#320 = EDGE_LOOP ( 'NONE', ( #50, #277, #357, #80 ) ) ;
#321 = ORIENTED_EDGE ( 'NONE', *, *, #353, .F. ) ;
#322 = CC_DESIGN_APPROVAL ( #246, ( #37 ) ) ;
#323 = DIRECTION ( 'NONE',  ( 0.000000000000000000, 0.000000000000000000, 1.000000000000000000 ) ) ;
#324 = ORIENTED_EDGE ( 'NONE', *, *, #265, .F. ) ;
#325 = PERSON_AND_ORGANIZATION_ROLE ( 'creator' ) ;
#326 = DIRECTION ( 'NONE',  ( -0.000000000000000000, -0.000000000000000000, -1.000000000000000000 ) ) ;
#327 = ORIENTED_EDGE ( 'NONE', *, *, #370, .F. ) ;
#328 = DIRECTION ( 'NONE',  ( -0.000000000000000000, -0.000000000000000000, -1.000000000000000000 ) ) ;
#329 = CIRCLE ( 'NONE', #346, 5.000000000000000000 ) ;
#330 = CC_DESIGN_SECURITY_CLASSIFICATION ( #37, ( #103 ) ) ;
#331 = CARTESIAN_POINT ( 'NONE',  ( 0.000000000000000000, 0.000000000000000000, 5.000000000000000000 ) ) ;
#332 = CARTESIAN_POINT ( 'NONE',  ( 0.000000000000000000, 0.000000000000000000, 355.0000000000000000 ) ) ;
#333 = EDGE_LOOP ( 'NONE', ( #293, #324 ) ) ;
#334 = EDGE_CURVE ( 'NONE', #187, #110, #359, .T. ) ;
#335 = APPLICATION_PROTOCOL_DEFINITION ( 'international standard', 'config_control_design', 1994, #25 ) ;
#336 = LINE ( 'NONE', #301, #231 ) ;
#337 = APPROVAL_PERSON_ORGANIZATION ( #224, #345, #161 ) ;
#338 = CARTESIAN_POINT ( 'NONE',  ( 0.000000000000000000, 0.000000000000000000, 0.000000000000000000 ) ) ;
#339 = CARTESIAN_POINT ( 'NONE',  ( 0.000000000000000000, 0.000000000000000000, 5.500000000000005329 ) ) ;
#340 = DIRECTION ( 'NONE',  ( 0.000000000000000000, 0.000000000000000000, 1.000000000000000000 ) ) ;
#341 = AXIS2_PLACEMENT_3D ( 'NONE', #153, #115, #217 ) ;
#342 = CIRCLE ( 'NONE', #263, 8.000000000000000000 ) ;
#343 = DIRECTION ( 'NONE',  ( 1.000000000000000000, 0.000000000000000000, 0.000000000000000000 ) ) ;
#344 = CARTESIAN_POINT ( 'NONE',  ( 5.500000000000000000, 0.000000000000000000, 5.000000000000002665 ) ) ;
#345 = APPROVAL ( #66, 'NEURÈENÝ' ) ;
#346 = AXIS2_PLACEMENT_3D ( 'NONE', #156, #377, #316 ) ;
#347 = DIRECTION ( 'NONE',  ( 0.000000000000000000, 0.000000000000000000, -1.000000000000000000 ) ) ;
#348 = ORIENTED_EDGE ( 'NONE', *, *, #86, .T. ) ;
#349 = PERSON_AND_ORGANIZATION ( #366, #369 ) ;
#350 = DIRECTION ( 'NONE',  ( 1.000000000000000000, 0.000000000000000000, 0.000000000000000000 ) ) ;
#351 = CIRCLE ( 'NONE', #170, 3.250000000000000444 ) ;
#352 = DIRECTION ( 'NONE',  ( 0.000000000000000000, 0.000000000000000000, 1.000000000000000000 ) ) ;
#353 = EDGE_CURVE ( 'NONE', #201, #100, #4, .T. ) ;
#354 = PERSON_AND_ORGANIZATION ( #366, #369 ) ;
#355 = FACE_BOUND ( 'NONE', #20, .T. ) ;
#356 = CIRCLE ( 'NONE', #241, 3.250000000000000444 ) ;
#357 = ORIENTED_EDGE ( 'NONE', *, *, #315, .T. ) ;
#358 = FACE_OUTER_BOUND ( 'NONE', #298, .T. ) ;
#359 = CIRCLE ( 'NONE', #259, 5.500000000000000000 ) ;
#360 = CARTESIAN_POINT ( 'NONE',  ( -5.000000000000000000, 0.000000000000000000, 355.0000000000000000 ) ) ;
#361 = EDGE_CURVE ( 'NONE', #171, #44, #342, .T. ) ;
#362 = ORIENTED_EDGE ( 'NONE', *, *, #240, .F. ) ;
#363 = DIRECTION ( 'NONE',  ( 0.000000000000000000, 0.000000000000000000, 1.000000000000000000 ) ) ;
#364 = CIRCLE ( 'NONE', #108, 8.000000000000000000 ) ;
#365 = DIRECTION ( 'NONE',  ( -1.000000000000000000, 0.000000000000000000, 0.000000000000000000 ) ) ;
#366 = PERSON ( 'NEURÈENÝ', 'NEURÈENÝ', 'NEURÈENÝ', ('NEURÈENÝ'), ('NEURÈENÝ'), ('NEURÈENÝ') ) ;
#367 = TOROIDAL_SURFACE ( 'NONE', #117, 5.500000000000000000, 0.5000000000000000000 ) ;
#368 = ADVANCED_FACE ( 'NONE', ( #294 ), #137, .T. ) ;
#369 = ORGANIZATION ( 'NEURÈENÝ', 'NEURÈENÝ', '' ) ;
#370 = EDGE_CURVE ( 'NONE', #279, #201, #172, .T. ) ;
#371 = DIRECTION ( 'NONE',  ( 0.000000000000000000, 0.000000000000000000, 1.000000000000000000 ) ) ;
#372 = ADVANCED_FACE ( 'NONE', ( #6, #83 ), #207, .T. ) ;
#373 = ORIENTED_EDGE ( 'NONE', *, *, #190, .T. ) ;
#374 = PERSON_AND_ORGANIZATION ( #366, #369 ) ;
#375 = CARTESIAN_POINT ( 'NONE',  ( -3.250000000000000444, 0.000000000000000000, 355.0000000000000000 ) ) ;
#376 = AXIS2_PLACEMENT_3D ( 'NONE', #235, #28, #30 ) ;
#377 = DIRECTION ( 'NONE',  ( 0.000000000000000000, 0.000000000000000000, 1.000000000000000000 ) ) ;
#378 = ORIENTED_EDGE ( 'NONE', *, *, #353, .T. ) ;
#379 = COORDINATED_UNIVERSAL_TIME_OFFSET ( 1, 0, .AHEAD. ) ;
#380 = DIRECTION ( 'NONE',  ( 1.000000000000000000, 0.000000000000000000, 0.000000000000000000 ) ) ;
#381 = LOCAL_TIME ( 16, 45, 45.00000000000000000, #379 ) ;
ENDSEC;
END-ISO-10303-21;
