ISO-10303-21;
HEADER;
FILE_DESCRIPTION (( 'STEP AP203' ),
    '1' );
FILE_NAME ('2c7f.STEP',
    '2022-07-08T15:18:42',
    ( '' ),
    ( '' ),
    'SwSTEP 2.0',
    'SolidWorks 2019',
    '' );
FILE_SCHEMA (( 'CONFIG_CONTROL_DESIGN' ));
ENDSEC;

DATA;
#1 = PRODUCT_RELATED_PRODUCT_CATEGORY ( 'detail', '', ( #27 ) ) ;
#2 = LOCAL_TIME ( 17, 18, 42.00000000000000000, #170 ) ;
#3 = EDGE_CURVE ( 'NONE', #33, #275, #241, .T. ) ;
#4 = CARTESIAN_POINT ( 'NONE',  ( 0.000000000000000000, 0.000000000000000000, 605.0000000000000000 ) ) ;
#5 = DIRECTION ( 'NONE',  ( 1.000000000000000000, 0.000000000000000000, 0.000000000000000000 ) ) ;
#6 = ORIENTED_EDGE ( 'NONE', *, *, #9, .T. ) ;
#7 = CARTESIAN_POINT ( 'NONE',  ( 0.000000000000000000, 0.000000000000000000, 5.000000000000000000 ) ) ;
#8 = ORIENTED_EDGE ( 'NONE', *, *, #59, .F. ) ;
#9 = EDGE_CURVE ( 'NONE', #273, #219, #43, .T. ) ;
#10 = DIRECTION ( 'NONE',  ( 1.000000000000000000, 0.000000000000000000, 0.000000000000000000 ) ) ;
#11 = DESIGN_CONTEXT ( 'detailed design', #181, 'design' ) ;
#12 = ORIENTED_EDGE ( 'NONE', *, *, #78, .T. ) ;
#13 = DATE_AND_TIME ( #313, #2 ) ;
#14 = AXIS2_PLACEMENT_3D ( 'NONE', #71, #358, #381 ) ;
#15 = UNCERTAINTY_MEASURE_WITH_UNIT (LENGTH_MEASURE( 1.000000000000000082E-05 ), #362, 'distance_accuracy_value', 'NONE');
#16 = ORIENTED_EDGE ( 'NONE', *, *, #85, .F. ) ;
#17 = ADVANCED_FACE ( 'NONE', ( #365 ), #253, .F. ) ;
#18 = EDGE_LOOP ( 'NONE', ( #77, #240, #355, #357 ) ) ;
#19 = APPLICATION_PROTOCOL_DEFINITION ( 'international standard', 'config_control_design', 1994, #181 ) ;
#20 = FACE_OUTER_BOUND ( 'NONE', #191, .T. ) ;
#21 = PERSON_AND_ORGANIZATION ( #183, #96 ) ;
#22 = APPROVAL_PERSON_ORGANIZATION ( #106, #203, #112 ) ;
#23 = CARTESIAN_POINT ( 'NONE',  ( -7.000000000000000000, 0.000000000000000000, 0.000000000000000000 ) ) ;
#24 = LINE ( 'NONE', #321, #324 ) ;
#25 = CARTESIAN_POINT ( 'NONE',  ( -7.000000000000000000, 0.000000000000000000, 5.000000000000000000 ) ) ;
#26 = CARTESIAN_POINT ( 'NONE',  ( 0.000000000000000000, 0.000000000000000000, 605.0000000000000000 ) ) ;
#27 = PRODUCT ( '2c7f', '2c7f', '', ( #82 ) ) ;
#28 = CC_DESIGN_APPROVAL ( #104, ( #146 ) ) ;
#29 =( NAMED_UNIT ( * ) SI_UNIT ( $, .STERADIAN. ) SOLID_ANGLE_UNIT ( ) );
#30 = ORIENTED_EDGE ( 'NONE', *, *, #152, .T. ) ;
#31 = PRODUCT_DEFINITION_SHAPE ( 'NONE', 'NONE',  #370 ) ;
#32 = CIRCLE ( 'NONE', #63, 7.000000000000000000 ) ;
#33 = VERTEX_POINT ( 'NONE', #127 ) ;
#34 = CC_DESIGN_PERSON_AND_ORGANIZATION_ASSIGNMENT ( #166, #282, ( #146 ) ) ;
#35 = AXIS2_PLACEMENT_3D ( 'NONE', #247, #242, #236 ) ;
#36 = ORIENTED_EDGE ( 'NONE', *, *, #295, .F. ) ;
#37 = CARTESIAN_POINT ( 'NONE',  ( 0.000000000000000000, 0.000000000000000000, 605.0000000000000000 ) ) ;
#38 = EDGE_LOOP ( 'NONE', ( #325, #12 ) ) ;
#39 = DIRECTION ( 'NONE',  ( -0.000000000000000000, -0.000000000000000000, -1.000000000000000000 ) ) ;
#40 = ORIENTED_EDGE ( 'NONE', *, *, #264, .T. ) ;
#41 = CIRCLE ( 'NONE', #231, 2.500000000000000000 ) ;
#42 = EDGE_LOOP ( 'NONE', ( #67, #160, #280, #75 ) ) ;
#43 = LINE ( 'NONE', #135, #368 ) ;
#44 = PERSON_AND_ORGANIZATION ( #183, #96 ) ;
#45 = VERTEX_POINT ( 'NONE', #341 ) ;
#46 = APPROVAL_STATUS ( 'not_yet_approved' ) ;
#47 = CIRCLE ( 'NONE', #336, 7.000000000000000000 ) ;
#48 = ORIENTED_EDGE ( 'NONE', *, *, #142, .T. ) ;
#49 = SHAPE_DEFINITION_REPRESENTATION ( #31, #239 ) ;
#50 = DIRECTION ( 'NONE',  ( 0.000000000000000000, 0.000000000000000000, 1.000000000000000000 ) ) ;
#51 = APPROVAL_ROLE ( '' ) ;
#52 = DIRECTION ( 'NONE',  ( -1.000000000000000000, 0.000000000000000000, 0.000000000000000000 ) ) ;
#53 = DATE_AND_TIME ( #202, #220 ) ;
#54 = CIRCLE ( 'NONE', #281, 0.5000000000000004441 ) ;
#55 = CYLINDRICAL_SURFACE ( 'NONE', #122, 4.000000000000000000 ) ;
#56 = EDGE_CURVE ( 'NONE', #300, #219, #285, .T. ) ;
#57 = DIRECTION ( 'NONE',  ( -0.000000000000000000, -0.000000000000000000, -1.000000000000000000 ) ) ;
#58 = FACE_BOUND ( 'NONE', #134, .T. ) ;
#59 = EDGE_CURVE ( 'NONE', #165, #100, #143, .T. ) ;
#60 = CARTESIAN_POINT ( 'NONE',  ( 0.000000000000000000, 0.000000000000000000, 5.000000000000000000 ) ) ;
#61 = CC_DESIGN_SECURITY_CLASSIFICATION ( #290, ( #146 ) ) ;
#62 = CC_DESIGN_DATE_AND_TIME_ASSIGNMENT ( #76, #103, ( #370 ) ) ;
#63 = AXIS2_PLACEMENT_3D ( 'NONE', #348, #171, #377 ) ;
#64 = ORIENTED_EDGE ( 'NONE', *, *, #330, .T. ) ;
#65 = AXIS2_PLACEMENT_3D ( 'NONE', #7, #148, #126 ) ;
#66 = DIRECTION ( 'NONE',  ( 1.000000000000000000, 0.000000000000000000, 0.000000000000000000 ) ) ;
#67 = ORIENTED_EDGE ( 'NONE', *, *, #375, .T. ) ;
#68 = DIRECTION ( 'NONE',  ( 1.000000000000000000, 0.000000000000000000, 0.000000000000000000 ) ) ;
#69 = DIRECTION ( 'NONE',  ( 1.000000000000000000, 0.000000000000000000, 0.000000000000000000 ) ) ;
#70 = ADVANCED_FACE ( 'NONE', ( #20 ), #293, .F. ) ;
#71 = CARTESIAN_POINT ( 'NONE',  ( 0.000000000000000000, 0.000000000000000000, 605.0000000000000000 ) ) ;
#72 = EDGE_LOOP ( 'NONE', ( #327, #48, #6, #304 ) ) ;
#73 = CC_DESIGN_APPROVAL ( #203, ( #370 ) ) ;
#74 = DIRECTION ( 'NONE',  ( -1.000000000000000000, 1.224646799147351482E-16, 0.000000000000000000 ) ) ;
#75 = ORIENTED_EDGE ( 'NONE', *, *, #9, .F. ) ;
#76 = DATE_AND_TIME ( #136, #312 ) ;
#77 = ORIENTED_EDGE ( 'NONE', *, *, #78, .F. ) ;
#78 = EDGE_CURVE ( 'NONE', #187, #167, #32, .T. ) ;
#79 = DIRECTION ( 'NONE',  ( 1.000000000000000000, 0.000000000000000000, 0.000000000000000000 ) ) ;
#80 = PERSON_AND_ORGANIZATION_ROLE ( 'design_owner' ) ;
#81 = DIRECTION ( 'NONE',  ( 1.000000000000000000, 0.000000000000000000, -0.000000000000000000 ) ) ;
#82 = MECHANICAL_CONTEXT ( 'NONE', #380, 'mechanical' ) ;
#83 = CARTESIAN_POINT ( 'NONE',  ( 0.000000000000000000, 0.000000000000000000, 5.000000000000000000 ) ) ;
#84 = APPROVAL_ROLE ( '' ) ;
#85 = EDGE_CURVE ( 'NONE', #100, #165, #114, .T. ) ;
#86 = PLANE ( 'NONE',  #159 ) ;
#87 = LOCAL_TIME ( 17, 18, 42.00000000000000000, #338 ) ;
#88 = CARTESIAN_POINT ( 'NONE',  ( 0.000000000000000000, 0.000000000000000000, 5.499999999999949374 ) ) ;
#89 = CARTESIAN_POINT ( 'NONE',  ( 0.000000000000000000, 0.000000000000000000, 5.000000000000000000 ) ) ;
#90 = ADVANCED_FACE ( 'NONE', ( #117 ), #55, .T. ) ;
#91 = DIRECTION ( 'NONE',  ( 1.224646799147353207E-16, 1.000000000000000000, -0.000000000000000000 ) ) ;
#92 = DIRECTION ( 'NONE',  ( 0.000000000000000000, 0.000000000000000000, 1.000000000000000000 ) ) ;
#93 = AXIS2_PLACEMENT_3D ( 'NONE', #186, #274, #153 ) ;
#94 = EDGE_LOOP ( 'NONE', ( #363, #107, #180, #121 ) ) ;
#95 = EDGE_LOOP ( 'NONE', ( #248, #155 ) ) ;
#96 = ORGANIZATION ( 'NEURÈENÝ', 'NEURÈENÝ', '' ) ;
#97 = FACE_OUTER_BOUND ( 'NONE', #72, .T. ) ;
#98 = EDGE_CURVE ( 'NONE', #45, #275, #294, .T. ) ;
#99 = PLANE ( 'NONE',  #65 ) ;
#100 = VERTEX_POINT ( 'NONE', #23 ) ;
#101 = ORIENTED_EDGE ( 'NONE', *, *, #124, .F. ) ;
#102 = CIRCLE ( 'NONE', #319, 4.000000000000000000 ) ;
#103 = DATE_TIME_ROLE ( 'creation_date' ) ;
#104 = APPROVAL ( #315, 'NEURÈENÝ' ) ;
#105 = CARTESIAN_POINT ( 'NONE',  ( 0.000000000000000000, 0.000000000000000000, 605.0000000000000000 ) ) ;
#106 = PERSON_AND_ORGANIZATION ( #183, #96 ) ;
#107 = ORIENTED_EDGE ( 'NONE', *, *, #197, .F. ) ;
#108 = APPROVAL_DATE_TIME ( #367, #104 ) ;
#109 = CARTESIAN_POINT ( 'NONE',  ( 0.000000000000000000, 0.000000000000000000, 0.000000000000000000 ) ) ;
#110 = CARTESIAN_POINT ( 'NONE',  ( 0.000000000000000000, 0.000000000000000000, 0.000000000000000000 ) ) ;
#111 = CARTESIAN_POINT ( 'NONE',  ( -2.500000000000000000, 0.000000000000000000, 0.000000000000000000 ) ) ;
#112 = APPROVAL_ROLE ( '' ) ;
#113 = FACE_OUTER_BOUND ( 'NONE', #283, .T. ) ;
#114 = CIRCLE ( 'NONE', #144, 7.000000000000000000 ) ;
#115 = CIRCLE ( 'NONE', #268, 4.500000000000000888 ) ;
#116 = CARTESIAN_POINT ( 'NONE',  ( 0.000000000000000000, 0.000000000000000000, 0.000000000000000000 ) ) ;
#117 = FACE_OUTER_BOUND ( 'NONE', #94, .T. ) ;
#118 = CYLINDRICAL_SURFACE ( 'NONE', #14, 2.500000000000000000 ) ;
#119 = AXIS2_PLACEMENT_3D ( 'NONE', #175, #57, #256 ) ;
#120 = APPROVAL_PERSON_ORGANIZATION ( #310, #104, #51 ) ;
#121 = ORIENTED_EDGE ( 'NONE', *, *, #298, .T. ) ;
#122 = AXIS2_PLACEMENT_3D ( 'NONE', #137, #288, #168 ) ;
#123 = DIRECTION ( 'NONE',  ( -0.000000000000000000, -0.000000000000000000, -1.000000000000000000 ) ) ;
#124 = EDGE_CURVE ( 'NONE', #187, #165, #24, .T. ) ;
#125 = EDGE_LOOP ( 'NONE', ( #308, #243, #131, #149 ) ) ;
#126 = DIRECTION ( 'NONE',  ( 1.000000000000000000, 0.000000000000000000, -0.000000000000000000 ) ) ;
#127 = CARTESIAN_POINT ( 'NONE',  ( 4.000000000000000000, 4.898587196589412829E-16, 5.499999999999949374 ) ) ;
#128 = FACE_OUTER_BOUND ( 'NONE', #38, .T. ) ;
#129 = EDGE_LOOP ( 'NONE', ( #16, #8 ) ) ;
#130 = ADVANCED_FACE ( 'NONE', ( #376, #286 ), #86, .F. ) ;
#131 = ORIENTED_EDGE ( 'NONE', *, *, #3, .T. ) ;
#132 = CIRCLE ( 'NONE', #151, 2.500000000000000000 ) ;
#133 = DATE_TIME_ROLE ( 'classification_date' ) ;
#134 = EDGE_LOOP ( 'NONE', ( #326, #185 ) ) ;
#135 = CARTESIAN_POINT ( 'NONE',  ( -2.500000000000000000, 0.000000000000000000, 605.0000000000000000 ) ) ;
#136 = CALENDAR_DATE ( 2022, 8, 7 ) ;
#137 = CARTESIAN_POINT ( 'NONE',  ( 0.000000000000000000, 0.000000000000000000, 605.0000000000000000 ) ) ;
#138 = ADVANCED_FACE ( 'NONE', ( #206 ), #229, .T. ) ;
#139 = VECTOR ( 'NONE', #307, 1000.000000000000000 ) ;
#140 = DIRECTION ( 'NONE',  ( 1.000000000000000000, 0.000000000000000000, 0.000000000000000000 ) ) ;
#141 = DIRECTION ( 'NONE',  ( 0.000000000000000000, 0.000000000000000000, 1.000000000000000000 ) ) ;
#142 = EDGE_CURVE ( 'NONE', #297, #273, #41, .T. ) ;
#143 = CIRCLE ( 'NONE', #169, 7.000000000000000000 ) ;
#144 = AXIS2_PLACEMENT_3D ( 'NONE', #116, #50, #317 ) ;
#145 = CARTESIAN_POINT ( 'NONE',  ( -4.000000000000000000, 0.000000000000000000, 5.499999999999949374 ) ) ;
#146 = PRODUCT_DEFINITION_FORMATION_WITH_SPECIFIED_SOURCE ( 'LIBOVOLNÝ', '', #27, .NOT_KNOWN. ) ;
#147 = DIRECTION ( 'NONE',  ( 0.000000000000000000, 0.000000000000000000, 1.000000000000000000 ) ) ;
#148 = DIRECTION ( 'NONE',  ( 0.000000000000000000, 0.000000000000000000, 1.000000000000000000 ) ) ;
#149 = ORIENTED_EDGE ( 'NONE', *, *, #98, .F. ) ;
#150 = ORIENTED_EDGE ( 'NONE', *, *, #354, .F. ) ;
#151 = AXIS2_PLACEMENT_3D ( 'NONE', #4, #305, #5 ) ;
#152 = EDGE_CURVE ( 'NONE', #167, #100, #259, .T. ) ;
#153 = DIRECTION ( 'NONE',  ( 1.000000000000000000, 0.000000000000000000, 0.000000000000000000 ) ) ;
#154 = CLOSED_SHELL ( 'NONE', ( #17, #70, #238, #138, #235, #267, #130, #90, #246, #309, #252 ) ) ;
#155 = ORIENTED_EDGE ( 'NONE', *, *, #98, .T. ) ;
#156 = AXIS2_PLACEMENT_3D ( 'NONE', #89, #343, #140 ) ;
#157 = DIRECTION ( 'NONE',  ( 1.000000000000000000, 0.000000000000000000, 0.000000000000000000 ) ) ;
#158 = VERTEX_POINT ( 'NONE', #145 ) ;
#159 = AXIS2_PLACEMENT_3D ( 'NONE', #204, #318, #81 ) ;
#160 = ORIENTED_EDGE ( 'NONE', *, *, #289, .T. ) ;
#161 = CARTESIAN_POINT ( 'NONE',  ( 0.000000000000000000, 0.000000000000000000, 5.000000000000000000 ) ) ;
#162 = ORIENTED_EDGE ( 'NONE', *, *, #347, .F. ) ;
#163 = CC_DESIGN_PERSON_AND_ORGANIZATION_ASSIGNMENT ( #342, #80, ( #27 ) ) ;
#164 = SECURITY_CLASSIFICATION_LEVEL ( 'unclassified' ) ;
#165 = VERTEX_POINT ( 'NONE', #230 ) ;
#166 = PERSON_AND_ORGANIZATION ( #183, #96 ) ;
#167 = VERTEX_POINT ( 'NONE', #314 ) ;
#168 = DIRECTION ( 'NONE',  ( -1.000000000000000000, 0.000000000000000000, 0.000000000000000000 ) ) ;
#169 = AXIS2_PLACEMENT_3D ( 'NONE', #109, #226, #69 ) ;
#170 = COORDINATED_UNIVERSAL_TIME_OFFSET ( 1, 0, .AHEAD. ) ;
#171 = DIRECTION ( 'NONE',  ( 0.000000000000000000, 0.000000000000000000, 1.000000000000000000 ) ) ;
#172 = VECTOR ( 'NONE', #199, 1000.000000000000000 ) ;
#173 = PERSON_AND_ORGANIZATION_ROLE ( 'creator' ) ;
#174 = TOROIDAL_SURFACE ( 'NONE', #184, 4.500000000000000888, 0.5000000000000000000 ) ;
#175 = CARTESIAN_POINT ( 'NONE',  ( 0.000000000000000000, 0.000000000000000000, 5.000000000000000000 ) ) ;
#176 = CC_DESIGN_PERSON_AND_ORGANIZATION_ASSIGNMENT ( #198, #228, ( #370 ) ) ;
#177 = CARTESIAN_POINT ( 'NONE',  ( 0.000000000000000000, 0.000000000000000000, 605.0000000000000000 ) ) ;
#178 = FACE_OUTER_BOUND ( 'NONE', #360, .T. ) ;
#179 = DIRECTION ( 'NONE',  ( 1.000000000000000000, 0.000000000000000000, -0.000000000000000000 ) ) ;
#180 = ORIENTED_EDGE ( 'NONE', *, *, #347, .T. ) ;
#181 = APPLICATION_CONTEXT ( 'configuration controlled 3d designs of mechanical parts and assemblies' ) ;
#182 = ORIENTED_EDGE ( 'NONE', *, *, #298, .F. ) ;
#183 = PERSON ( 'NEURÈENÝ', 'NEURÈENÝ', 'NEURÈENÝ', ('NEURÈENÝ'), ('NEURÈENÝ'), ('NEURÈENÝ') ) ;
#184 = AXIS2_PLACEMENT_3D ( 'NONE', #271, #210, #10 ) ;
#185 = ORIENTED_EDGE ( 'NONE', *, *, #142, .F. ) ;
#186 = CARTESIAN_POINT ( 'NONE',  ( 0.000000000000000000, 0.000000000000000000, 5.499999999999949374 ) ) ;
#187 = VERTEX_POINT ( 'NONE', #345 ) ;
#188 = CARTESIAN_POINT ( 'NONE',  ( 2.500000000000000000, 3.061616997868383141E-16, 0.000000000000000000 ) ) ;
#189 = VERTEX_POINT ( 'NONE', #372 ) ;
#190 = DIRECTION ( 'NONE',  ( 0.000000000000000000, 0.000000000000000000, 1.000000000000000000 ) ) ;
#191 = EDGE_LOOP ( 'NONE', ( #182, #335, #36, #329 ) ) ;
#192 =( NAMED_UNIT ( * ) PLANE_ANGLE_UNIT ( ) SI_UNIT ( $, .RADIAN. ) );
#193 = DIRECTION ( 'NONE',  ( 0.000000000000000000, 0.000000000000000000, -1.000000000000000000 ) ) ;
#194 = MANIFOLD_SOLID_BREP ( 'Odebrat vysunutím3', #154 ) ;
#195 = COORDINATED_UNIVERSAL_TIME_OFFSET ( 1, 0, .AHEAD. ) ;
#196 = ORIENTED_EDGE ( 'NONE', *, *, #85, .T. ) ;
#197 = EDGE_CURVE ( 'NONE', #189, #337, #102, .T. ) ;
#198 = PERSON_AND_ORGANIZATION ( #183, #96 ) ;
#199 = DIRECTION ( 'NONE',  ( -0.000000000000000000, -0.000000000000000000, -1.000000000000000000 ) ) ;
#200 = CALENDAR_DATE ( 2022, 8, 7 ) ;
#201 = DIRECTION ( 'NONE',  ( -0.000000000000000000, -0.000000000000000000, -1.000000000000000000 ) ) ;
#202 = CALENDAR_DATE ( 2022, 8, 7 ) ;
#203 = APPROVAL ( #46, 'NEURÈENÝ' ) ;
#204 = CARTESIAN_POINT ( 'NONE',  ( 0.000000000000000000, 0.000000000000000000, 0.000000000000000000 ) ) ;
#205 = AXIS2_PLACEMENT_3D ( 'NONE', #350, #346, #207 ) ;
#206 = FACE_OUTER_BOUND ( 'NONE', #18, .T. ) ;
#207 = DIRECTION ( 'NONE',  ( -1.000000000000000000, 0.000000000000000000, 0.000000000000000000 ) ) ;
#208 = CARTESIAN_POINT ( 'NONE',  ( 2.500000000000000000, 3.061616997868383141E-16, 605.0000000000000000 ) ) ;
#209 = CC_DESIGN_DATE_AND_TIME_ASSIGNMENT ( #13, #133, ( #290 ) ) ;
#210 = DIRECTION ( 'NONE',  ( 0.000000000000000000, 0.000000000000000000, 1.000000000000000000 ) ) ;
#211 = AXIS2_PLACEMENT_3D ( 'NONE', #88, #147, #379 ) ;
#212 = CC_DESIGN_PERSON_AND_ORGANIZATION_ASSIGNMENT ( #287, #278, ( #290 ) ) ;
#213 = EDGE_LOOP ( 'NONE', ( #150, #217 ) ) ;
#214 = CIRCLE ( 'NONE', #257, 2.500000000000000000 ) ;
#215 = FACE_BOUND ( 'NONE', #95, .T. ) ;
#216 = CARTESIAN_POINT ( 'NONE',  ( 4.500000000000000888, 0.000000000000000000, 4.999999999999975131 ) ) ;
#217 = ORIENTED_EDGE ( 'NONE', *, *, #56, .F. ) ;
#218 = LINE ( 'NONE', #323, #139 ) ;
#219 = VERTEX_POINT ( 'NONE', #111 ) ;
#220 = LOCAL_TIME ( 17, 18, 42.00000000000000000, #340 ) ;
#221 = APPLICATION_PROTOCOL_DEFINITION ( 'international standard', 'config_control_design', 1994, #380 ) ;
#222 = DIRECTION ( 'NONE',  ( 0.000000000000000000, 0.000000000000000000, -1.000000000000000000 ) ) ;
#223 = APPROVAL_DATE_TIME ( #53, #302 ) ;
#224 = DIRECTION ( 'NONE',  ( 0.000000000000000000, 0.000000000000000000, -1.000000000000000000 ) ) ;
#225 = DATE_AND_TIME ( #200, #87 ) ;
#226 = DIRECTION ( 'NONE',  ( 0.000000000000000000, 0.000000000000000000, 1.000000000000000000 ) ) ;
#227 = FACE_OUTER_BOUND ( 'NONE', #332, .T. ) ;
#228 = PERSON_AND_ORGANIZATION_ROLE ( 'creator' ) ;
#229 = CYLINDRICAL_SURFACE ( 'NONE', #119, 7.000000000000000000 ) ;
#230 = CARTESIAN_POINT ( 'NONE',  ( 7.000000000000000000, 8.572527594031473190E-16, 0.000000000000000000 ) ) ;
#231 = AXIS2_PLACEMENT_3D ( 'NONE', #177, #141, #260 ) ;
#232 = AXIS2_PLACEMENT_3D ( 'NONE', #37, #92, #66 ) ;
#233 = CYLINDRICAL_SURFACE ( 'NONE', #279, 7.000000000000000000 ) ;
#234 = CARTESIAN_POINT ( 'NONE',  ( 4.000000000000000000, 4.898587196589412829E-16, 605.0000000000000000 ) ) ;
#235 = ADVANCED_FACE ( 'NONE', ( #227 ), #233, .T. ) ;
#236 = DIRECTION ( 'NONE',  ( 1.000000000000000000, 0.000000000000000000, 0.000000000000000000 ) ) ;
#237 =( GEOMETRIC_REPRESENTATION_CONTEXT ( 3 ) GLOBAL_UNCERTAINTY_ASSIGNED_CONTEXT ( ( #15 ) ) GLOBAL_UNIT_ASSIGNED_CONTEXT ( ( #362, #192, #29 ) ) REPRESENTATION_CONTEXT ( 'NONE', 'WORKASPACE' ) );
#238 = ADVANCED_FACE ( 'NONE', ( #113 ), #291, .T. ) ;
#239 = ADVANCED_BREP_SHAPE_REPRESENTATION ( '2c7f', ( #194, #263 ), #237 ) ;
#240 = ORIENTED_EDGE ( 'NONE', *, *, #124, .T. ) ;
#241 = CIRCLE ( 'NONE', #261, 0.5000000000000004441 ) ;
#242 = DIRECTION ( 'NONE',  ( 0.000000000000000000, 0.000000000000000000, 1.000000000000000000 ) ) ;
#243 = ORIENTED_EDGE ( 'NONE', *, *, #330, .F. ) ;
#244 = CARTESIAN_POINT ( 'NONE',  ( 0.000000000000000000, 0.000000000000000000, 0.000000000000000000 ) ) ;
#245 = DIRECTION ( 'NONE',  ( -0.000000000000000000, -0.000000000000000000, -1.000000000000000000 ) ) ;
#246 = ADVANCED_FACE ( 'NONE', ( #58, #178 ), #296, .T. ) ;
#247 = CARTESIAN_POINT ( 'NONE',  ( 0.000000000000000000, 0.000000000000000000, 5.499999999999949374 ) ) ;
#248 = ORIENTED_EDGE ( 'NONE', *, *, #295, .T. ) ;
#249 = DIRECTION ( 'NONE',  ( 0.000000000000000000, -1.000000000000000000, 0.000000000000000000 ) ) ;
#250 = CIRCLE ( 'NONE', #232, 4.000000000000000000 ) ;
#251 = DIRECTION ( 'NONE',  ( 1.000000000000000000, 0.000000000000000000, 0.000000000000000000 ) ) ;
#252 = ADVANCED_FACE ( 'NONE', ( #97 ), #118, .F. ) ;
#253 = CYLINDRICAL_SURFACE ( 'NONE', #356, 2.500000000000000000 ) ;
#254 = CALENDAR_DATE ( 2022, 8, 7 ) ;
#255 = DIRECTION ( 'NONE',  ( -1.000000000000000000, 0.000000000000000000, 0.000000000000000000 ) ) ;
#256 = DIRECTION ( 'NONE',  ( -1.000000000000000000, 0.000000000000000000, 0.000000000000000000 ) ) ;
#257 = AXIS2_PLACEMENT_3D ( 'NONE', #244, #269, #157 ) ;
#258 = DIRECTION ( 'NONE',  ( 0.000000000000000000, 0.000000000000000000, 1.000000000000000000 ) ) ;
#259 = LINE ( 'NONE', #25, #172 ) ;
#260 = DIRECTION ( 'NONE',  ( 1.000000000000000000, 0.000000000000000000, 0.000000000000000000 ) ) ;
#261 = AXIS2_PLACEMENT_3D ( 'NONE', #339, #249, #193 ) ;
#262 = DIRECTION ( 'NONE',  ( 0.000000000000000000, 0.000000000000000000, 1.000000000000000000 ) ) ;
#263 = AXIS2_PLACEMENT_3D ( 'NONE', #110, #258, #251 ) ;
#264 = EDGE_CURVE ( 'NONE', #337, #33, #218, .T. ) ;
#265 = DIRECTION ( 'NONE',  ( 0.000000000000000000, 0.000000000000000000, 1.000000000000000000 ) ) ;
#266 = CARTESIAN_POINT ( 'NONE',  ( -4.000000000000000000, 0.000000000000000000, 605.0000000000000000 ) ) ;
#267 = ADVANCED_FACE ( 'NONE', ( #215, #128 ), #99, .T. ) ;
#268 = AXIS2_PLACEMENT_3D ( 'NONE', #161, #123, #68 ) ;
#269 = DIRECTION ( 'NONE',  ( -0.000000000000000000, -0.000000000000000000, -1.000000000000000000 ) ) ;
#270 = ORIENTED_EDGE ( 'NONE', *, *, #272, .T. ) ;
#271 = CARTESIAN_POINT ( 'NONE',  ( 0.000000000000000000, 0.000000000000000000, 5.499999999999949374 ) ) ;
#272 = EDGE_CURVE ( 'NONE', #337, #189, #250, .T. ) ;
#273 = VERTEX_POINT ( 'NONE', #361 ) ;
#274 = DIRECTION ( 'NONE',  ( 0.000000000000000000, 0.000000000000000000, 1.000000000000000000 ) ) ;
#275 = VERTEX_POINT ( 'NONE', #216 ) ;
#276 = DIRECTION ( 'NONE',  ( 0.000000000000000000, 0.000000000000000000, -1.000000000000000000 ) ) ;
#277 = CC_DESIGN_PERSON_AND_ORGANIZATION_ASSIGNMENT ( #44, #173, ( #146 ) ) ;
#278 = PERSON_AND_ORGANIZATION_ROLE ( 'classification_officer' ) ;
#279 = AXIS2_PLACEMENT_3D ( 'NONE', #83, #374, #52 ) ;
#280 = ORIENTED_EDGE ( 'NONE', *, *, #56, .T. ) ;
#281 = AXIS2_PLACEMENT_3D ( 'NONE', #301, #91, #74 ) ;
#282 = PERSON_AND_ORGANIZATION_ROLE ( 'design_supplier' ) ;
#283 = EDGE_LOOP ( 'NONE', ( #306, #40, #64, #162 ) ) ;
#284 = COORDINATED_UNIVERSAL_TIME_OFFSET ( 1, 0, .AHEAD. ) ;
#285 = CIRCLE ( 'NONE', #333, 2.500000000000000000 ) ;
#286 = FACE_OUTER_BOUND ( 'NONE', #129, .T. ) ;
#287 = PERSON_AND_ORGANIZATION ( #183, #96 ) ;
#288 = DIRECTION ( 'NONE',  ( -0.000000000000000000, -0.000000000000000000, -1.000000000000000000 ) ) ;
#289 = EDGE_CURVE ( 'NONE', #297, #300, #331, .T. ) ;
#290 = SECURITY_CLASSIFICATION ( '', '', #164 ) ;
#291 = CYLINDRICAL_SURFACE ( 'NONE', #205, 4.000000000000000000 ) ;
#292 = CARTESIAN_POINT ( 'NONE',  ( 0.000000000000000000, 0.000000000000000000, 605.0000000000000000 ) ) ;
#293 = TOROIDAL_SURFACE ( 'NONE', #211, 4.500000000000000888, 0.5000000000000000000 ) ;
#294 = CIRCLE ( 'NONE', #156, 4.500000000000000888 ) ;
#295 = EDGE_CURVE ( 'NONE', #275, #45, #115, .T. ) ;
#296 = PLANE ( 'NONE',  #349 ) ;
#297 = VERTEX_POINT ( 'NONE', #334 ) ;
#298 = EDGE_CURVE ( 'NONE', #158, #33, #364, .T. ) ;
#299 = CC_DESIGN_APPROVAL ( #302, ( #290 ) ) ;
#300 = VERTEX_POINT ( 'NONE', #188 ) ;
#301 = CARTESIAN_POINT ( 'NONE',  ( -4.500000000000000888, 5.510910596163089556E-16, 5.499999999999949374 ) ) ;
#302 = APPROVAL ( #373, 'NEURÈENÝ' ) ;
#303 = DIRECTION ( 'NONE',  ( 1.000000000000000000, 0.000000000000000000, 0.000000000000000000 ) ) ;
#304 = ORIENTED_EDGE ( 'NONE', *, *, #354, .T. ) ;
#305 = DIRECTION ( 'NONE',  ( 0.000000000000000000, 0.000000000000000000, 1.000000000000000000 ) ) ;
#306 = ORIENTED_EDGE ( 'NONE', *, *, #272, .F. ) ;
#307 = DIRECTION ( 'NONE',  ( -0.000000000000000000, -0.000000000000000000, -1.000000000000000000 ) ) ;
#308 = ORIENTED_EDGE ( 'NONE', *, *, #316, .F. ) ;
#309 = ADVANCED_FACE ( 'NONE', ( #352 ), #174, .F. ) ;
#310 = PERSON_AND_ORGANIZATION ( #183, #96 ) ;
#311 = ORIENTED_EDGE ( 'NONE', *, *, #197, .T. ) ;
#312 = LOCAL_TIME ( 17, 18, 42.00000000000000000, #195 ) ;
#313 = CALENDAR_DATE ( 2022, 8, 7 ) ;
#314 = CARTESIAN_POINT ( 'NONE',  ( -7.000000000000000000, 0.000000000000000000, 5.000000000000000000 ) ) ;
#315 = APPROVAL_STATUS ( 'not_yet_approved' ) ;
#316 = EDGE_CURVE ( 'NONE', #158, #45, #54, .T. ) ;
#317 = DIRECTION ( 'NONE',  ( 1.000000000000000000, 0.000000000000000000, 0.000000000000000000 ) ) ;
#318 = DIRECTION ( 'NONE',  ( 0.000000000000000000, 0.000000000000000000, 1.000000000000000000 ) ) ;
#319 = AXIS2_PLACEMENT_3D ( 'NONE', #292, #262, #322 ) ;
#320 = APPROVAL_PERSON_ORGANIZATION ( #21, #302, #84 ) ;
#321 = CARTESIAN_POINT ( 'NONE',  ( 7.000000000000000000, 8.572527594031473190E-16, 5.000000000000000000 ) ) ;
#322 = DIRECTION ( 'NONE',  ( 1.000000000000000000, 0.000000000000000000, 0.000000000000000000 ) ) ;
#323 = CARTESIAN_POINT ( 'NONE',  ( 4.000000000000000000, 4.898587196589412829E-16, 605.0000000000000000 ) ) ;
#324 = VECTOR ( 'NONE', #201, 1000.000000000000000 ) ;
#325 = ORIENTED_EDGE ( 'NONE', *, *, #344, .T. ) ;
#326 = ORIENTED_EDGE ( 'NONE', *, *, #375, .F. ) ;
#327 = ORIENTED_EDGE ( 'NONE', *, *, #289, .F. ) ;
#328 = CIRCLE ( 'NONE', #93, 4.000000000000000000 ) ;
#329 = ORIENTED_EDGE ( 'NONE', *, *, #3, .F. ) ;
#330 = EDGE_CURVE ( 'NONE', #33, #158, #328, .T. ) ;
#331 = LINE ( 'NONE', #208, #353 ) ;
#332 = EDGE_LOOP ( 'NONE', ( #101, #366, #30, #196 ) ) ;
#333 = AXIS2_PLACEMENT_3D ( 'NONE', #369, #245, #79 ) ;
#334 = CARTESIAN_POINT ( 'NONE',  ( 2.500000000000000000, 3.061616997868383141E-16, 605.0000000000000000 ) ) ;
#335 = ORIENTED_EDGE ( 'NONE', *, *, #316, .T. ) ;
#336 = AXIS2_PLACEMENT_3D ( 'NONE', #60, #190, #303 ) ;
#337 = VERTEX_POINT ( 'NONE', #234 ) ;
#338 = COORDINATED_UNIVERSAL_TIME_OFFSET ( 1, 0, .AHEAD. ) ;
#339 = CARTESIAN_POINT ( 'NONE',  ( 4.500000000000000888, 0.000000000000000000, 5.499999999999949374 ) ) ;
#340 = COORDINATED_UNIVERSAL_TIME_OFFSET ( 1, 0, .AHEAD. ) ;
#341 = CARTESIAN_POINT ( 'NONE',  ( -4.500000000000000888, 5.510910596163088569E-16, 4.999999999999975131 ) ) ;
#342 = PERSON_AND_ORGANIZATION ( #183, #96 ) ;
#343 = DIRECTION ( 'NONE',  ( -0.000000000000000000, -0.000000000000000000, -1.000000000000000000 ) ) ;
#344 = EDGE_CURVE ( 'NONE', #167, #187, #47, .T. ) ;
#345 = CARTESIAN_POINT ( 'NONE',  ( 7.000000000000000000, 8.572527594031473190E-16, 5.000000000000000000 ) ) ;
#346 = DIRECTION ( 'NONE',  ( -0.000000000000000000, -0.000000000000000000, -1.000000000000000000 ) ) ;
#347 = EDGE_CURVE ( 'NONE', #189, #158, #351, .T. ) ;
#348 = CARTESIAN_POINT ( 'NONE',  ( 0.000000000000000000, 0.000000000000000000, 5.000000000000000000 ) ) ;
#349 = AXIS2_PLACEMENT_3D ( 'NONE', #26, #265, #179 ) ;
#350 = CARTESIAN_POINT ( 'NONE',  ( 0.000000000000000000, 0.000000000000000000, 605.0000000000000000 ) ) ;
#351 = LINE ( 'NONE', #266, #378 ) ;
#352 = FACE_OUTER_BOUND ( 'NONE', #125, .T. ) ;
#353 = VECTOR ( 'NONE', #276, 1000.000000000000000 ) ;
#354 = EDGE_CURVE ( 'NONE', #219, #300, #214, .T. ) ;
#355 = ORIENTED_EDGE ( 'NONE', *, *, #59, .T. ) ;
#356 = AXIS2_PLACEMENT_3D ( 'NONE', #105, #222, #255 ) ;
#357 = ORIENTED_EDGE ( 'NONE', *, *, #152, .F. ) ;
#358 = DIRECTION ( 'NONE',  ( 0.000000000000000000, 0.000000000000000000, -1.000000000000000000 ) ) ;
#359 = LOCAL_TIME ( 17, 18, 42.00000000000000000, #284 ) ;
#360 = EDGE_LOOP ( 'NONE', ( #311, #270 ) ) ;
#361 = CARTESIAN_POINT ( 'NONE',  ( -2.500000000000000000, 0.000000000000000000, 605.0000000000000000 ) ) ;
#362 =( LENGTH_UNIT ( ) NAMED_UNIT ( * ) SI_UNIT ( .MILLI., .METRE. ) );
#363 = ORIENTED_EDGE ( 'NONE', *, *, #264, .F. ) ;
#364 = CIRCLE ( 'NONE', #35, 4.000000000000000000 ) ;
#365 = FACE_OUTER_BOUND ( 'NONE', #42, .T. ) ;
#366 = ORIENTED_EDGE ( 'NONE', *, *, #344, .F. ) ;
#367 = DATE_AND_TIME ( #254, #359 ) ;
#368 = VECTOR ( 'NONE', #224, 1000.000000000000000 ) ;
#369 = CARTESIAN_POINT ( 'NONE',  ( 0.000000000000000000, 0.000000000000000000, 0.000000000000000000 ) ) ;
#370 = PRODUCT_DEFINITION ( 'NEZNÁMÝ', '', #146, #11 ) ;
#371 = APPROVAL_DATE_TIME ( #225, #203 ) ;
#372 = CARTESIAN_POINT ( 'NONE',  ( -4.000000000000000000, 0.000000000000000000, 605.0000000000000000 ) ) ;
#373 = APPROVAL_STATUS ( 'not_yet_approved' ) ;
#374 = DIRECTION ( 'NONE',  ( -0.000000000000000000, -0.000000000000000000, -1.000000000000000000 ) ) ;
#375 = EDGE_CURVE ( 'NONE', #273, #297, #132, .T. ) ;
#376 = FACE_BOUND ( 'NONE', #213, .T. ) ;
#377 = DIRECTION ( 'NONE',  ( 1.000000000000000000, 0.000000000000000000, 0.000000000000000000 ) ) ;
#378 = VECTOR ( 'NONE', #39, 1000.000000000000000 ) ;
#379 = DIRECTION ( 'NONE',  ( 1.000000000000000000, 0.000000000000000000, 0.000000000000000000 ) ) ;
#380 = APPLICATION_CONTEXT ( 'configuration controlled 3d designs of mechanical parts and assemblies' ) ;
#381 = DIRECTION ( 'NONE',  ( -1.000000000000000000, 0.000000000000000000, 0.000000000000000000 ) ) ;
ENDSEC;
END-ISO-10303-21;
