ISO-10303-21;
HEADER;
FILE_DESCRIPTION (( 'STEP AP203' ),
    '1' );
FILE_NAME ('1703.STEP',
    '2022-07-08T14:51:30',
    ( '' ),
    ( '' ),
    'SwSTEP 2.0',
    'SolidWorks 2019',
    '' );
FILE_SCHEMA (( 'CONFIG_CONTROL_DESIGN' ));
ENDSEC;

DATA;
#1 = CARTESIAN_POINT ( 'NONE',  ( 0.000000000000000000, 0.000000000000000000, 0.000000000000000000 ) ) ;
#2 = SECURITY_CLASSIFICATION_LEVEL ( 'unclassified' ) ;
#3 = EDGE_CURVE ( 'NONE', #377, #286, #143, .T. ) ;
#4 = PRODUCT_DEFINITION_SHAPE ( 'NONE', 'NONE',  #275 ) ;
#5 = MANIFOLD_SOLID_BREP ( 'Odebrat vysunutím3', #263 ) ;
#6 = AXIS2_PLACEMENT_3D ( 'NONE', #375, #75, #71 ) ;
#7 = APPROVAL_PERSON_ORGANIZATION ( #18, #191, #178 ) ;
#8 = PERSON_AND_ORGANIZATION ( #329, #364 ) ;
#9 = PERSON_AND_ORGANIZATION_ROLE ( 'creator' ) ;
#10 = CIRCLE ( 'NONE', #38, 5.000000000000000000 ) ;
#11 = VERTEX_POINT ( 'NONE', #345 ) ;
#12 = VECTOR ( 'NONE', #169, 1000.000000000000000 ) ;
#13 = EDGE_LOOP ( 'NONE', ( #48, #265 ) ) ;
#14 = LOCAL_TIME ( 16, 51, 30.00000000000000000, #116 ) ;
#15 = DATE_TIME_ROLE ( 'classification_date' ) ;
#16 = DIRECTION ( 'NONE',  ( -1.000000000000000000, 0.000000000000000000, 0.000000000000000000 ) ) ;
#17 = ADVANCED_FACE ( 'NONE', ( #239, #76 ), #90, .F. ) ;
#18 = PERSON_AND_ORGANIZATION ( #329, #364 ) ;
#19 = CYLINDRICAL_SURFACE ( 'NONE', #209, 3.100000000000000089 ) ;
#20 = DIRECTION ( 'NONE',  ( 0.000000000000000000, 0.000000000000000000, 1.000000000000000000 ) ) ;
#21 = AXIS2_PLACEMENT_3D ( 'NONE', #344, #105, #342 ) ;
#22 = CYLINDRICAL_SURFACE ( 'NONE', #306, 3.100000000000000089 ) ;
#23 = FACE_OUTER_BOUND ( 'NONE', #324, .T. ) ;
#24 = CARTESIAN_POINT ( 'NONE',  ( 0.000000000000000000, 0.000000000000000000, 5.500000000000005329 ) ) ;
#25 = AXIS2_PLACEMENT_3D ( 'NONE', #232, #59, #87 ) ;
#26 = DIRECTION ( 'NONE',  ( 1.000000000000000000, 0.000000000000000000, 0.000000000000000000 ) ) ;
#27 = LINE ( 'NONE', #287, #12 ) ;
#28 = ORIENTED_EDGE ( 'NONE', *, *, #266, .F. ) ;
#29 = AXIS2_PLACEMENT_3D ( 'NONE', #179, #63, #69 ) ;
#30 = EDGE_LOOP ( 'NONE', ( #164, #61 ) ) ;
#31 = AXIS2_PLACEMENT_3D ( 'NONE', #184, #97, #308 ) ;
#32 = CARTESIAN_POINT ( 'NONE',  ( 5.500000000000000000, 0.000000000000000000, 5.500000000000005329 ) ) ;
#33 = ORIENTED_EDGE ( 'NONE', *, *, #365, .F. ) ;
#34 = PERSON_AND_ORGANIZATION_ROLE ( 'creator' ) ;
#35 = AXIS2_PLACEMENT_3D ( 'NONE', #165, #249, #102 ) ;
#36 = CARTESIAN_POINT ( 'NONE',  ( -3.100000000000000089, 0.000000000000000000, 80.00000000000000000 ) ) ;
#37 = APPROVAL_ROLE ( '' ) ;
#38 = AXIS2_PLACEMENT_3D ( 'NONE', #277, #190, #65 ) ;
#39 = EDGE_LOOP ( 'NONE', ( #359, #235, #322, #354 ) ) ;
#40 = ADVANCED_FACE ( 'NONE', ( #44 ), #22, .F. ) ;
#41 = COORDINATED_UNIVERSAL_TIME_OFFSET ( 1, 0, .AHEAD. ) ;
#42 = FACE_OUTER_BOUND ( 'NONE', #333, .T. ) ;
#43 = CARTESIAN_POINT ( 'NONE',  ( 0.000000000000000000, 0.000000000000000000, 5.500000000000005329 ) ) ;
#44 = FACE_OUTER_BOUND ( 'NONE', #332, .T. ) ;
#45 = FACE_BOUND ( 'NONE', #142, .T. ) ;
#46 = CIRCLE ( 'NONE', #35, 0.5000000000000004441 ) ;
#47 = CC_DESIGN_PERSON_AND_ORGANIZATION_ASSIGNMENT ( #137, #262, ( #180 ) ) ;
#48 = ORIENTED_EDGE ( 'NONE', *, *, #331, .F. ) ;
#49 = FACE_OUTER_BOUND ( 'NONE', #30, .T. ) ;
#50 = CARTESIAN_POINT ( 'NONE',  ( 0.000000000000000000, 0.000000000000000000, 5.000000000000000000 ) ) ;
#51 = DIRECTION ( 'NONE',  ( 1.000000000000000000, 0.000000000000000000, 0.000000000000000000 ) ) ;
#52 = CARTESIAN_POINT ( 'NONE',  ( 0.000000000000000000, 0.000000000000000000, 80.00000000000000000 ) ) ;
#53 = ORIENTED_EDGE ( 'NONE', *, *, #348, .T. ) ;
#54 = VECTOR ( 'NONE', #156, 1000.000000000000000 ) ;
#55 = CARTESIAN_POINT ( 'NONE',  ( 0.000000000000000000, 0.000000000000000000, 80.00000000000000000 ) ) ;
#56 = ORIENTED_EDGE ( 'NONE', *, *, #207, .T. ) ;
#57 = TOROIDAL_SURFACE ( 'NONE', #255, 5.500000000000000000, 0.5000000000000000000 ) ;
#58 = COORDINATED_UNIVERSAL_TIME_OFFSET ( 1, 0, .AHEAD. ) ;
#59 = DIRECTION ( 'NONE',  ( 0.000000000000000000, 0.000000000000000000, 1.000000000000000000 ) ) ;
#60 = ORIENTED_EDGE ( 'NONE', *, *, #266, .T. ) ;
#61 = ORIENTED_EDGE ( 'NONE', *, *, #314, .T. ) ;
#62 = ADVANCED_FACE ( 'NONE', ( #220 ), #305, .T. ) ;
#63 = DIRECTION ( 'NONE',  ( 0.000000000000000000, 0.000000000000000000, 1.000000000000000000 ) ) ;
#64 = AXIS2_PLACEMENT_3D ( 'NONE', #92, #279, #256 ) ;
#65 = DIRECTION ( 'NONE',  ( 1.000000000000000000, 0.000000000000000000, 0.000000000000000000 ) ) ;
#66 = DIRECTION ( 'NONE',  ( -0.000000000000000000, -0.000000000000000000, -1.000000000000000000 ) ) ;
#67 = CARTESIAN_POINT ( 'NONE',  ( -3.100000000000000089, 0.000000000000000000, 80.00000000000000000 ) ) ;
#68 = ORIENTED_EDGE ( 'NONE', *, *, #348, .F. ) ;
#69 = DIRECTION ( 'NONE',  ( 1.000000000000000000, 0.000000000000000000, 0.000000000000000000 ) ) ;
#70 = VECTOR ( 'NONE', #120, 1000.000000000000000 ) ;
#71 = DIRECTION ( 'NONE',  ( 1.000000000000000000, 0.000000000000000000, 0.000000000000000000 ) ) ;
#72 = DIRECTION ( 'NONE',  ( 0.000000000000000000, 0.000000000000000000, 1.000000000000000000 ) ) ;
#73 = AXIS2_PLACEMENT_3D ( 'NONE', #367, #66, #303 ) ;
#74 = DIRECTION ( 'NONE',  ( 0.000000000000000000, 0.000000000000000000, 1.000000000000000000 ) ) ;
#75 = DIRECTION ( 'NONE',  ( 0.000000000000000000, 0.000000000000000000, 1.000000000000000000 ) ) ;
#76 = FACE_OUTER_BOUND ( 'NONE', #130, .T. ) ;
#77 = VERTEX_POINT ( 'NONE', #148 ) ;
#78 = PERSON_AND_ORGANIZATION ( #329, #364 ) ;
#79 = VECTOR ( 'NONE', #174, 1000.000000000000000 ) ;
#80 =( NAMED_UNIT ( * ) PLANE_ANGLE_UNIT ( ) SI_UNIT ( $, .RADIAN. ) );
#81 = DIRECTION ( 'NONE',  ( -0.000000000000000000, -0.000000000000000000, -1.000000000000000000 ) ) ;
#82 = AXIS2_PLACEMENT_3D ( 'NONE', #99, #182, #247 ) ;
#83 = EDGE_CURVE ( 'NONE', #244, #380, #313, .T. ) ;
#84 = APPLICATION_PROTOCOL_DEFINITION ( 'international standard', 'config_control_design', 1994, #297 ) ;
#85 = VERTEX_POINT ( 'NONE', #372 ) ;
#86 = CIRCLE ( 'NONE', #132, 8.000000000000000000 ) ;
#87 = DIRECTION ( 'NONE',  ( 1.000000000000000000, 0.000000000000000000, 0.000000000000000000 ) ) ;
#88 = EDGE_LOOP ( 'NONE', ( #258, #188 ) ) ;
#89 = EDGE_CURVE ( 'NONE', #11, #211, #10, .T. ) ;
#90 = PLANE ( 'NONE',  #82 ) ;
#91 = AXIS2_PLACEMENT_3D ( 'NONE', #151, #243, #223 ) ;
#92 = CARTESIAN_POINT ( 'NONE',  ( 0.000000000000000000, 0.000000000000000000, 5.000000000000000000 ) ) ;
#93 = FACE_OUTER_BOUND ( 'NONE', #246, .T. ) ;
#94 = CC_DESIGN_PERSON_AND_ORGANIZATION_ASSIGNMENT ( #171, #9, ( #275 ) ) ;
#95 = ORIENTED_EDGE ( 'NONE', *, *, #365, .T. ) ;
#96 = CIRCLE ( 'NONE', #73, 3.100000000000000089 ) ;
#97 = DIRECTION ( 'NONE',  ( -0.000000000000000000, -0.000000000000000000, -1.000000000000000000 ) ) ;
#98 = CIRCLE ( 'NONE', #31, 5.500000000000000000 ) ;
#99 = CARTESIAN_POINT ( 'NONE',  ( 0.000000000000000000, 0.000000000000000000, 0.000000000000000000 ) ) ;
#100 = CIRCLE ( 'NONE', #325, 5.000000000000000000 ) ;
#101 = EDGE_CURVE ( 'NONE', #250, #11, #339, .T. ) ;
#102 = DIRECTION ( 'NONE',  ( -1.000000000000000000, 1.224646799147351482E-16, 0.000000000000000000 ) ) ;
#103 = DIRECTION ( 'NONE',  ( 0.000000000000000000, 0.000000000000000000, 1.000000000000000000 ) ) ;
#104 = ORIENTED_EDGE ( 'NONE', *, *, #373, .F. ) ;
#105 = DIRECTION ( 'NONE',  ( 0.000000000000000000, 0.000000000000000000, 1.000000000000000000 ) ) ;
#106 = CIRCLE ( 'NONE', #173, 8.000000000000000000 ) ;
#107 = DIRECTION ( 'NONE',  ( 1.000000000000000000, 0.000000000000000000, 0.000000000000000000 ) ) ;
#108 = DESIGN_CONTEXT ( 'detailed design', #297, 'design' ) ;
#109 = DIRECTION ( 'NONE',  ( 1.000000000000000000, 0.000000000000000000, 0.000000000000000000 ) ) ;
#110 = ORIENTED_EDGE ( 'NONE', *, *, #3, .F. ) ;
#111 = CYLINDRICAL_SURFACE ( 'NONE', #363, 8.000000000000000000 ) ;
#112 = PERSON_AND_ORGANIZATION ( #329, #364 ) ;
#113 = APPROVAL_STATUS ( 'not_yet_approved' ) ;
#114 = PERSON_AND_ORGANIZATION ( #329, #364 ) ;
#115 = DIRECTION ( 'NONE',  ( 0.000000000000000000, 0.000000000000000000, 1.000000000000000000 ) ) ;
#116 = COORDINATED_UNIVERSAL_TIME_OFFSET ( 1, 0, .AHEAD. ) ;
#117 = ORIENTED_EDGE ( 'NONE', *, *, #295, .T. ) ;
#118 = PRODUCT_RELATED_PRODUCT_CATEGORY ( 'detail', '', ( #162 ) ) ;
#119 = ORIENTED_EDGE ( 'NONE', *, *, #321, .F. ) ;
#120 = DIRECTION ( 'NONE',  ( 0.000000000000000000, 0.000000000000000000, -1.000000000000000000 ) ) ;
#121 = APPROVAL_STATUS ( 'not_yet_approved' ) ;
#122 = DIRECTION ( 'NONE',  ( 0.000000000000000000, 0.000000000000000000, -1.000000000000000000 ) ) ;
#123 = EDGE_CURVE ( 'NONE', #77, #134, #361, .T. ) ;
#124 = DIRECTION ( 'NONE',  ( 1.000000000000000000, 0.000000000000000000, 0.000000000000000000 ) ) ;
#125 = CYLINDRICAL_SURFACE ( 'NONE', #195, 5.000000000000000000 ) ;
#126 = DIRECTION ( 'NONE',  ( -0.000000000000000000, -0.000000000000000000, -1.000000000000000000 ) ) ;
#127 = DIRECTION ( 'NONE',  ( -1.000000000000000000, 0.000000000000000000, 0.000000000000000000 ) ) ;
#128 = FACE_OUTER_BOUND ( 'NONE', #347, .T. ) ;
#129 = DIRECTION ( 'NONE',  ( 0.000000000000000000, 0.000000000000000000, 1.000000000000000000 ) ) ;
#130 = EDGE_LOOP ( 'NONE', ( #110, #208 ) ) ;
#131 = CARTESIAN_POINT ( 'NONE',  ( 0.000000000000000000, 0.000000000000000000, 5.000000000000000000 ) ) ;
#132 = AXIS2_PLACEMENT_3D ( 'NONE', #50, #103, #51 ) ;
#133 = APPROVAL_PERSON_ORGANIZATION ( #8, #301, #176 ) ;
#134 = VERTEX_POINT ( 'NONE', #214 ) ;
#135 = DIRECTION ( 'NONE',  ( 0.000000000000000000, -1.000000000000000000, 0.000000000000000000 ) ) ;
#136 = ORIENTED_EDGE ( 'NONE', *, *, #241, .F. ) ;
#137 = PERSON_AND_ORGANIZATION ( #329, #364 ) ;
#138 = EDGE_CURVE ( 'NONE', #380, #244, #96, .T. ) ;
#139 = CARTESIAN_POINT ( 'NONE',  ( -8.000000000000000000, 0.000000000000000000, 5.000000000000000000 ) ) ;
#140 = CC_DESIGN_APPROVAL ( #301, ( #275 ) ) ;
#141 = CARTESIAN_POINT ( 'NONE',  ( -3.100000000000000089, 0.000000000000000000, 0.000000000000000000 ) ) ;
#142 = EDGE_LOOP ( 'NONE', ( #60, #284 ) ) ;
#143 = CIRCLE ( 'NONE', #158, 8.000000000000000000 ) ;
#144 = APPROVAL_DATE_TIME ( #206, #280 ) ;
#145 = ORIENTED_EDGE ( 'NONE', *, *, #207, .F. ) ;
#146 = CIRCLE ( 'NONE', #215, 0.5000000000000004441 ) ;
#147 = DATE_AND_TIME ( #271, #238 ) ;
#148 = CARTESIAN_POINT ( 'NONE',  ( -8.000000000000000000, 0.000000000000000000, 5.000000000000000000 ) ) ;
#149 = LINE ( 'NONE', #153, #185 ) ;
#150 = AXIS2_PLACEMENT_3D ( 'NONE', #370, #126, #304 ) ;
#151 = CARTESIAN_POINT ( 'NONE',  ( 0.000000000000000000, 0.000000000000000000, 5.000000000000000000 ) ) ;
#152 = AXIS2_PLACEMENT_3D ( 'NONE', #379, #315, #323 ) ;
#153 = CARTESIAN_POINT ( 'NONE',  ( 5.000000000000000000, 6.123233995736766282E-16, 80.00000000000000000 ) ) ;
#154 = ORIENTED_EDGE ( 'NONE', *, *, #231, .T. ) ;
#155 = ADVANCED_FACE ( 'NONE', ( #23 ), #293, .F. ) ;
#156 = DIRECTION ( 'NONE',  ( -0.000000000000000000, -0.000000000000000000, -1.000000000000000000 ) ) ;
#157 = CC_DESIGN_DATE_AND_TIME_ASSIGNMENT ( #147, #15, ( #349 ) ) ;
#158 = AXIS2_PLACEMENT_3D ( 'NONE', #1, #115, #107 ) ;
#159 = PLANE ( 'NONE',  #21 ) ;
#160 = AXIS2_PLACEMENT_3D ( 'NONE', #346, #252, #282 ) ;
#161 = DIRECTION ( 'NONE',  ( 0.000000000000000000, 0.000000000000000000, -1.000000000000000000 ) ) ;
#162 = PRODUCT ( '1703', '1703', '', ( #230 ) ) ;
#163 = APPROVAL_PERSON_ORGANIZATION ( #114, #280, #37 ) ;
#164 = ORIENTED_EDGE ( 'NONE', *, *, #123, .T. ) ;
#165 = CARTESIAN_POINT ( 'NONE',  ( -5.500000000000000000, 6.735557395310442023E-16, 5.500000000000005329 ) ) ;
#166 = ORIENTED_EDGE ( 'NONE', *, *, #314, .F. ) ;
#167 = CARTESIAN_POINT ( 'NONE',  ( 3.100000000000000089, 3.796405077356794918E-16, 80.00000000000000000 ) ) ;
#168 = EDGE_LOOP ( 'NONE', ( #170, #298 ) ) ;
#169 = DIRECTION ( 'NONE',  ( -0.000000000000000000, -0.000000000000000000, -1.000000000000000000 ) ) ;
#170 = ORIENTED_EDGE ( 'NONE', *, *, #138, .F. ) ;
#171 = PERSON_AND_ORGANIZATION ( #329, #364 ) ;
#172 =( LENGTH_UNIT ( ) NAMED_UNIT ( * ) SI_UNIT ( .MILLI., .METRE. ) );
#173 = AXIS2_PLACEMENT_3D ( 'NONE', #198, #72, #26 ) ;
#174 = DIRECTION ( 'NONE',  ( -0.000000000000000000, -0.000000000000000000, -1.000000000000000000 ) ) ;
#175 = VERTEX_POINT ( 'NONE', #270 ) ;
#176 = APPROVAL_ROLE ( '' ) ;
#177 = ORIENTED_EDGE ( 'NONE', *, *, #89, .F. ) ;
#178 = APPROVAL_ROLE ( '' ) ;
#179 = CARTESIAN_POINT ( 'NONE',  ( 0.000000000000000000, 0.000000000000000000, 5.000000000000000000 ) ) ;
#180 = PRODUCT_DEFINITION_FORMATION_WITH_SPECIFIED_SOURCE ( 'LIBOVOLNÝ', '', #162, .NOT_KNOWN. ) ;
#181 = ADVANCED_BREP_SHAPE_REPRESENTATION ( '1703', ( #5, #25 ), #204 ) ;
#182 = DIRECTION ( 'NONE',  ( 0.000000000000000000, 0.000000000000000000, 1.000000000000000000 ) ) ;
#183 = CALENDAR_DATE ( 2022, 8, 7 ) ;
#184 = CARTESIAN_POINT ( 'NONE',  ( 0.000000000000000000, 0.000000000000000000, 5.000000000000000000 ) ) ;
#185 = VECTOR ( 'NONE', #311, 1000.000000000000000 ) ;
#186 = CARTESIAN_POINT ( 'NONE',  ( 5.000000000000000000, 6.123233995736766282E-16, 5.500000000000005329 ) ) ;
#187 = EDGE_CURVE ( 'NONE', #199, #211, #149, .T. ) ;
#188 = ORIENTED_EDGE ( 'NONE', *, *, #254, .T. ) ;
#189 = CC_DESIGN_SECURITY_CLASSIFICATION ( #349, ( #180 ) ) ;
#190 = DIRECTION ( 'NONE',  ( 0.000000000000000000, 0.000000000000000000, 1.000000000000000000 ) ) ;
#191 = APPROVAL ( #121, 'NEURÈENÝ' ) ;
#192 = CARTESIAN_POINT ( 'NONE',  ( 0.000000000000000000, 0.000000000000000000, 80.00000000000000000 ) ) ;
#193 = CC_DESIGN_PERSON_AND_ORGANIZATION_ASSIGNMENT ( #78, #326, ( #162 ) ) ;
#194 = ADVANCED_FACE ( 'NONE', ( #42 ), #19, .F. ) ;
#195 = AXIS2_PLACEMENT_3D ( 'NONE', #337, #360, #334 ) ;
#196 = FACE_OUTER_BOUND ( 'NONE', #261, .T. ) ;
#197 = ORIENTED_EDGE ( 'NONE', *, *, #218, .F. ) ;
#198 = CARTESIAN_POINT ( 'NONE',  ( 0.000000000000000000, 0.000000000000000000, 0.000000000000000000 ) ) ;
#199 = VERTEX_POINT ( 'NONE', #219 ) ;
#200 = DIRECTION ( 'NONE',  ( 1.000000000000000000, 0.000000000000000000, 0.000000000000000000 ) ) ;
#201 = ADVANCED_FACE ( 'NONE', ( #93 ), #125, .T. ) ;
#202 = EDGE_LOOP ( 'NONE', ( #166, #53, #117, #104 ) ) ;
#203 = APPROVAL_DATE_TIME ( #264, #301 ) ;
#204 =( GEOMETRIC_REPRESENTATION_CONTEXT ( 3 ) GLOBAL_UNCERTAINTY_ASSIGNED_CONTEXT ( ( #285 ) ) GLOBAL_UNIT_ASSIGNED_CONTEXT ( ( #172, #80, #236 ) ) REPRESENTATION_CONTEXT ( 'NONE', 'WORKASPACE' ) );
#205 = DIRECTION ( 'NONE',  ( -1.000000000000000000, 0.000000000000000000, 0.000000000000000000 ) ) ;
#206 = DATE_AND_TIME ( #353, #358 ) ;
#207 = EDGE_CURVE ( 'NONE', #371, #380, #335, .T. ) ;
#208 = ORIENTED_EDGE ( 'NONE', *, *, #295, .F. ) ;
#209 = AXIS2_PLACEMENT_3D ( 'NONE', #272, #122, #242 ) ;
#210 = LINE ( 'NONE', #139, #79 ) ;
#211 = VERTEX_POINT ( 'NONE', #186 ) ;
#212 = VERTEX_POINT ( 'NONE', #245 ) ;
#213 = EDGE_CURVE ( 'NONE', #85, #212, #98, .T. ) ;
#214 = CARTESIAN_POINT ( 'NONE',  ( 8.000000000000000000, 9.797174393178825657E-16, 5.000000000000000000 ) ) ;
#215 = AXIS2_PLACEMENT_3D ( 'NONE', #32, #135, #260 ) ;
#216 = ADVANCED_FACE ( 'NONE', ( #45, #49 ), #240, .T. ) ;
#217 = CARTESIAN_POINT ( 'NONE',  ( 0.000000000000000000, 0.000000000000000000, 80.00000000000000000 ) ) ;
#218 = EDGE_CURVE ( 'NONE', #11, #85, #46, .T. ) ;
#219 = CARTESIAN_POINT ( 'NONE',  ( 5.000000000000000000, 6.123233995736766282E-16, 80.00000000000000000 ) ) ;
#220 = FACE_OUTER_BOUND ( 'NONE', #202, .T. ) ;
#221 = ADVANCED_FACE ( 'NONE', ( #227, #312 ), #159, .T. ) ;
#222 = CIRCLE ( 'NONE', #340, 3.100000000000000089 ) ;
#223 = DIRECTION ( 'NONE',  ( -1.000000000000000000, 0.000000000000000000, 0.000000000000000000 ) ) ;
#224 = CARTESIAN_POINT ( 'NONE',  ( 0.000000000000000000, 0.000000000000000000, 80.00000000000000000 ) ) ;
#225 = CARTESIAN_POINT ( 'NONE',  ( 8.000000000000000000, 9.797174393178825657E-16, 0.000000000000000000 ) ) ;
#226 = CIRCLE ( 'NONE', #160, 5.500000000000000000 ) ;
#227 = FACE_BOUND ( 'NONE', #13, .T. ) ;
#228 = DIRECTION ( 'NONE',  ( 0.000000000000000000, 0.000000000000000000, 1.000000000000000000 ) ) ;
#229 = ORIENTED_EDGE ( 'NONE', *, *, #331, .T. ) ;
#230 = MECHANICAL_CONTEXT ( 'NONE', #289, 'mechanical' ) ;
#231 = EDGE_CURVE ( 'NONE', #175, #371, #343, .T. ) ;
#232 = CARTESIAN_POINT ( 'NONE',  ( 0.000000000000000000, 0.000000000000000000, 0.000000000000000000 ) ) ;
#233 = CALENDAR_DATE ( 2022, 8, 7 ) ;
#234 = APPROVAL_STATUS ( 'not_yet_approved' ) ;
#235 = ORIENTED_EDGE ( 'NONE', *, *, #187, .T. ) ;
#236 =( NAMED_UNIT ( * ) SI_UNIT ( $, .STERADIAN. ) SOLID_ANGLE_UNIT ( ) );
#237 = ORIENTED_EDGE ( 'NONE', *, *, #218, .T. ) ;
#238 = LOCAL_TIME ( 16, 51, 30.00000000000000000, #269 ) ;
#239 = FACE_BOUND ( 'NONE', #168, .T. ) ;
#240 = PLANE ( 'NONE',  #64 ) ;
#241 = EDGE_CURVE ( 'NONE', #211, #11, #276, .T. ) ;
#242 = DIRECTION ( 'NONE',  ( -1.000000000000000000, 0.000000000000000000, 0.000000000000000000 ) ) ;
#243 = DIRECTION ( 'NONE',  ( -0.000000000000000000, -0.000000000000000000, -1.000000000000000000 ) ) ;
#244 = VERTEX_POINT ( 'NONE', #283 ) ;
#245 = CARTESIAN_POINT ( 'NONE',  ( 5.500000000000000000, 0.000000000000000000, 5.000000000000002665 ) ) ;
#246 = EDGE_LOOP ( 'NONE', ( #330, #253, #300, #288 ) ) ;
#247 = DIRECTION ( 'NONE',  ( 1.000000000000000000, 0.000000000000000000, -0.000000000000000000 ) ) ;
#248 = AXIS2_PLACEMENT_3D ( 'NONE', #192, #81, #205 ) ;
#249 = DIRECTION ( 'NONE',  ( 1.224646799147353207E-16, 1.000000000000000000, -0.000000000000000000 ) ) ;
#250 = VERTEX_POINT ( 'NONE', #251 ) ;
#251 = CARTESIAN_POINT ( 'NONE',  ( -5.000000000000000000, 0.000000000000000000, 80.00000000000000000 ) ) ;
#252 = DIRECTION ( 'NONE',  ( -0.000000000000000000, -0.000000000000000000, -1.000000000000000000 ) ) ;
#253 = ORIENTED_EDGE ( 'NONE', *, *, #352, .F. ) ;
#254 = EDGE_CURVE ( 'NONE', #199, #250, #378, .T. ) ;
#255 = AXIS2_PLACEMENT_3D ( 'NONE', #24, #228, #317 ) ;
#256 = DIRECTION ( 'NONE',  ( 1.000000000000000000, 0.000000000000000000, -0.000000000000000000 ) ) ;
#257 = CC_DESIGN_APPROVAL ( #191, ( #349 ) ) ;
#258 = ORIENTED_EDGE ( 'NONE', *, *, #352, .T. ) ;
#259 = CC_DESIGN_DATE_AND_TIME_ASSIGNMENT ( #356, #299, ( #275 ) ) ;
#260 = DIRECTION ( 'NONE',  ( 0.000000000000000000, 0.000000000000000000, -1.000000000000000000 ) ) ;
#261 = EDGE_LOOP ( 'NONE', ( #177, #237, #28, #33 ) ) ;
#262 = PERSON_AND_ORGANIZATION_ROLE ( 'design_supplier' ) ;
#263 = CLOSED_SHELL ( 'NONE', ( #40, #302, #369, #62, #281, #216, #17, #201, #221, #155, #194 ) ) ;
#264 = DATE_AND_TIME ( #233, #327 ) ;
#265 = ORIENTED_EDGE ( 'NONE', *, *, #231, .F. ) ;
#266 = EDGE_CURVE ( 'NONE', #212, #85, #226, .T. ) ;
#267 = APPLICATION_PROTOCOL_DEFINITION ( 'international standard', 'config_control_design', 1994, #289 ) ;
#268 = ORIENTED_EDGE ( 'NONE', *, *, #123, .F. ) ;
#269 = COORDINATED_UNIVERSAL_TIME_OFFSET ( 1, 0, .AHEAD. ) ;
#270 = CARTESIAN_POINT ( 'NONE',  ( 3.100000000000000089, 3.796405077356794918E-16, 80.00000000000000000 ) ) ;
#271 = CALENDAR_DATE ( 2022, 8, 7 ) ;
#272 = CARTESIAN_POINT ( 'NONE',  ( 0.000000000000000000, 0.000000000000000000, 80.00000000000000000 ) ) ;
#273 = APPROVAL_DATE_TIME ( #336, #191 ) ;
#274 = CARTESIAN_POINT ( 'NONE',  ( -5.000000000000000000, 0.000000000000000000, 80.00000000000000000 ) ) ;
#275 = PRODUCT_DEFINITION ( 'NEZNÁMÝ', '', #180, #108 ) ;
#276 = CIRCLE ( 'NONE', #152, 5.000000000000000000 ) ;
#277 = CARTESIAN_POINT ( 'NONE',  ( 0.000000000000000000, 0.000000000000000000, 5.500000000000005329 ) ) ;
#278 = ORIENTED_EDGE ( 'NONE', *, *, #321, .T. ) ;
#279 = DIRECTION ( 'NONE',  ( 0.000000000000000000, 0.000000000000000000, 1.000000000000000000 ) ) ;
#280 = APPROVAL ( #234, 'NEURÈENÝ' ) ;
#281 = ADVANCED_FACE ( 'NONE', ( #128 ), #111, .T. ) ;
#282 = DIRECTION ( 'NONE',  ( 1.000000000000000000, 0.000000000000000000, 0.000000000000000000 ) ) ;
#283 = CARTESIAN_POINT ( 'NONE',  ( 3.100000000000000089, 3.796405077356794918E-16, 0.000000000000000000 ) ) ;
#284 = ORIENTED_EDGE ( 'NONE', *, *, #213, .T. ) ;
#285 = UNCERTAINTY_MEASURE_WITH_UNIT (LENGTH_MEASURE( 1.000000000000000082E-05 ), #172, 'distance_accuracy_value', 'NONE');
#286 = VERTEX_POINT ( 'NONE', #225 ) ;
#287 = CARTESIAN_POINT ( 'NONE',  ( 8.000000000000000000, 9.797174393178825657E-16, 5.000000000000000000 ) ) ;
#288 = ORIENTED_EDGE ( 'NONE', *, *, #89, .T. ) ;
#289 = APPLICATION_CONTEXT ( 'configuration controlled 3d designs of mechanical parts and assemblies' ) ;
#290 = DIRECTION ( 'NONE',  ( 0.000000000000000000, 0.000000000000000000, 1.000000000000000000 ) ) ;
#291 = ORIENTED_EDGE ( 'NONE', *, *, #83, .T. ) ;
#292 = COORDINATED_UNIVERSAL_TIME_OFFSET ( 1, 0, .AHEAD. ) ;
#293 = TOROIDAL_SURFACE ( 'NONE', #307, 5.500000000000000000, 0.5000000000000000000 ) ;
#294 = PERSON_AND_ORGANIZATION ( #329, #364 ) ;
#295 = EDGE_CURVE ( 'NONE', #286, #377, #106, .T. ) ;
#296 = CC_DESIGN_APPROVAL ( #280, ( #180 ) ) ;
#297 = APPLICATION_CONTEXT ( 'configuration controlled 3d designs of mechanical parts and assemblies' ) ;
#298 = ORIENTED_EDGE ( 'NONE', *, *, #83, .F. ) ;
#299 = DATE_TIME_ROLE ( 'creation_date' ) ;
#300 = ORIENTED_EDGE ( 'NONE', *, *, #101, .T. ) ;
#301 = APPROVAL ( #113, 'NEURÈENÝ' ) ;
#302 = ADVANCED_FACE ( 'NONE', ( #196 ), #57, .F. ) ;
#303 = DIRECTION ( 'NONE',  ( 1.000000000000000000, 0.000000000000000000, 0.000000000000000000 ) ) ;
#304 = DIRECTION ( 'NONE',  ( 1.000000000000000000, 0.000000000000000000, 0.000000000000000000 ) ) ;
#305 = CYLINDRICAL_SURFACE ( 'NONE', #91, 8.000000000000000000 ) ;
#306 = AXIS2_PLACEMENT_3D ( 'NONE', #217, #362, #16 ) ;
#307 = AXIS2_PLACEMENT_3D ( 'NONE', #43, #20, #124 ) ;
#308 = DIRECTION ( 'NONE',  ( 1.000000000000000000, 0.000000000000000000, 0.000000000000000000 ) ) ;
#309 = VECTOR ( 'NONE', #161, 1000.000000000000000 ) ;
#310 = LOCAL_TIME ( 16, 51, 30.00000000000000000, #41 ) ;
#311 = DIRECTION ( 'NONE',  ( -0.000000000000000000, -0.000000000000000000, -1.000000000000000000 ) ) ;
#312 = FACE_OUTER_BOUND ( 'NONE', #88, .T. ) ;
#313 = CIRCLE ( 'NONE', #150, 3.100000000000000089 ) ;
#314 = EDGE_CURVE ( 'NONE', #134, #77, #86, .T. ) ;
#315 = DIRECTION ( 'NONE',  ( 0.000000000000000000, 0.000000000000000000, 1.000000000000000000 ) ) ;
#316 = AXIS2_PLACEMENT_3D ( 'NONE', #224, #290, #109 ) ;
#317 = DIRECTION ( 'NONE',  ( 1.000000000000000000, 0.000000000000000000, 0.000000000000000000 ) ) ;
#318 = ORIENTED_EDGE ( 'NONE', *, *, #373, .T. ) ;
#319 = CC_DESIGN_PERSON_AND_ORGANIZATION_ASSIGNMENT ( #294, #34, ( #180 ) ) ;
#320 = LINE ( 'NONE', #167, #309 ) ;
#321 = EDGE_CURVE ( 'NONE', #175, #244, #320, .T. ) ;
#322 = ORIENTED_EDGE ( 'NONE', *, *, #241, .T. ) ;
#323 = DIRECTION ( 'NONE',  ( 1.000000000000000000, 0.000000000000000000, 0.000000000000000000 ) ) ;
#324 = EDGE_LOOP ( 'NONE', ( #197, #136, #95, #357 ) ) ;
#325 = AXIS2_PLACEMENT_3D ( 'NONE', #52, #129, #200 ) ;
#326 = PERSON_AND_ORGANIZATION_ROLE ( 'design_owner' ) ;
#327 = LOCAL_TIME ( 16, 51, 30.00000000000000000, #58 ) ;
#328 = CARTESIAN_POINT ( 'NONE',  ( -8.000000000000000000, 0.000000000000000000, 0.000000000000000000 ) ) ;
#329 = PERSON ( 'NEURÈENÝ', 'NEURÈENÝ', 'NEURÈENÝ', ('NEURÈENÝ'), ('NEURÈENÝ'), ('NEURÈENÝ') ) ;
#330 = ORIENTED_EDGE ( 'NONE', *, *, #187, .F. ) ;
#331 = EDGE_CURVE ( 'NONE', #371, #175, #222, .T. ) ;
#332 = EDGE_LOOP ( 'NONE', ( #229, #278, #291, #145 ) ) ;
#333 = EDGE_LOOP ( 'NONE', ( #119, #154, #56, #338 ) ) ;
#334 = DIRECTION ( 'NONE',  ( -1.000000000000000000, 0.000000000000000000, 0.000000000000000000 ) ) ;
#335 = LINE ( 'NONE', #67, #70 ) ;
#336 = DATE_AND_TIME ( #183, #310 ) ;
#337 = CARTESIAN_POINT ( 'NONE',  ( 0.000000000000000000, 0.000000000000000000, 80.00000000000000000 ) ) ;
#338 = ORIENTED_EDGE ( 'NONE', *, *, #138, .T. ) ;
#339 = LINE ( 'NONE', #274, #54 ) ;
#340 = AXIS2_PLACEMENT_3D ( 'NONE', #55, #74, #376 ) ;
#341 = CYLINDRICAL_SURFACE ( 'NONE', #248, 5.000000000000000000 ) ;
#342 = DIRECTION ( 'NONE',  ( 1.000000000000000000, 0.000000000000000000, -0.000000000000000000 ) ) ;
#343 = CIRCLE ( 'NONE', #316, 3.100000000000000089 ) ;
#344 = CARTESIAN_POINT ( 'NONE',  ( 0.000000000000000000, 0.000000000000000000, 80.00000000000000000 ) ) ;
#345 = CARTESIAN_POINT ( 'NONE',  ( -5.000000000000000000, 0.000000000000000000, 5.500000000000005329 ) ) ;
#346 = CARTESIAN_POINT ( 'NONE',  ( 0.000000000000000000, 0.000000000000000000, 5.000000000000000000 ) ) ;
#347 = EDGE_LOOP ( 'NONE', ( #68, #268, #318, #368 ) ) ;
#348 = EDGE_CURVE ( 'NONE', #134, #286, #27, .T. ) ;
#349 = SECURITY_CLASSIFICATION ( '', '', #2 ) ;
#350 = PERSON_AND_ORGANIZATION_ROLE ( 'classification_officer' ) ;
#351 = CALENDAR_DATE ( 2022, 8, 7 ) ;
#352 = EDGE_CURVE ( 'NONE', #250, #199, #100, .T. ) ;
#353 = CALENDAR_DATE ( 2022, 8, 7 ) ;
#354 = ORIENTED_EDGE ( 'NONE', *, *, #101, .F. ) ;
#355 = CC_DESIGN_PERSON_AND_ORGANIZATION_ASSIGNMENT ( #112, #350, ( #349 ) ) ;
#356 = DATE_AND_TIME ( #351, #14 ) ;
#357 = ORIENTED_EDGE ( 'NONE', *, *, #213, .F. ) ;
#358 = LOCAL_TIME ( 16, 51, 30.00000000000000000, #292 ) ;
#359 = ORIENTED_EDGE ( 'NONE', *, *, #254, .F. ) ;
#360 = DIRECTION ( 'NONE',  ( -0.000000000000000000, -0.000000000000000000, -1.000000000000000000 ) ) ;
#361 = CIRCLE ( 'NONE', #29, 8.000000000000000000 ) ;
#362 = DIRECTION ( 'NONE',  ( 0.000000000000000000, 0.000000000000000000, -1.000000000000000000 ) ) ;
#363 = AXIS2_PLACEMENT_3D ( 'NONE', #131, #374, #127 ) ;
#364 = ORGANIZATION ( 'NEURÈENÝ', 'NEURÈENÝ', '' ) ;
#365 = EDGE_CURVE ( 'NONE', #211, #212, #146, .T. ) ;
#366 = SHAPE_DEFINITION_REPRESENTATION ( #4, #181 ) ;
#367 = CARTESIAN_POINT ( 'NONE',  ( 0.000000000000000000, 0.000000000000000000, 0.000000000000000000 ) ) ;
#368 = ORIENTED_EDGE ( 'NONE', *, *, #3, .T. ) ;
#369 = ADVANCED_FACE ( 'NONE', ( #381 ), #341, .T. ) ;
#370 = CARTESIAN_POINT ( 'NONE',  ( 0.000000000000000000, 0.000000000000000000, 0.000000000000000000 ) ) ;
#371 = VERTEX_POINT ( 'NONE', #36 ) ;
#372 = CARTESIAN_POINT ( 'NONE',  ( -5.500000000000000000, 6.735557395310442023E-16, 5.000000000000002665 ) ) ;
#373 = EDGE_CURVE ( 'NONE', #77, #377, #210, .T. ) ;
#374 = DIRECTION ( 'NONE',  ( -0.000000000000000000, -0.000000000000000000, -1.000000000000000000 ) ) ;
#375 = CARTESIAN_POINT ( 'NONE',  ( 0.000000000000000000, 0.000000000000000000, 80.00000000000000000 ) ) ;
#376 = DIRECTION ( 'NONE',  ( 1.000000000000000000, 0.000000000000000000, 0.000000000000000000 ) ) ;
#377 = VERTEX_POINT ( 'NONE', #328 ) ;
#378 = CIRCLE ( 'NONE', #6, 5.000000000000000000 ) ;
#379 = CARTESIAN_POINT ( 'NONE',  ( 0.000000000000000000, 0.000000000000000000, 5.500000000000005329 ) ) ;
#380 = VERTEX_POINT ( 'NONE', #141 ) ;
#381 = FACE_OUTER_BOUND ( 'NONE', #39, .T. ) ;
ENDSEC;
END-ISO-10303-21;
