ISO-10303-21;
HEADER;
FILE_DESCRIPTION (( 'STEP AP203' ),
    '1' );
FILE_NAME ('b10e.STEP',
    '2022-07-08T14:34:16',
    ( '' ),
    ( '' ),
    'SwSTEP 2.0',
    'SolidWorks 2019',
    '' );
FILE_SCHEMA (( 'CONFIG_CONTROL_DESIGN' ));
ENDSEC;

DATA;
#1 = ORIENTED_EDGE ( 'NONE', *, *, #116, .T. ) ;
#2 = LINE ( 'NONE', #213, #104 ) ;
#3 = ORIENTED_EDGE ( 'NONE', *, *, #339, .T. ) ;
#4 = TOROIDAL_SURFACE ( 'NONE', #357, 6.700000000000001066, 0.6999999999999999556 ) ;
#5 = DIRECTION ( 'NONE',  ( 0.000000000000000000, 0.000000000000000000, -1.000000000000000000 ) ) ;
#6 = EDGE_CURVE ( 'NONE', #32, #212, #14, .T. ) ;
#7 = EDGE_LOOP ( 'NONE', ( #73, #125 ) ) ;
#8 = DIRECTION ( 'NONE',  ( 0.000000000000000000, 0.000000000000000000, 1.000000000000000000 ) ) ;
#9 = AXIS2_PLACEMENT_3D ( 'NONE', #136, #192, #108 ) ;
#10 = EDGE_LOOP ( 'NONE', ( #154, #349 ) ) ;
#11 = PERSON_AND_ORGANIZATION ( #22, #379 ) ;
#12 = ORIENTED_EDGE ( 'NONE', *, *, #245, .F. ) ;
#13 = AXIS2_PLACEMENT_3D ( 'NONE', #76, #239, #180 ) ;
#14 = LINE ( 'NONE', #336, #277 ) ;
#15 = ADVANCED_BREP_SHAPE_REPRESENTATION ( 'b10e', ( #325, #350 ), #81 ) ;
#16 = CARTESIAN_POINT ( 'NONE',  ( 0.000000000000000000, 0.000000000000000000, 307.0000000000000000 ) ) ;
#17 = EDGE_LOOP ( 'NONE', ( #324, #251, #40, #271 ) ) ;
#18 = CALENDAR_DATE ( 2022, 8, 7 ) ;
#19 = CYLINDRICAL_SURFACE ( 'NONE', #191, 6.000000000000000888 ) ;
#20 = DIRECTION ( 'NONE',  ( 1.000000000000000000, 0.000000000000000000, 0.000000000000000000 ) ) ;
#21 = EDGE_LOOP ( 'NONE', ( #301, #45 ) ) ;
#22 = PERSON ( 'NEURÈENÝ', 'NEURÈENÝ', 'NEURÈENÝ', ('NEURÈENÝ'), ('NEURÈENÝ'), ('NEURÈENÝ') ) ;
#23 = APPROVAL_STATUS ( 'not_yet_approved' ) ;
#24 = CIRCLE ( 'NONE', #252, 10.00000000000000000 ) ;
#25 = CARTESIAN_POINT ( 'NONE',  ( 0.000000000000000000, 0.000000000000000000, 7.000000000000000000 ) ) ;
#26 = APPROVAL_ROLE ( '' ) ;
#27 = AXIS2_PLACEMENT_3D ( 'NONE', #228, #361, #163 ) ;
#28 = COORDINATED_UNIVERSAL_TIME_OFFSET ( 1, 0, .AHEAD. ) ;
#29 = DIRECTION ( 'NONE',  ( 1.000000000000000000, 0.000000000000000000, 0.000000000000000000 ) ) ;
#30 = DIRECTION ( 'NONE',  ( -1.000000000000000000, 0.000000000000000000, 0.000000000000000000 ) ) ;
#31 = AXIS2_PLACEMENT_3D ( 'NONE', #314, #258, #175 ) ;
#32 = VERTEX_POINT ( 'NONE', #333 ) ;
#33 = AXIS2_PLACEMENT_3D ( 'NONE', #302, #249, #246 ) ;
#34 = LOCAL_TIME ( 16, 34, 16.00000000000000000, #28 ) ;
#35 = ORIENTED_EDGE ( 'NONE', *, *, #297, .F. ) ;
#36 = ADVANCED_FACE ( 'NONE', ( #222, #48 ), #79, .T. ) ;
#37 = CARTESIAN_POINT ( 'NONE',  ( -4.099999999999999645, 0.000000000000000000, 0.000000000000000000 ) ) ;
#38 = ORIENTED_EDGE ( 'NONE', *, *, #283, .F. ) ;
#39 = EDGE_CURVE ( 'NONE', #303, #42, #51, .T. ) ;
#40 = ORIENTED_EDGE ( 'NONE', *, *, #184, .T. ) ;
#41 = CARTESIAN_POINT ( 'NONE',  ( -6.700000000000001066, 8.205133554287267548E-16, 7.699999999999985079 ) ) ;
#42 = VERTEX_POINT ( 'NONE', #165 ) ;
#43 = CARTESIAN_POINT ( 'NONE',  ( 0.000000000000000000, 0.000000000000000000, 0.000000000000000000 ) ) ;
#44 = CIRCLE ( 'NONE', #240, 6.000000000000000888 ) ;
#45 = ORIENTED_EDGE ( 'NONE', *, *, #311, .F. ) ;
#46 = ADVANCED_FACE ( 'NONE', ( #164 ), #225, .T. ) ;
#47 = CIRCLE ( 'NONE', #179, 0.7000000000000000666 ) ;
#48 = FACE_OUTER_BOUND ( 'NONE', #96, .T. ) ;
#49 = APPLICATION_PROTOCOL_DEFINITION ( 'international standard', 'config_control_design', 1994, #121 ) ;
#50 = ORIENTED_EDGE ( 'NONE', *, *, #107, .F. ) ;
#51 = CIRCLE ( 'NONE', #9, 4.099999999999999645 ) ;
#52 = PERSON_AND_ORGANIZATION ( #22, #379 ) ;
#53 = CC_DESIGN_APPROVAL ( #270, ( #253 ) ) ;
#54 = DIRECTION ( 'NONE',  ( 1.000000000000000000, 0.000000000000000000, -0.000000000000000000 ) ) ;
#55 = DIRECTION ( 'NONE',  ( 0.000000000000000000, 0.000000000000000000, 1.000000000000000000 ) ) ;
#56 = VECTOR ( 'NONE', #341, 1000.000000000000000 ) ;
#57 = SHAPE_DEFINITION_REPRESENTATION ( #63, #15 ) ;
#58 = DIRECTION ( 'NONE',  ( 0.000000000000000000, 0.000000000000000000, 1.000000000000000000 ) ) ;
#59 = CARTESIAN_POINT ( 'NONE',  ( -6.700000000000001066, 8.205133554287267548E-16, 6.999999999999992006 ) ) ;
#60 = ADVANCED_FACE ( 'NONE', ( #287 ), #19, .T. ) ;
#61 = PLANE ( 'NONE',  #31 ) ;
#62 = ORIENTED_EDGE ( 'NONE', *, *, #280, .F. ) ;
#63 = PRODUCT_DEFINITION_SHAPE ( 'NONE', 'NONE',  #253 ) ;
#64 = EDGE_CURVE ( 'NONE', #346, #212, #243, .T. ) ;
#65 = ORIENTED_EDGE ( 'NONE', *, *, #235, .T. ) ;
#66 = DIRECTION ( 'NONE',  ( -0.000000000000000000, -0.000000000000000000, -1.000000000000000000 ) ) ;
#67 = VERTEX_POINT ( 'NONE', #109 ) ;
#68 = VECTOR ( 'NONE', #321, 1000.000000000000000 ) ;
#69 = EDGE_CURVE ( 'NONE', #85, #303, #133, .T. ) ;
#70 = DIRECTION ( 'NONE',  ( -0.000000000000000000, -0.000000000000000000, -1.000000000000000000 ) ) ;
#71 = ORIENTED_EDGE ( 'NONE', *, *, #380, .F. ) ;
#72 = CC_DESIGN_PERSON_AND_ORGANIZATION_ASSIGNMENT ( #88, #145, ( #266 ) ) ;
#73 = ORIENTED_EDGE ( 'NONE', *, *, #39, .F. ) ;
#74 = FACE_OUTER_BOUND ( 'NONE', #10, .T. ) ;
#75 = ORIENTED_EDGE ( 'NONE', *, *, #207, .F. ) ;
#76 = CARTESIAN_POINT ( 'NONE',  ( 0.000000000000000000, 0.000000000000000000, 7.000000000000000000 ) ) ;
#77 = CC_DESIGN_APPROVAL ( #238, ( #266 ) ) ;
#78 = CARTESIAN_POINT ( 'NONE',  ( 0.000000000000000000, 0.000000000000000000, 307.0000000000000000 ) ) ;
#79 = PLANE ( 'NONE',  #360 ) ;
#80 = DIRECTION ( 'NONE',  ( 1.000000000000000000, 0.000000000000000000, 0.000000000000000000 ) ) ;
#81 =( GEOMETRIC_REPRESENTATION_CONTEXT ( 3 ) GLOBAL_UNCERTAINTY_ASSIGNED_CONTEXT ( ( #194 ) ) GLOBAL_UNIT_ASSIGNED_CONTEXT ( ( #84, #159, #134 ) ) REPRESENTATION_CONTEXT ( 'NONE', 'WORKASPACE' ) );
#82 = DIRECTION ( 'NONE',  ( 1.000000000000000000, 0.000000000000000000, 0.000000000000000000 ) ) ;
#83 = ORIENTED_EDGE ( 'NONE', *, *, #6, .F. ) ;
#84 =( LENGTH_UNIT ( ) NAMED_UNIT ( * ) SI_UNIT ( .MILLI., .METRE. ) );
#85 = VERTEX_POINT ( 'NONE', #365 ) ;
#86 = CIRCLE ( 'NONE', #295, 4.099999999999999645 ) ;
#87 = FACE_OUTER_BOUND ( 'NONE', #122, .T. ) ;
#88 = PERSON_AND_ORGANIZATION ( #22, #379 ) ;
#89 = DESIGN_CONTEXT ( 'detailed design', #129, 'design' ) ;
#90 = ORIENTED_EDGE ( 'NONE', *, *, #64, .T. ) ;
#91 = APPROVAL_STATUS ( 'not_yet_approved' ) ;
#92 = PERSON_AND_ORGANIZATION ( #22, #379 ) ;
#93 = CARTESIAN_POINT ( 'NONE',  ( 0.000000000000000000, 0.000000000000000000, 307.0000000000000000 ) ) ;
#94 = ORIENTED_EDGE ( 'NONE', *, *, #207, .T. ) ;
#95 = CARTESIAN_POINT ( 'NONE',  ( 4.099999999999999645, 5.021051876504147385E-16, 307.0000000000000000 ) ) ;
#96 = EDGE_LOOP ( 'NONE', ( #230, #190 ) ) ;
#97 = CIRCLE ( 'NONE', #132, 4.099999999999999645 ) ;
#98 = FACE_OUTER_BOUND ( 'NONE', #131, .T. ) ;
#99 = ORIENTED_EDGE ( 'NONE', *, *, #69, .F. ) ;
#100 = CARTESIAN_POINT ( 'NONE',  ( 6.000000000000000888, 7.347880794884120722E-16, 7.699999999999985079 ) ) ;
#101 = DIRECTION ( 'NONE',  ( 1.000000000000000000, 0.000000000000000000, 0.000000000000000000 ) ) ;
#102 = ORIENTED_EDGE ( 'NONE', *, *, #297, .T. ) ;
#103 = AXIS2_PLACEMENT_3D ( 'NONE', #264, #237, #20 ) ;
#104 = VECTOR ( 'NONE', #70, 1000.000000000000000 ) ;
#105 = EDGE_CURVE ( 'NONE', #32, #181, #44, .T. ) ;
#106 = DIRECTION ( 'NONE',  ( 1.000000000000000000, 0.000000000000000000, 0.000000000000000000 ) ) ;
#107 = EDGE_CURVE ( 'NONE', #212, #346, #223, .T. ) ;
#108 = DIRECTION ( 'NONE',  ( 1.000000000000000000, 0.000000000000000000, 0.000000000000000000 ) ) ;
#109 = CARTESIAN_POINT ( 'NONE',  ( -10.00000000000000000, 0.000000000000000000, 7.000000000000000000 ) ) ;
#110 = EDGE_CURVE ( 'NONE', #152, #281, #169, .T. ) ;
#111 = PERSON_AND_ORGANIZATION ( #22, #379 ) ;
#112 = DIRECTION ( 'NONE',  ( 1.000000000000000000, 0.000000000000000000, 0.000000000000000000 ) ) ;
#113 = DATE_AND_TIME ( #167, #34 ) ;
#114 = AXIS2_PLACEMENT_3D ( 'NONE', #43, #214, #347 ) ;
#115 = CARTESIAN_POINT ( 'NONE',  ( 0.000000000000000000, 0.000000000000000000, 7.699999999999985079 ) ) ;
#116 = EDGE_CURVE ( 'NONE', #323, #193, #268, .T. ) ;
#117 = COORDINATED_UNIVERSAL_TIME_OFFSET ( 1, 0, .AHEAD. ) ;
#118 = FACE_OUTER_BOUND ( 'NONE', #17, .T. ) ;
#119 = PRODUCT_RELATED_PRODUCT_CATEGORY ( 'detail', '', ( #315 ) ) ;
#120 = CC_DESIGN_SECURITY_CLASSIFICATION ( #189, ( #266 ) ) ;
#121 = APPLICATION_CONTEXT ( 'configuration controlled 3d designs of mechanical parts and assemblies' ) ;
#122 = EDGE_LOOP ( 'NONE', ( #200, #206, #241, #75 ) ) ;
#123 = ADVANCED_FACE ( 'NONE', ( #118 ), #171, .F. ) ;
#124 = DIRECTION ( 'NONE',  ( 1.000000000000000000, 0.000000000000000000, 0.000000000000000000 ) ) ;
#125 = ORIENTED_EDGE ( 'NONE', *, *, #339, .F. ) ;
#126 = DIRECTION ( 'NONE',  ( 1.000000000000000000, 0.000000000000000000, 0.000000000000000000 ) ) ;
#127 = ORIENTED_EDGE ( 'NONE', *, *, #69, .T. ) ;
#128 = DIRECTION ( 'NONE',  ( -1.000000000000000000, 0.000000000000000000, 0.000000000000000000 ) ) ;
#129 = APPLICATION_CONTEXT ( 'configuration controlled 3d designs of mechanical parts and assemblies' ) ;
#130 = CARTESIAN_POINT ( 'NONE',  ( 6.700000000000001066, 0.000000000000000000, 6.999999999999992006 ) ) ;
#131 = EDGE_LOOP ( 'NONE', ( #102, #177, #3, #99 ) ) ;
#132 = AXIS2_PLACEMENT_3D ( 'NONE', #242, #8, #101 ) ;
#133 = LINE ( 'NONE', #305, #211 ) ;
#134 =( NAMED_UNIT ( * ) SI_UNIT ( $, .STERADIAN. ) SOLID_ANGLE_UNIT ( ) );
#135 = CC_DESIGN_PERSON_AND_ORGANIZATION_ASSIGNMENT ( #52, #229, ( #315 ) ) ;
#136 = CARTESIAN_POINT ( 'NONE',  ( 0.000000000000000000, 0.000000000000000000, 0.000000000000000000 ) ) ;
#137 = DIRECTION ( 'NONE',  ( -0.000000000000000000, -0.000000000000000000, -1.000000000000000000 ) ) ;
#138 = DIRECTION ( 'NONE',  ( -1.000000000000000000, 0.000000000000000000, 0.000000000000000000 ) ) ;
#139 = EDGE_LOOP ( 'NONE', ( #62, #296, #221, #244 ) ) ;
#140 = DIRECTION ( 'NONE',  ( -0.000000000000000000, -0.000000000000000000, -1.000000000000000000 ) ) ;
#141 = CALENDAR_DATE ( 2022, 8, 7 ) ;
#142 = CARTESIAN_POINT ( 'NONE',  ( 0.000000000000000000, 0.000000000000000000, 7.000000000000000000 ) ) ;
#143 = LOCAL_TIME ( 16, 34, 16.00000000000000000, #210 ) ;
#144 = CARTESIAN_POINT ( 'NONE',  ( 6.700000000000001066, 0.000000000000000000, 7.699999999999985079 ) ) ;
#145 = PERSON_AND_ORGANIZATION_ROLE ( 'creator' ) ;
#146 = CARTESIAN_POINT ( 'NONE',  ( 10.00000000000000000, 1.224646799147353256E-15, 7.000000000000000000 ) ) ;
#147 = LINE ( 'NONE', #374, #68 ) ;
#148 = AXIS2_PLACEMENT_3D ( 'NONE', #142, #378, #319 ) ;
#149 = APPROVAL_PERSON_ORGANIZATION ( #11, #270, #316 ) ;
#150 = EDGE_CURVE ( 'NONE', #152, #67, #24, .T. ) ;
#151 = LINE ( 'NONE', #155, #290 ) ;
#152 = VERTEX_POINT ( 'NONE', #146 ) ;
#153 = AXIS2_PLACEMENT_3D ( 'NONE', #25, #343, #172 ) ;
#154 = ORIENTED_EDGE ( 'NONE', *, *, #245, .T. ) ;
#155 = CARTESIAN_POINT ( 'NONE',  ( 4.099999999999999645, 5.021051876504147385E-16, 307.0000000000000000 ) ) ;
#156 = CC_DESIGN_DATE_AND_TIME_ASSIGNMENT ( #236, #367, ( #253 ) ) ;
#157 = AXIS2_PLACEMENT_3D ( 'NONE', #285, #368, #363 ) ;
#158 = EDGE_LOOP ( 'NONE', ( #71, #331, #90, #83 ) ) ;
#159 =( NAMED_UNIT ( * ) PLANE_ANGLE_UNIT ( ) SI_UNIT ( $, .RADIAN. ) );
#160 = CARTESIAN_POINT ( 'NONE',  ( 0.000000000000000000, 0.000000000000000000, 307.0000000000000000 ) ) ;
#161 = AXIS2_PLACEMENT_3D ( 'NONE', #78, #227, #80 ) ;
#162 = ADVANCED_FACE ( 'NONE', ( #87 ), #262, .T. ) ;
#163 = DIRECTION ( 'NONE',  ( -1.000000000000000000, 0.000000000000000000, 0.000000000000000000 ) ) ;
#164 = FACE_OUTER_BOUND ( 'NONE', #352, .T. ) ;
#165 = CARTESIAN_POINT ( 'NONE',  ( 4.099999999999999645, 5.021051876504147385E-16, 0.000000000000000000 ) ) ;
#166 = CC_DESIGN_PERSON_AND_ORGANIZATION_ASSIGNMENT ( #176, #255, ( #253 ) ) ;
#167 = CALENDAR_DATE ( 2022, 8, 7 ) ;
#168 = AXIS2_PLACEMENT_3D ( 'NONE', #115, #58, #209 ) ;
#169 = LINE ( 'NONE', #234, #56 ) ;
#170 = DATE_TIME_ROLE ( 'classification_date' ) ;
#171 = TOROIDAL_SURFACE ( 'NONE', #103, 6.700000000000001066, 0.6999999999999999556 ) ;
#172 = DIRECTION ( 'NONE',  ( 1.000000000000000000, 0.000000000000000000, 0.000000000000000000 ) ) ;
#173 = APPROVAL_STATUS ( 'not_yet_approved' ) ;
#174 = AXIS2_PLACEMENT_3D ( 'NONE', #351, #273, #328 ) ;
#175 = DIRECTION ( 'NONE',  ( 1.000000000000000000, 0.000000000000000000, -0.000000000000000000 ) ) ;
#176 = PERSON_AND_ORGANIZATION ( #22, #379 ) ;
#177 = ORIENTED_EDGE ( 'NONE', *, *, #318, .T. ) ;
#178 = CARTESIAN_POINT ( 'NONE',  ( 0.000000000000000000, 0.000000000000000000, 7.000000000000000000 ) ) ;
#179 = AXIS2_PLACEMENT_3D ( 'NONE', #41, #348, #330 ) ;
#180 = DIRECTION ( 'NONE',  ( 1.000000000000000000, 0.000000000000000000, 0.000000000000000000 ) ) ;
#181 = VERTEX_POINT ( 'NONE', #340 ) ;
#182 = DIRECTION ( 'NONE',  ( 1.000000000000000000, 0.000000000000000000, 0.000000000000000000 ) ) ;
#183 = ORIENTED_EDGE ( 'NONE', *, *, #283, .T. ) ;
#184 = EDGE_CURVE ( 'NONE', #346, #323, #309, .T. ) ;
#185 = CARTESIAN_POINT ( 'NONE',  ( -10.00000000000000000, 0.000000000000000000, 0.000000000000000000 ) ) ;
#186 = CC_DESIGN_DATE_AND_TIME_ASSIGNMENT ( #313, #170, ( #189 ) ) ;
#187 = PLANE ( 'NONE',  #33 ) ;
#188 = ORIENTED_EDGE ( 'NONE', *, *, #265, .T. ) ;
#189 = SECURITY_CLASSIFICATION ( '', '', #286 ) ;
#190 = ORIENTED_EDGE ( 'NONE', *, *, #380, .T. ) ;
#191 = AXIS2_PLACEMENT_3D ( 'NONE', #16, #140, #138 ) ;
#192 = DIRECTION ( 'NONE',  ( -0.000000000000000000, -0.000000000000000000, -1.000000000000000000 ) ) ;
#193 = VERTEX_POINT ( 'NONE', #59 ) ;
#194 = UNCERTAINTY_MEASURE_WITH_UNIT (LENGTH_MEASURE( 1.000000000000000082E-05 ), #84, 'distance_accuracy_value', 'NONE');
#195 = LOCAL_TIME ( 16, 34, 16.00000000000000000, #292 ) ;
#196 = DIRECTION ( 'NONE',  ( 0.000000000000000000, 0.000000000000000000, 1.000000000000000000 ) ) ;
#197 = CARTESIAN_POINT ( 'NONE',  ( 0.000000000000000000, 0.000000000000000000, 0.000000000000000000 ) ) ;
#198 = ORIENTED_EDGE ( 'NONE', *, *, #116, .F. ) ;
#199 = ADVANCED_FACE ( 'NONE', ( #205, #371 ), #61, .F. ) ;
#200 = ORIENTED_EDGE ( 'NONE', *, *, #150, .F. ) ;
#201 = CIRCLE ( 'NONE', #174, 10.00000000000000000 ) ;
#202 = APPROVAL_DATE_TIME ( #338, #307 ) ;
#203 = DIRECTION ( 'NONE',  ( 0.000000000000000000, -1.000000000000000000, 0.000000000000000000 ) ) ;
#204 = PERSON_AND_ORGANIZATION_ROLE ( 'design_supplier' ) ;
#205 = FACE_BOUND ( 'NONE', #7, .T. ) ;
#206 = ORIENTED_EDGE ( 'NONE', *, *, #110, .T. ) ;
#207 = EDGE_CURVE ( 'NONE', #67, #269, #147, .T. ) ;
#208 = PERSON_AND_ORGANIZATION_ROLE ( 'classification_officer' ) ;
#209 = DIRECTION ( 'NONE',  ( 1.000000000000000000, 0.000000000000000000, 0.000000000000000000 ) ) ;
#210 = COORDINATED_UNIVERSAL_TIME_OFFSET ( 1, 0, .AHEAD. ) ;
#211 = VECTOR ( 'NONE', #254, 1000.000000000000000 ) ;
#212 = VERTEX_POINT ( 'NONE', #345 ) ;
#213 = CARTESIAN_POINT ( 'NONE',  ( 6.000000000000000888, 7.347880794884120722E-16, 307.0000000000000000 ) ) ;
#214 = DIRECTION ( 'NONE',  ( 0.000000000000000000, 0.000000000000000000, 1.000000000000000000 ) ) ;
#215 = DIRECTION ( 'NONE',  ( 0.000000000000000000, 0.000000000000000000, 1.000000000000000000 ) ) ;
#216 = CLOSED_SHELL ( 'NONE', ( #344, #370, #366, #162, #46, #353, #199, #60, #36, #123, #233 ) ) ;
#217 = CC_DESIGN_PERSON_AND_ORGANIZATION_ASSIGNMENT ( #92, #204, ( #266 ) ) ;
#218 = FACE_BOUND ( 'NONE', #327, .T. ) ;
#219 = DIRECTION ( 'NONE',  ( -0.000000000000000000, -0.000000000000000000, -1.000000000000000000 ) ) ;
#220 = CIRCLE ( 'NONE', #372, 4.099999999999999645 ) ;
#221 = ORIENTED_EDGE ( 'NONE', *, *, #6, .T. ) ;
#222 = FACE_BOUND ( 'NONE', #355, .T. ) ;
#223 = CIRCLE ( 'NONE', #168, 6.000000000000000888 ) ;
#224 = DIRECTION ( 'NONE',  ( -1.000000000000000000, 0.000000000000000000, 0.000000000000000000 ) ) ;
#225 = CYLINDRICAL_SURFACE ( 'NONE', #27, 10.00000000000000000 ) ;
#226 = AXIS2_PLACEMENT_3D ( 'NONE', #300, #5, #128 ) ;
#227 = DIRECTION ( 'NONE',  ( 0.000000000000000000, 0.000000000000000000, 1.000000000000000000 ) ) ;
#228 = CARTESIAN_POINT ( 'NONE',  ( 0.000000000000000000, 0.000000000000000000, 7.000000000000000000 ) ) ;
#229 = PERSON_AND_ORGANIZATION_ROLE ( 'design_owner' ) ;
#230 = ORIENTED_EDGE ( 'NONE', *, *, #105, .T. ) ;
#231 = CALENDAR_DATE ( 2022, 8, 7 ) ;
#232 = AXIS2_PLACEMENT_3D ( 'NONE', #381, #66, #182 ) ;
#233 = ADVANCED_FACE ( 'NONE', ( #317 ), #376, .F. ) ;
#234 = CARTESIAN_POINT ( 'NONE',  ( 10.00000000000000000, 1.224646799147353256E-15, 7.000000000000000000 ) ) ;
#235 = EDGE_CURVE ( 'NONE', #193, #323, #259, .T. ) ;
#236 = DATE_AND_TIME ( #141, #195 ) ;
#237 = DIRECTION ( 'NONE',  ( 0.000000000000000000, 0.000000000000000000, 1.000000000000000000 ) ) ;
#238 = APPROVAL ( #173, 'NEURÈENÝ' ) ;
#239 = DIRECTION ( 'NONE',  ( 0.000000000000000000, 0.000000000000000000, 1.000000000000000000 ) ) ;
#240 = AXIS2_PLACEMENT_3D ( 'NONE', #160, #289, #112 ) ;
#241 = ORIENTED_EDGE ( 'NONE', *, *, #311, .T. ) ;
#242 = CARTESIAN_POINT ( 'NONE',  ( 0.000000000000000000, 0.000000000000000000, 307.0000000000000000 ) ) ;
#243 = CIRCLE ( 'NONE', #157, 6.000000000000000888 ) ;
#244 = ORIENTED_EDGE ( 'NONE', *, *, #107, .T. ) ;
#245 = EDGE_CURVE ( 'NONE', #67, #152, #306, .T. ) ;
#246 = DIRECTION ( 'NONE',  ( 1.000000000000000000, 0.000000000000000000, -0.000000000000000000 ) ) ;
#247 = AXIS2_PLACEMENT_3D ( 'NONE', #93, #294, #30 ) ;
#248 = VERTEX_POINT ( 'NONE', #95 ) ;
#249 = DIRECTION ( 'NONE',  ( 0.000000000000000000, 0.000000000000000000, 1.000000000000000000 ) ) ;
#250 = DIRECTION ( 'NONE',  ( 0.000000000000000000, 0.000000000000000000, 1.000000000000000000 ) ) ;
#251 = ORIENTED_EDGE ( 'NONE', *, *, #64, .F. ) ;
#252 = AXIS2_PLACEMENT_3D ( 'NONE', #178, #55, #29 ) ;
#253 = PRODUCT_DEFINITION ( 'NEZNÁMÝ', '', #266, #89 ) ;
#254 = DIRECTION ( 'NONE',  ( 0.000000000000000000, 0.000000000000000000, -1.000000000000000000 ) ) ;
#255 = PERSON_AND_ORGANIZATION_ROLE ( 'creator' ) ;
#256 = EDGE_CURVE ( 'NONE', #269, #281, #278, .T. ) ;
#257 = PERSON_AND_ORGANIZATION ( #22, #379 ) ;
#258 = DIRECTION ( 'NONE',  ( 0.000000000000000000, 0.000000000000000000, 1.000000000000000000 ) ) ;
#259 = CIRCLE ( 'NONE', #232, 6.700000000000001066 ) ;
#260 = LOCAL_TIME ( 16, 34, 16.00000000000000000, #117 ) ;
#261 = APPROVAL_ROLE ( '' ) ;
#262 = CYLINDRICAL_SURFACE ( 'NONE', #148, 10.00000000000000000 ) ;
#263 = PERSON_AND_ORGANIZATION ( #22, #379 ) ;
#264 = CARTESIAN_POINT ( 'NONE',  ( 0.000000000000000000, 0.000000000000000000, 7.699999999999985079 ) ) ;
#265 = EDGE_CURVE ( 'NONE', #212, #193, #47, .T. ) ;
#266 = PRODUCT_DEFINITION_FORMATION_WITH_SPECIFIED_SOURCE ( 'LIBOVOLNÝ', '', #315, .NOT_KNOWN. ) ;
#267 = DIRECTION ( 'NONE',  ( 0.000000000000000000, 0.000000000000000000, -1.000000000000000000 ) ) ;
#268 = CIRCLE ( 'NONE', #153, 6.700000000000001066 ) ;
#269 = VERTEX_POINT ( 'NONE', #185 ) ;
#270 = APPROVAL ( #91, 'NEURÈENÝ' ) ;
#271 = ORIENTED_EDGE ( 'NONE', *, *, #235, .F. ) ;
#272 = CIRCLE ( 'NONE', #161, 6.000000000000000888 ) ;
#273 = DIRECTION ( 'NONE',  ( 0.000000000000000000, 0.000000000000000000, 1.000000000000000000 ) ) ;
#274 = CC_DESIGN_APPROVAL ( #307, ( #189 ) ) ;
#275 = CARTESIAN_POINT ( 'NONE',  ( 0.000000000000000000, 0.000000000000000000, 0.000000000000000000 ) ) ;
#276 = ORIENTED_EDGE ( 'NONE', *, *, #184, .F. ) ;
#277 = VECTOR ( 'NONE', #308, 1000.000000000000000 ) ;
#278 = CIRCLE ( 'NONE', #114, 10.00000000000000000 ) ;
#279 = APPROVAL_PERSON_ORGANIZATION ( #111, #307, #261 ) ;
#280 = EDGE_CURVE ( 'NONE', #181, #346, #2, .T. ) ;
#281 = VERTEX_POINT ( 'NONE', #354 ) ;
#282 = CARTESIAN_POINT ( 'NONE',  ( 0.000000000000000000, 0.000000000000000000, 307.0000000000000000 ) ) ;
#283 = EDGE_CURVE ( 'NONE', #248, #85, #86, .T. ) ;
#284 = FACE_OUTER_BOUND ( 'NONE', #322, .T. ) ;
#285 = CARTESIAN_POINT ( 'NONE',  ( 0.000000000000000000, 0.000000000000000000, 7.699999999999985079 ) ) ;
#286 = SECURITY_CLASSIFICATION_LEVEL ( 'unclassified' ) ;
#287 = FACE_OUTER_BOUND ( 'NONE', #139, .T. ) ;
#288 = DATE_AND_TIME ( #369, #143 ) ;
#289 = DIRECTION ( 'NONE',  ( 0.000000000000000000, 0.000000000000000000, 1.000000000000000000 ) ) ;
#290 = VECTOR ( 'NONE', #267, 1000.000000000000000 ) ;
#291 = APPROVAL_DATE_TIME ( #113, #238 ) ;
#292 = COORDINATED_UNIVERSAL_TIME_OFFSET ( 1, 0, .AHEAD. ) ;
#293 = DIRECTION ( 'NONE',  ( 0.000000000000000000, 0.000000000000000000, -1.000000000000000000 ) ) ;
#294 = DIRECTION ( 'NONE',  ( 0.000000000000000000, 0.000000000000000000, -1.000000000000000000 ) ) ;
#295 = AXIS2_PLACEMENT_3D ( 'NONE', #298, #215, #126 ) ;
#296 = ORIENTED_EDGE ( 'NONE', *, *, #105, .F. ) ;
#297 = EDGE_CURVE ( 'NONE', #85, #248, #97, .T. ) ;
#298 = CARTESIAN_POINT ( 'NONE',  ( 0.000000000000000000, 0.000000000000000000, 307.0000000000000000 ) ) ;
#299 = ORIENTED_EDGE ( 'NONE', *, *, #110, .F. ) ;
#300 = CARTESIAN_POINT ( 'NONE',  ( 0.000000000000000000, 0.000000000000000000, 307.0000000000000000 ) ) ;
#301 = ORIENTED_EDGE ( 'NONE', *, *, #256, .F. ) ;
#302 = CARTESIAN_POINT ( 'NONE',  ( 0.000000000000000000, 0.000000000000000000, 7.000000000000000000 ) ) ;
#303 = VERTEX_POINT ( 'NONE', #37 ) ;
#304 = EDGE_LOOP ( 'NONE', ( #329, #183, #127, #342 ) ) ;
#305 = CARTESIAN_POINT ( 'NONE',  ( -4.099999999999999645, 0.000000000000000000, 307.0000000000000000 ) ) ;
#306 = CIRCLE ( 'NONE', #13, 10.00000000000000000 ) ;
#307 = APPROVAL ( #23, 'NEURÈENÝ' ) ;
#308 = DIRECTION ( 'NONE',  ( -0.000000000000000000, -0.000000000000000000, -1.000000000000000000 ) ) ;
#309 = CIRCLE ( 'NONE', #356, 0.7000000000000000666 ) ;
#310 = CARTESIAN_POINT ( 'NONE',  ( 0.000000000000000000, 0.000000000000000000, 307.0000000000000000 ) ) ;
#311 = EDGE_CURVE ( 'NONE', #281, #269, #201, .T. ) ;
#312 = APPROVAL_PERSON_ORGANIZATION ( #257, #238, #26 ) ;
#313 = DATE_AND_TIME ( #18, #373 ) ;
#314 = CARTESIAN_POINT ( 'NONE',  ( 0.000000000000000000, 0.000000000000000000, 0.000000000000000000 ) ) ;
#315 = PRODUCT ( 'b10e', 'b10e', '', ( #337 ) ) ;
#316 = APPROVAL_ROLE ( '' ) ;
#317 = FACE_OUTER_BOUND ( 'NONE', #304, .T. ) ;
#318 = EDGE_CURVE ( 'NONE', #248, #42, #151, .T. ) ;
#319 = DIRECTION ( 'NONE',  ( -1.000000000000000000, 0.000000000000000000, 0.000000000000000000 ) ) ;
#320 = APPROVAL_DATE_TIME ( #288, #270 ) ;
#321 = DIRECTION ( 'NONE',  ( -0.000000000000000000, -0.000000000000000000, -1.000000000000000000 ) ) ;
#322 = EDGE_LOOP ( 'NONE', ( #50, #188, #198, #276 ) ) ;
#323 = VERTEX_POINT ( 'NONE', #130 ) ;
#324 = ORIENTED_EDGE ( 'NONE', *, *, #265, .F. ) ;
#325 = MANIFOLD_SOLID_BREP ( 'Odebrat vysunutím3', #216 ) ;
#326 = CYLINDRICAL_SURFACE ( 'NONE', #226, 4.099999999999999645 ) ;
#327 = EDGE_LOOP ( 'NONE', ( #1, #65 ) ) ;
#328 = DIRECTION ( 'NONE',  ( 1.000000000000000000, 0.000000000000000000, 0.000000000000000000 ) ) ;
#329 = ORIENTED_EDGE ( 'NONE', *, *, #318, .F. ) ;
#330 = DIRECTION ( 'NONE',  ( -1.000000000000000000, 1.224646799147353454E-16, 0.000000000000000000 ) ) ;
#331 = ORIENTED_EDGE ( 'NONE', *, *, #280, .T. ) ;
#332 = CYLINDRICAL_SURFACE ( 'NONE', #335, 6.000000000000000888 ) ;
#333 = CARTESIAN_POINT ( 'NONE',  ( -6.000000000000000888, 0.000000000000000000, 307.0000000000000000 ) ) ;
#334 = DIRECTION ( 'NONE',  ( 0.000000000000000000, 0.000000000000000000, 1.000000000000000000 ) ) ;
#335 = AXIS2_PLACEMENT_3D ( 'NONE', #282, #137, #224 ) ;
#336 = CARTESIAN_POINT ( 'NONE',  ( -6.000000000000000888, 0.000000000000000000, 307.0000000000000000 ) ) ;
#337 = MECHANICAL_CONTEXT ( 'NONE', #121, 'mechanical' ) ;
#338 = DATE_AND_TIME ( #231, #260 ) ;
#339 = EDGE_CURVE ( 'NONE', #42, #303, #220, .T. ) ;
#340 = CARTESIAN_POINT ( 'NONE',  ( 6.000000000000000888, 7.347880794884120722E-16, 307.0000000000000000 ) ) ;
#341 = DIRECTION ( 'NONE',  ( -0.000000000000000000, -0.000000000000000000, -1.000000000000000000 ) ) ;
#342 = ORIENTED_EDGE ( 'NONE', *, *, #39, .T. ) ;
#343 = DIRECTION ( 'NONE',  ( -0.000000000000000000, -0.000000000000000000, -1.000000000000000000 ) ) ;
#344 = ADVANCED_FACE ( 'NONE', ( #98 ), #326, .F. ) ;
#345 = CARTESIAN_POINT ( 'NONE',  ( -6.000000000000000888, 0.000000000000000000, 7.699999999999985079 ) ) ;
#346 = VERTEX_POINT ( 'NONE', #100 ) ;
#347 = DIRECTION ( 'NONE',  ( 1.000000000000000000, 0.000000000000000000, 0.000000000000000000 ) ) ;
#348 = DIRECTION ( 'NONE',  ( 1.224646799147353207E-16, 1.000000000000000000, -0.000000000000000000 ) ) ;
#349 = ORIENTED_EDGE ( 'NONE', *, *, #150, .T. ) ;
#350 = AXIS2_PLACEMENT_3D ( 'NONE', #197, #334, #82 ) ;
#351 = CARTESIAN_POINT ( 'NONE',  ( 0.000000000000000000, 0.000000000000000000, 0.000000000000000000 ) ) ;
#352 = EDGE_LOOP ( 'NONE', ( #299, #12, #94, #359 ) ) ;
#353 = ADVANCED_FACE ( 'NONE', ( #218, #74 ), #187, .T. ) ;
#354 = CARTESIAN_POINT ( 'NONE',  ( 10.00000000000000000, 1.224646799147353256E-15, 0.000000000000000000 ) ) ;
#355 = EDGE_LOOP ( 'NONE', ( #35, #38 ) ) ;
#356 = AXIS2_PLACEMENT_3D ( 'NONE', #144, #203, #293 ) ;
#357 = AXIS2_PLACEMENT_3D ( 'NONE', #362, #250, #106 ) ;
#358 = FACE_OUTER_BOUND ( 'NONE', #158, .T. ) ;
#359 = ORIENTED_EDGE ( 'NONE', *, *, #256, .T. ) ;
#360 = AXIS2_PLACEMENT_3D ( 'NONE', #310, #196, #54 ) ;
#361 = DIRECTION ( 'NONE',  ( -0.000000000000000000, -0.000000000000000000, -1.000000000000000000 ) ) ;
#362 = CARTESIAN_POINT ( 'NONE',  ( 0.000000000000000000, 0.000000000000000000, 7.699999999999985079 ) ) ;
#363 = DIRECTION ( 'NONE',  ( 1.000000000000000000, 0.000000000000000000, 0.000000000000000000 ) ) ;
#364 = APPLICATION_PROTOCOL_DEFINITION ( 'international standard', 'config_control_design', 1994, #129 ) ;
#365 = CARTESIAN_POINT ( 'NONE',  ( -4.099999999999999645, 0.000000000000000000, 307.0000000000000000 ) ) ;
#366 = ADVANCED_FACE ( 'NONE', ( #358 ), #332, .T. ) ;
#367 = DATE_TIME_ROLE ( 'creation_date' ) ;
#368 = DIRECTION ( 'NONE',  ( 0.000000000000000000, 0.000000000000000000, 1.000000000000000000 ) ) ;
#369 = CALENDAR_DATE ( 2022, 8, 7 ) ;
#370 = ADVANCED_FACE ( 'NONE', ( #284 ), #4, .F. ) ;
#371 = FACE_OUTER_BOUND ( 'NONE', #21, .T. ) ;
#372 = AXIS2_PLACEMENT_3D ( 'NONE', #275, #219, #124 ) ;
#373 = LOCAL_TIME ( 16, 34, 16.00000000000000000, #377 ) ;
#374 = CARTESIAN_POINT ( 'NONE',  ( -10.00000000000000000, 0.000000000000000000, 7.000000000000000000 ) ) ;
#375 = CC_DESIGN_PERSON_AND_ORGANIZATION_ASSIGNMENT ( #263, #208, ( #189 ) ) ;
#376 = CYLINDRICAL_SURFACE ( 'NONE', #247, 4.099999999999999645 ) ;
#377 = COORDINATED_UNIVERSAL_TIME_OFFSET ( 1, 0, .AHEAD. ) ;
#378 = DIRECTION ( 'NONE',  ( -0.000000000000000000, -0.000000000000000000, -1.000000000000000000 ) ) ;
#379 = ORGANIZATION ( 'NEURÈENÝ', 'NEURÈENÝ', '' ) ;
#380 = EDGE_CURVE ( 'NONE', #181, #32, #272, .T. ) ;
#381 = CARTESIAN_POINT ( 'NONE',  ( 0.000000000000000000, 0.000000000000000000, 7.000000000000000000 ) ) ;
ENDSEC;
END-ISO-10303-21;
