ISO-10303-21;
HEADER;
FILE_DESCRIPTION (( 'STEP AP203' ),
    '1' );
FILE_NAME ('1686.STEP',
    '2022-07-08T15:23:34',
    ( '' ),
    ( '' ),
    'SwSTEP 2.0',
    'SolidWorks 2019',
    '' );
FILE_SCHEMA (( 'CONFIG_CONTROL_DESIGN' ));
ENDSEC;

DATA;
#1 = DIRECTION ( 'NONE',  ( -0.000000000000000000, -0.000000000000000000, -1.000000000000000000 ) ) ;
#2 = DIRECTION ( 'NONE',  ( -0.000000000000000000, -0.000000000000000000, -1.000000000000000000 ) ) ;
#3 = ADVANCED_FACE ( 'NONE', ( #165, #50 ), #192, .T. ) ;
#4 = DIRECTION ( 'NONE',  ( -1.000000000000000000, 0.000000000000000000, 0.000000000000000000 ) ) ;
#5 = LOCAL_TIME ( 17, 23, 34.00000000000000000, #185 ) ;
#6 = ORIENTED_EDGE ( 'NONE', *, *, #235, .F. ) ;
#7 = COORDINATED_UNIVERSAL_TIME_OFFSET ( 1, 0, .AHEAD. ) ;
#8 = ORIENTED_EDGE ( 'NONE', *, *, #188, .F. ) ;
#9 = CIRCLE ( 'NONE', #208, 2.250000000000000000 ) ;
#10 = PERSON_AND_ORGANIZATION ( #162, #287 ) ;
#11 = ORIENTED_EDGE ( 'NONE', *, *, #369, .F. ) ;
#12 = AXIS2_PLACEMENT_3D ( 'NONE', #258, #378, #60 ) ;
#13 = APPROVAL_ROLE ( '' ) ;
#14 = CC_DESIGN_DATE_AND_TIME_ASSIGNMENT ( #248, #251, ( #351 ) ) ;
#15 = EDGE_LOOP ( 'NONE', ( #230, #58, #155, #228 ) ) ;
#16 = DIRECTION ( 'NONE',  ( 1.000000000000000000, 0.000000000000000000, 0.000000000000000000 ) ) ;
#17 = EDGE_CURVE ( 'NONE', #44, #99, #122, .T. ) ;
#18 = DIRECTION ( 'NONE',  ( 0.000000000000000000, 0.000000000000000000, 1.000000000000000000 ) ) ;
#19 = DIRECTION ( 'NONE',  ( 0.000000000000000000, 0.000000000000000000, 1.000000000000000000 ) ) ;
#20 = CIRCLE ( 'NONE', #37, 7.000000000000000000 ) ;
#21 = ORIENTED_EDGE ( 'NONE', *, *, #198, .F. ) ;
#22 = EDGE_CURVE ( 'NONE', #327, #365, #160, .T. ) ;
#23 = CARTESIAN_POINT ( 'NONE',  ( 0.000000000000000000, 0.000000000000000000, 0.000000000000000000 ) ) ;
#24 = CARTESIAN_POINT ( 'NONE',  ( -4.000000000000000000, 0.000000000000000000, 305.0000000000000000 ) ) ;
#25 = VECTOR ( 'NONE', #379, 1000.000000000000000 ) ;
#26 = FACE_BOUND ( 'NONE', #190, .T. ) ;
#27 = EDGE_CURVE ( 'NONE', #212, #179, #373, .T. ) ;
#28 = FACE_OUTER_BOUND ( 'NONE', #121, .T. ) ;
#29 = VERTEX_POINT ( 'NONE', #134 ) ;
#30 = LINE ( 'NONE', #263, #224 ) ;
#31 = CIRCLE ( 'NONE', #72, 2.250000000000000000 ) ;
#32 = DATE_TIME_ROLE ( 'creation_date' ) ;
#33 = UNCERTAINTY_MEASURE_WITH_UNIT (LENGTH_MEASURE( 1.000000000000000082E-05 ), #116, 'distance_accuracy_value', 'NONE');
#34 = PERSON_AND_ORGANIZATION ( #162, #287 ) ;
#35 = ORIENTED_EDGE ( 'NONE', *, *, #22, .T. ) ;
#36 = CC_DESIGN_PERSON_AND_ORGANIZATION_ASSIGNMENT ( #220, #244, ( #117 ) ) ;
#37 = AXIS2_PLACEMENT_3D ( 'NONE', #23, #112, #313 ) ;
#38 = CARTESIAN_POINT ( 'NONE',  ( -4.000000000000000000, 0.000000000000000000, 305.0000000000000000 ) ) ;
#39 = ORIENTED_EDGE ( 'NONE', *, *, #325, .F. ) ;
#40 = DIRECTION ( 'NONE',  ( 1.000000000000000000, 0.000000000000000000, 0.000000000000000000 ) ) ;
#41 = ORIENTED_EDGE ( 'NONE', *, *, #27, .F. ) ;
#42 = AXIS2_PLACEMENT_3D ( 'NONE', #166, #283, #333 ) ;
#43 = SHAPE_DEFINITION_REPRESENTATION ( #196, #366 ) ;
#44 = VERTEX_POINT ( 'NONE', #253 ) ;
#45 = VECTOR ( 'NONE', #2, 1000.000000000000000 ) ;
#46 = FACE_OUTER_BOUND ( 'NONE', #94, .T. ) ;
#47 = DIRECTION ( 'NONE',  ( 1.000000000000000000, 0.000000000000000000, 0.000000000000000000 ) ) ;
#48 = CC_DESIGN_PERSON_AND_ORGANIZATION_ASSIGNMENT ( #331, #64, ( #254 ) ) ;
#49 = AXIS2_PLACEMENT_3D ( 'NONE', #189, #52, #343 ) ;
#50 = FACE_OUTER_BOUND ( 'NONE', #150, .T. ) ;
#51 = ORIENTED_EDGE ( 'NONE', *, *, #173, .T. ) ;
#52 = DIRECTION ( 'NONE',  ( 0.000000000000000000, 0.000000000000000000, 1.000000000000000000 ) ) ;
#53 = FACE_OUTER_BOUND ( 'NONE', #241, .T. ) ;
#54 = DIRECTION ( 'NONE',  ( 0.000000000000000000, 0.000000000000000000, 1.000000000000000000 ) ) ;
#55 = CIRCLE ( 'NONE', #256, 4.500000000000000888 ) ;
#56 = LINE ( 'NONE', #205, #25 ) ;
#57 = EDGE_CURVE ( 'NONE', #86, #99, #368, .T. ) ;
#58 = ORIENTED_EDGE ( 'NONE', *, *, #22, .F. ) ;
#59 = DIRECTION ( 'NONE',  ( 0.000000000000000000, 0.000000000000000000, 1.000000000000000000 ) ) ;
#60 = DIRECTION ( 'NONE',  ( 1.000000000000000000, 0.000000000000000000, 0.000000000000000000 ) ) ;
#61 = DIRECTION ( 'NONE',  ( 0.000000000000000000, 0.000000000000000000, 1.000000000000000000 ) ) ;
#62 = EDGE_CURVE ( 'NONE', #114, #337, #159, .T. ) ;
#63 = ORIENTED_EDGE ( 'NONE', *, *, #104, .F. ) ;
#64 = PERSON_AND_ORGANIZATION_ROLE ( 'design_owner' ) ;
#65 = EDGE_LOOP ( 'NONE', ( #210, #63 ) ) ;
#66 = APPROVAL_PERSON_ORGANIZATION ( #278, #330, #13 ) ;
#67 = DIRECTION ( 'NONE',  ( 1.000000000000000000, 0.000000000000000000, 0.000000000000000000 ) ) ;
#68 = ORIENTED_EDGE ( 'NONE', *, *, #62, .F. ) ;
#69 = COORDINATED_UNIVERSAL_TIME_OFFSET ( 1, 0, .AHEAD. ) ;
#70 = ORIENTED_EDGE ( 'NONE', *, *, #27, .T. ) ;
#71 = CARTESIAN_POINT ( 'NONE',  ( -4.000000000000000000, 0.000000000000000000, 5.500000000000005329 ) ) ;
#72 = AXIS2_PLACEMENT_3D ( 'NONE', #146, #355, #40 ) ;
#73 = CARTESIAN_POINT ( 'NONE',  ( 0.000000000000000000, 0.000000000000000000, 305.0000000000000000 ) ) ;
#74 = CARTESIAN_POINT ( 'NONE',  ( -4.500000000000000888, 5.510910596163089556E-16, 5.500000000000005329 ) ) ;
#75 = ADVANCED_FACE ( 'NONE', ( #371, #46 ), #135, .T. ) ;
#76 = FACE_OUTER_BOUND ( 'NONE', #291, .T. ) ;
#77 = VERTEX_POINT ( 'NONE', #372 ) ;
#78 = LINE ( 'NONE', #24, #200 ) ;
#79 = ADVANCED_FACE ( 'NONE', ( #76 ), #108, .T. ) ;
#80 = CARTESIAN_POINT ( 'NONE',  ( 0.000000000000000000, 0.000000000000000000, 5.000000000000000000 ) ) ;
#81 = EDGE_CURVE ( 'NONE', #114, #298, #142, .T. ) ;
#82 = DIRECTION ( 'NONE',  ( 1.000000000000000000, 0.000000000000000000, -0.000000000000000000 ) ) ;
#83 =( GEOMETRIC_REPRESENTATION_CONTEXT ( 3 ) GLOBAL_UNCERTAINTY_ASSIGNED_CONTEXT ( ( #33 ) ) GLOBAL_UNIT_ASSIGNED_CONTEXT ( ( #116, #88, #232 ) ) REPRESENTATION_CONTEXT ( 'NONE', 'WORKASPACE' ) );
#84 = ORIENTED_EDGE ( 'NONE', *, *, #325, .T. ) ;
#85 = CARTESIAN_POINT ( 'NONE',  ( -7.000000000000000000, 0.000000000000000000, 5.000000000000000000 ) ) ;
#86 = VERTEX_POINT ( 'NONE', #245 ) ;
#87 = FACE_OUTER_BOUND ( 'NONE', #239, .T. ) ;
#88 =( NAMED_UNIT ( * ) PLANE_ANGLE_UNIT ( ) SI_UNIT ( $, .RADIAN. ) );
#89 = CC_DESIGN_APPROVAL ( #259, ( #340 ) ) ;
#90 = FACE_OUTER_BOUND ( 'NONE', #184, .T. ) ;
#91 = DESIGN_CONTEXT ( 'detailed design', #296, 'design' ) ;
#92 = EDGE_CURVE ( 'NONE', #151, #44, #312, .T. ) ;
#93 = DIRECTION ( 'NONE',  ( 1.000000000000000000, 0.000000000000000000, 0.000000000000000000 ) ) ;
#94 = EDGE_LOOP ( 'NONE', ( #70, #214 ) ) ;
#95 = MECHANICAL_CONTEXT ( 'NONE', #273, 'mechanical' ) ;
#96 = ORIENTED_EDGE ( 'NONE', *, *, #276, .F. ) ;
#97 = AXIS2_PLACEMENT_3D ( 'NONE', #226, #322, #347 ) ;
#98 = CARTESIAN_POINT ( 'NONE',  ( 0.000000000000000000, 0.000000000000000000, 305.0000000000000000 ) ) ;
#99 = VERTEX_POINT ( 'NONE', #105 ) ;
#100 = DIRECTION ( 'NONE',  ( -0.000000000000000000, -0.000000000000000000, -1.000000000000000000 ) ) ;
#101 = SECURITY_CLASSIFICATION_LEVEL ( 'unclassified' ) ;
#102 = DIRECTION ( 'NONE',  ( -1.000000000000000000, 1.224646799147351482E-16, 0.000000000000000000 ) ) ;
#103 = AXIS2_PLACEMENT_3D ( 'NONE', #176, #54, #316 ) ;
#104 = EDGE_CURVE ( 'NONE', #151, #86, #148, .T. ) ;
#105 = CARTESIAN_POINT ( 'NONE',  ( -2.250000000000000000, 0.000000000000000000, 0.000000000000000000 ) ) ;
#106 = APPROVAL_DATE_TIME ( #271, #267 ) ;
#107 = DIRECTION ( 'NONE',  ( 1.000000000000000000, 0.000000000000000000, 0.000000000000000000 ) ) ;
#108 = CYLINDRICAL_SURFACE ( 'NONE', #260, 7.000000000000000000 ) ;
#109 = TOROIDAL_SURFACE ( 'NONE', #12, 4.500000000000000888, 0.5000000000000000000 ) ;
#110 = CARTESIAN_POINT ( 'NONE',  ( 0.000000000000000000, 0.000000000000000000, 5.000000000000000000 ) ) ;
#111 = CYLINDRICAL_SURFACE ( 'NONE', #315, 4.000000000000000000 ) ;
#112 = DIRECTION ( 'NONE',  ( 0.000000000000000000, 0.000000000000000000, 1.000000000000000000 ) ) ;
#113 = AXIS2_PLACEMENT_3D ( 'NONE', #115, #231, #354 ) ;
#114 = VERTEX_POINT ( 'NONE', #71 ) ;
#115 = CARTESIAN_POINT ( 'NONE',  ( 0.000000000000000000, 0.000000000000000000, 5.000000000000000000 ) ) ;
#116 =( LENGTH_UNIT ( ) NAMED_UNIT ( * ) SI_UNIT ( .MILLI., .METRE. ) );
#117 = PRODUCT_DEFINITION_FORMATION_WITH_SPECIFIED_SOURCE ( 'LIBOVOLNÝ', '', #254, .NOT_KNOWN. ) ;
#118 = APPLICATION_PROTOCOL_DEFINITION ( 'international standard', 'config_control_design', 1994, #296 ) ;
#119 = EDGE_CURVE ( 'NONE', #86, #151, #9, .T. ) ;
#120 = CALENDAR_DATE ( 2022, 8, 7 ) ;
#121 = EDGE_LOOP ( 'NONE', ( #11, #353, #270, #6 ) ) ;
#122 = CIRCLE ( 'NONE', #284, 2.250000000000000000 ) ;
#123 = APPROVAL_STATUS ( 'not_yet_approved' ) ;
#124 = ADVANCED_FACE ( 'NONE', ( #129 ), #132, .F. ) ;
#125 = ORIENTED_EDGE ( 'NONE', *, *, #377, .T. ) ;
#126 = AXIS2_PLACEMENT_3D ( 'NONE', #247, #221, #374 ) ;
#127 = DATE_AND_TIME ( #281, #293 ) ;
#128 = DIRECTION ( 'NONE',  ( 0.000000000000000000, 0.000000000000000000, 1.000000000000000000 ) ) ;
#129 = FACE_OUTER_BOUND ( 'NONE', #364, .T. ) ;
#130 = AXIS2_PLACEMENT_3D ( 'NONE', #158, #370, #277 ) ;
#131 = CALENDAR_DATE ( 2022, 8, 7 ) ;
#132 = CYLINDRICAL_SURFACE ( 'NONE', #126, 2.250000000000000000 ) ;
#133 = CC_DESIGN_APPROVAL ( #267, ( #117 ) ) ;
#134 = CARTESIAN_POINT ( 'NONE',  ( -7.000000000000000000, 0.000000000000000000, 0.000000000000000000 ) ) ;
#135 = PLANE ( 'NONE',  #49 ) ;
#136 = AXIS2_PLACEMENT_3D ( 'NONE', #282, #19, #107 ) ;
#137 = PLANE ( 'NONE',  #194 ) ;
#138 = CYLINDRICAL_SURFACE ( 'NONE', #97, 4.000000000000000000 ) ;
#139 = ADVANCED_FACE ( 'NONE', ( #172 ), #138, .T. ) ;
#140 = DIRECTION ( 'NONE',  ( 1.000000000000000000, 0.000000000000000000, 0.000000000000000000 ) ) ;
#141 = DIRECTION ( 'NONE',  ( -1.000000000000000000, 0.000000000000000000, 0.000000000000000000 ) ) ;
#142 = CIRCLE ( 'NONE', #154, 4.000000000000000000 ) ;
#143 = ORIENTED_EDGE ( 'NONE', *, *, #252, .F. ) ;
#144 = CARTESIAN_POINT ( 'NONE',  ( 0.000000000000000000, 0.000000000000000000, 0.000000000000000000 ) ) ;
#145 = AXIS2_PLACEMENT_3D ( 'NONE', #236, #264, #4 ) ;
#146 = CARTESIAN_POINT ( 'NONE',  ( 0.000000000000000000, 0.000000000000000000, 0.000000000000000000 ) ) ;
#147 = DIRECTION ( 'NONE',  ( -1.000000000000000000, 0.000000000000000000, 0.000000000000000000 ) ) ;
#148 = CIRCLE ( 'NONE', #42, 2.250000000000000000 ) ;
#149 = APPLICATION_PROTOCOL_DEFINITION ( 'international standard', 'config_control_design', 1994, #273 ) ;
#150 = EDGE_LOOP ( 'NONE', ( #35, #350 ) ) ;
#151 = VERTEX_POINT ( 'NONE', #376 ) ;
#152 = DATE_AND_TIME ( #183, #363 ) ;
#153 = ORIENTED_EDGE ( 'NONE', *, *, #92, .F. ) ;
#154 = AXIS2_PLACEMENT_3D ( 'NONE', #243, #223, #47 ) ;
#155 = ORIENTED_EDGE ( 'NONE', *, *, #235, .T. ) ;
#156 = AXIS2_PLACEMENT_3D ( 'NONE', #110, #288, #175 ) ;
#157 = CARTESIAN_POINT ( 'NONE',  ( 2.250000000000000000, 2.755455298081544285E-16, 305.0000000000000000 ) ) ;
#158 = CARTESIAN_POINT ( 'NONE',  ( 0.000000000000000000, 0.000000000000000000, 305.0000000000000000 ) ) ;
#159 = CIRCLE ( 'NONE', #180, 0.5000000000000004441 ) ;
#160 = CIRCLE ( 'NONE', #334, 4.000000000000000000 ) ;
#161 = COORDINATED_UNIVERSAL_TIME_OFFSET ( 1, 0, .AHEAD. ) ;
#162 = PERSON ( 'NEURÈENÝ', 'NEURÈENÝ', 'NEURÈENÝ', ('NEURÈENÝ'), ('NEURÈENÝ'), ('NEURÈENÝ') ) ;
#163 = ORIENTED_EDGE ( 'NONE', *, *, #57, .T. ) ;
#164 = CC_DESIGN_PERSON_AND_ORGANIZATION_ASSIGNMENT ( #342, #367, ( #351 ) ) ;
#165 = FACE_BOUND ( 'NONE', #65, .T. ) ;
#166 = CARTESIAN_POINT ( 'NONE',  ( 0.000000000000000000, 0.000000000000000000, 305.0000000000000000 ) ) ;
#167 = CARTESIAN_POINT ( 'NONE',  ( 4.500000000000000888, 0.000000000000000000, 5.000000000000002665 ) ) ;
#168 = CIRCLE ( 'NONE', #156, 7.000000000000000000 ) ;
#169 = CARTESIAN_POINT ( 'NONE',  ( 0.000000000000000000, 0.000000000000000000, 305.0000000000000000 ) ) ;
#170 = PRODUCT_RELATED_PRODUCT_CATEGORY ( 'detail', '', ( #254 ) ) ;
#171 = EDGE_CURVE ( 'NONE', #179, #212, #168, .T. ) ;
#172 = FACE_OUTER_BOUND ( 'NONE', #15, .T. ) ;
#173 = EDGE_CURVE ( 'NONE', #212, #29, #56, .T. ) ;
#174 = ORIENTED_EDGE ( 'NONE', *, *, #57, .F. ) ;
#175 = DIRECTION ( 'NONE',  ( 1.000000000000000000, 0.000000000000000000, 0.000000000000000000 ) ) ;
#176 = CARTESIAN_POINT ( 'NONE',  ( 0.000000000000000000, 0.000000000000000000, 0.000000000000000000 ) ) ;
#177 = CIRCLE ( 'NONE', #113, 4.500000000000000888 ) ;
#178 = CARTESIAN_POINT ( 'NONE',  ( 0.000000000000000000, 0.000000000000000000, 5.000000000000000000 ) ) ;
#179 = VERTEX_POINT ( 'NONE', #201 ) ;
#180 = AXIS2_PLACEMENT_3D ( 'NONE', #74, #344, #102 ) ;
#181 = ORIENTED_EDGE ( 'NONE', *, *, #207, .F. ) ;
#182 = CIRCLE ( 'NONE', #229, 4.000000000000000000 ) ;
#183 = CALENDAR_DATE ( 2022, 8, 7 ) ;
#184 = EDGE_LOOP ( 'NONE', ( #186, #332, #380, #174 ) ) ;
#185 = COORDINATED_UNIVERSAL_TIME_OFFSET ( 1, 0, .AHEAD. ) ;
#186 = ORIENTED_EDGE ( 'NONE', *, *, #119, .T. ) ;
#187 = CARTESIAN_POINT ( 'NONE',  ( 0.000000000000000000, 0.000000000000000000, 305.0000000000000000 ) ) ;
#188 = EDGE_CURVE ( 'NONE', #298, #302, #375, .T. ) ;
#189 = CARTESIAN_POINT ( 'NONE',  ( 0.000000000000000000, 0.000000000000000000, 5.000000000000000000 ) ) ;
#190 = EDGE_LOOP ( 'NONE', ( #202, #272 ) ) ;
#191 = CC_DESIGN_DATE_AND_TIME_ASSIGNMENT ( #152, #32, ( #340 ) ) ;
#192 = PLANE ( 'NONE',  #130 ) ;
#193 = ADVANCED_FACE ( 'NONE', ( #26, #318 ), #137, .F. ) ;
#194 = AXIS2_PLACEMENT_3D ( 'NONE', #144, #199, #82 ) ;
#195 = DIRECTION ( 'NONE',  ( 0.000000000000000000, 0.000000000000000000, -1.000000000000000000 ) ) ;
#196 = PRODUCT_DEFINITION_SHAPE ( 'NONE', 'NONE',  #340 ) ;
#197 = CARTESIAN_POINT ( 'NONE',  ( 0.000000000000000000, 0.000000000000000000, 5.500000000000005329 ) ) ;
#198 = EDGE_CURVE ( 'NONE', #337, #302, #55, .T. ) ;
#199 = DIRECTION ( 'NONE',  ( 0.000000000000000000, 0.000000000000000000, 1.000000000000000000 ) ) ;
#200 = VECTOR ( 'NONE', #290, 1000.000000000000000 ) ;
#201 = CARTESIAN_POINT ( 'NONE',  ( 7.000000000000000000, 8.572527594031473190E-16, 5.000000000000000000 ) ) ;
#202 = ORIENTED_EDGE ( 'NONE', *, *, #377, .F. ) ;
#203 = CARTESIAN_POINT ( 'NONE',  ( 4.000000000000000000, 4.898587196589412829E-16, 5.500000000000005329 ) ) ;
#204 = EDGE_LOOP ( 'NONE', ( #181, #96 ) ) ;
#205 = CARTESIAN_POINT ( 'NONE',  ( -7.000000000000000000, 0.000000000000000000, 5.000000000000000000 ) ) ;
#206 = VECTOR ( 'NONE', #195, 1000.000000000000000 ) ;
#207 = EDGE_CURVE ( 'NONE', #29, #77, #345, .T. ) ;
#208 = AXIS2_PLACEMENT_3D ( 'NONE', #187, #18, #16 ) ;
#209 = AXIS2_PLACEMENT_3D ( 'NONE', #197, #59, #292 ) ;
#210 = ORIENTED_EDGE ( 'NONE', *, *, #119, .F. ) ;
#211 = PERSON_AND_ORGANIZATION_ROLE ( 'creator' ) ;
#212 = VERTEX_POINT ( 'NONE', #85 ) ;
#213 = CC_DESIGN_SECURITY_CLASSIFICATION ( #351, ( #117 ) ) ;
#214 = ORIENTED_EDGE ( 'NONE', *, *, #171, .T. ) ;
#215 = CALENDAR_DATE ( 2022, 8, 7 ) ;
#216 = DIRECTION ( 'NONE',  ( 0.000000000000000000, 0.000000000000000000, -1.000000000000000000 ) ) ;
#217 = COORDINATED_UNIVERSAL_TIME_OFFSET ( 1, 0, .AHEAD. ) ;
#218 = CARTESIAN_POINT ( 'NONE',  ( 0.000000000000000000, 0.000000000000000000, 0.000000000000000000 ) ) ;
#219 = TOROIDAL_SURFACE ( 'NONE', #242, 4.500000000000000888, 0.5000000000000000000 ) ;
#220 = PERSON_AND_ORGANIZATION ( #162, #287 ) ;
#221 = DIRECTION ( 'NONE',  ( 0.000000000000000000, 0.000000000000000000, -1.000000000000000000 ) ) ;
#222 = DIRECTION ( 'NONE',  ( 1.000000000000000000, 0.000000000000000000, 0.000000000000000000 ) ) ;
#223 = DIRECTION ( 'NONE',  ( 0.000000000000000000, 0.000000000000000000, 1.000000000000000000 ) ) ;
#224 = VECTOR ( 'NONE', #1, 1000.000000000000000 ) ;
#225 = DIRECTION ( 'NONE',  ( 0.000000000000000000, -1.000000000000000000, 0.000000000000000000 ) ) ;
#226 = CARTESIAN_POINT ( 'NONE',  ( 0.000000000000000000, 0.000000000000000000, 305.0000000000000000 ) ) ;
#227 = CARTESIAN_POINT ( 'NONE',  ( 0.000000000000000000, 0.000000000000000000, 5.500000000000005329 ) ) ;
#228 = ORIENTED_EDGE ( 'NONE', *, *, #81, .T. ) ;
#229 = AXIS2_PLACEMENT_3D ( 'NONE', #98, #61, #93 ) ;
#230 = ORIENTED_EDGE ( 'NONE', *, *, #299, .F. ) ;
#231 = DIRECTION ( 'NONE',  ( -0.000000000000000000, -0.000000000000000000, -1.000000000000000000 ) ) ;
#232 =( NAMED_UNIT ( * ) SI_UNIT ( $, .STERADIAN. ) SOLID_ANGLE_UNIT ( ) );
#233 = CYLINDRICAL_SURFACE ( 'NONE', #234, 7.000000000000000000 ) ;
#234 = AXIS2_PLACEMENT_3D ( 'NONE', #178, #358, #147 ) ;
#235 = EDGE_CURVE ( 'NONE', #327, #114, #78, .T. ) ;
#236 = CARTESIAN_POINT ( 'NONE',  ( 0.000000000000000000, 0.000000000000000000, 305.0000000000000000 ) ) ;
#237 = EDGE_LOOP ( 'NONE', ( #307, #262, #359, #8 ) ) ;
#238 = DATE_AND_TIME ( #120, #301 ) ;
#239 = EDGE_LOOP ( 'NONE', ( #303, #84, #309, #329 ) ) ;
#240 = LINE ( 'NONE', #328, #45 ) ;
#241 = EDGE_LOOP ( 'NONE', ( #68, #143, #305, #21 ) ) ;
#242 = AXIS2_PLACEMENT_3D ( 'NONE', #227, #352, #285 ) ;
#243 = CARTESIAN_POINT ( 'NONE',  ( 0.000000000000000000, 0.000000000000000000, 5.500000000000005329 ) ) ;
#244 = PERSON_AND_ORGANIZATION_ROLE ( 'creator' ) ;
#245 = CARTESIAN_POINT ( 'NONE',  ( -2.250000000000000000, 0.000000000000000000, 305.0000000000000000 ) ) ;
#246 = ADVANCED_FACE ( 'NONE', ( #28 ), #111, .T. ) ;
#247 = CARTESIAN_POINT ( 'NONE',  ( 0.000000000000000000, 0.000000000000000000, 305.0000000000000000 ) ) ;
#248 = DATE_AND_TIME ( #131, #323 ) ;
#249 = ADVANCED_FACE ( 'NONE', ( #261 ), #109, .F. ) ;
#250 = CARTESIAN_POINT ( 'NONE',  ( -2.250000000000000000, 0.000000000000000000, 305.0000000000000000 ) ) ;
#251 = DATE_TIME_ROLE ( 'classification_date' ) ;
#252 = EDGE_CURVE ( 'NONE', #298, #114, #294, .T. ) ;
#253 = CARTESIAN_POINT ( 'NONE',  ( 2.250000000000000000, 2.755455298081544285E-16, 0.000000000000000000 ) ) ;
#254 = PRODUCT ( '1686', '1686', '', ( #95 ) ) ;
#255 = DIRECTION ( 'NONE',  ( -0.000000000000000000, -0.000000000000000000, -1.000000000000000000 ) ) ;
#256 = AXIS2_PLACEMENT_3D ( 'NONE', #80, #255, #140 ) ;
#257 = DIRECTION ( 'NONE',  ( 0.000000000000000000, 0.000000000000000000, -1.000000000000000000 ) ) ;
#258 = CARTESIAN_POINT ( 'NONE',  ( 0.000000000000000000, 0.000000000000000000, 5.500000000000005329 ) ) ;
#259 = APPROVAL ( #268, 'NEURÈENÝ' ) ;
#260 = AXIS2_PLACEMENT_3D ( 'NONE', #275, #310, #341 ) ;
#261 = FACE_OUTER_BOUND ( 'NONE', #237, .T. ) ;
#262 = ORIENTED_EDGE ( 'NONE', *, *, #62, .T. ) ;
#263 = CARTESIAN_POINT ( 'NONE',  ( 4.000000000000000000, 4.898587196589412829E-16, 305.0000000000000000 ) ) ;
#264 = DIRECTION ( 'NONE',  ( 0.000000000000000000, 0.000000000000000000, -1.000000000000000000 ) ) ;
#265 = CARTESIAN_POINT ( 'NONE',  ( -4.500000000000000888, 5.510910596163088569E-16, 5.000000000000002665 ) ) ;
#266 = ORIENTED_EDGE ( 'NONE', *, *, #314, .T. ) ;
#267 = APPROVAL ( #123, 'NEURÈENÝ' ) ;
#268 = APPROVAL_STATUS ( 'not_yet_approved' ) ;
#269 = CARTESIAN_POINT ( 'NONE',  ( 4.000000000000000000, 4.898587196589412829E-16, 305.0000000000000000 ) ) ;
#270 = ORIENTED_EDGE ( 'NONE', *, *, #252, .T. ) ;
#271 = DATE_AND_TIME ( #215, #5 ) ;
#272 = ORIENTED_EDGE ( 'NONE', *, *, #17, .F. ) ;
#273 = APPLICATION_CONTEXT ( 'configuration controlled 3d designs of mechanical parts and assemblies' ) ;
#274 = APPROVAL_DATE_TIME ( #127, #330 ) ;
#275 = CARTESIAN_POINT ( 'NONE',  ( 0.000000000000000000, 0.000000000000000000, 5.000000000000000000 ) ) ;
#276 = EDGE_CURVE ( 'NONE', #77, #29, #20, .T. ) ;
#277 = DIRECTION ( 'NONE',  ( 1.000000000000000000, 0.000000000000000000, -0.000000000000000000 ) ) ;
#278 = PERSON_AND_ORGANIZATION ( #162, #287 ) ;
#279 = DIRECTION ( 'NONE',  ( 1.000000000000000000, 0.000000000000000000, 0.000000000000000000 ) ) ;
#280 = CC_DESIGN_APPROVAL ( #330, ( #351 ) ) ;
#281 = CALENDAR_DATE ( 2022, 8, 7 ) ;
#282 = CARTESIAN_POINT ( 'NONE',  ( 0.000000000000000000, 0.000000000000000000, 5.000000000000000000 ) ) ;
#283 = DIRECTION ( 'NONE',  ( 0.000000000000000000, 0.000000000000000000, 1.000000000000000000 ) ) ;
#284 = AXIS2_PLACEMENT_3D ( 'NONE', #218, #100, #279 ) ;
#285 = DIRECTION ( 'NONE',  ( 1.000000000000000000, 0.000000000000000000, 0.000000000000000000 ) ) ;
#286 = ADVANCED_FACE ( 'NONE', ( #53 ), #219, .F. ) ;
#287 = ORGANIZATION ( 'NEURÈENÝ', 'NEURÈENÝ', '' ) ;
#288 = DIRECTION ( 'NONE',  ( 0.000000000000000000, 0.000000000000000000, 1.000000000000000000 ) ) ;
#289 = CC_DESIGN_PERSON_AND_ORGANIZATION_ASSIGNMENT ( #34, #211, ( #340 ) ) ;
#290 = DIRECTION ( 'NONE',  ( -0.000000000000000000, -0.000000000000000000, -1.000000000000000000 ) ) ;
#291 = EDGE_LOOP ( 'NONE', ( #39, #41, #51, #304 ) ) ;
#292 = DIRECTION ( 'NONE',  ( 1.000000000000000000, 0.000000000000000000, 0.000000000000000000 ) ) ;
#293 = LOCAL_TIME ( 17, 23, 34.00000000000000000, #161 ) ;
#294 = CIRCLE ( 'NONE', #209, 4.000000000000000000 ) ;
#295 = APPROVAL_ROLE ( '' ) ;
#296 = APPLICATION_CONTEXT ( 'configuration controlled 3d designs of mechanical parts and assemblies' ) ;
#297 = DIRECTION ( 'NONE',  ( 0.000000000000000000, 0.000000000000000000, 1.000000000000000000 ) ) ;
#298 = VERTEX_POINT ( 'NONE', #203 ) ;
#299 = EDGE_CURVE ( 'NONE', #365, #298, #30, .T. ) ;
#300 = PERSON_AND_ORGANIZATION ( #162, #287 ) ;
#301 = LOCAL_TIME ( 17, 23, 34.00000000000000000, #7 ) ;
#302 = VERTEX_POINT ( 'NONE', #167 ) ;
#303 = ORIENTED_EDGE ( 'NONE', *, *, #171, .F. ) ;
#304 = ORIENTED_EDGE ( 'NONE', *, *, #207, .T. ) ;
#305 = ORIENTED_EDGE ( 'NONE', *, *, #188, .T. ) ;
#306 = AXIS2_PLACEMENT_3D ( 'NONE', #326, #297, #67 ) ;
#307 = ORIENTED_EDGE ( 'NONE', *, *, #81, .F. ) ;
#308 = PERSON_AND_ORGANIZATION_ROLE ( 'design_supplier' ) ;
#309 = ORIENTED_EDGE ( 'NONE', *, *, #276, .T. ) ;
#310 = DIRECTION ( 'NONE',  ( -0.000000000000000000, -0.000000000000000000, -1.000000000000000000 ) ) ;
#311 = AXIS2_PLACEMENT_3D ( 'NONE', #349, #225, #257 ) ;
#312 = LINE ( 'NONE', #157, #206 ) ;
#313 = DIRECTION ( 'NONE',  ( 1.000000000000000000, 0.000000000000000000, 0.000000000000000000 ) ) ;
#314 = EDGE_CURVE ( 'NONE', #302, #337, #177, .T. ) ;
#315 = AXIS2_PLACEMENT_3D ( 'NONE', #169, #346, #141 ) ;
#316 = DIRECTION ( 'NONE',  ( 1.000000000000000000, 0.000000000000000000, 0.000000000000000000 ) ) ;
#317 = ORIENTED_EDGE ( 'NONE', *, *, #104, .T. ) ;
#318 = FACE_OUTER_BOUND ( 'NONE', #204, .T. ) ;
#319 = ADVANCED_FACE ( 'NONE', ( #87 ), #233, .T. ) ;
#320 = ORIENTED_EDGE ( 'NONE', *, *, #198, .T. ) ;
#321 = CLOSED_SHELL ( 'NONE', ( #357, #249, #246, #319, #79, #75, #193, #139, #3, #286, #124 ) ) ;
#322 = DIRECTION ( 'NONE',  ( -0.000000000000000000, -0.000000000000000000, -1.000000000000000000 ) ) ;
#323 = LOCAL_TIME ( 17, 23, 34.00000000000000000, #217 ) ;
#324 = CYLINDRICAL_SURFACE ( 'NONE', #145, 2.250000000000000000 ) ;
#325 = EDGE_CURVE ( 'NONE', #179, #77, #240, .T. ) ;
#326 = CARTESIAN_POINT ( 'NONE',  ( 0.000000000000000000, 0.000000000000000000, 0.000000000000000000 ) ) ;
#327 = VERTEX_POINT ( 'NONE', #38 ) ;
#328 = CARTESIAN_POINT ( 'NONE',  ( 7.000000000000000000, 8.572527594031473190E-16, 5.000000000000000000 ) ) ;
#329 = ORIENTED_EDGE ( 'NONE', *, *, #173, .F. ) ;
#330 = APPROVAL ( #339, 'NEURÈENÝ' ) ;
#331 = PERSON_AND_ORGANIZATION ( #162, #287 ) ;
#332 = ORIENTED_EDGE ( 'NONE', *, *, #92, .T. ) ;
#333 = DIRECTION ( 'NONE',  ( 1.000000000000000000, 0.000000000000000000, 0.000000000000000000 ) ) ;
#334 = AXIS2_PLACEMENT_3D ( 'NONE', #73, #128, #222 ) ;
#335 = CC_DESIGN_PERSON_AND_ORGANIZATION_ASSIGNMENT ( #336, #308, ( #117 ) ) ;
#336 = PERSON_AND_ORGANIZATION ( #162, #287 ) ;
#337 = VERTEX_POINT ( 'NONE', #265 ) ;
#338 = APPROVAL_PERSON_ORGANIZATION ( #10, #267, #362 ) ;
#339 = APPROVAL_STATUS ( 'not_yet_approved' ) ;
#340 = PRODUCT_DEFINITION ( 'NEZNÁMÝ', '', #117, #91 ) ;
#341 = DIRECTION ( 'NONE',  ( -1.000000000000000000, 0.000000000000000000, 0.000000000000000000 ) ) ;
#342 = PERSON_AND_ORGANIZATION ( #162, #287 ) ;
#343 = DIRECTION ( 'NONE',  ( 1.000000000000000000, 0.000000000000000000, -0.000000000000000000 ) ) ;
#344 = DIRECTION ( 'NONE',  ( 1.224646799147353207E-16, 1.000000000000000000, -0.000000000000000000 ) ) ;
#345 = CIRCLE ( 'NONE', #103, 7.000000000000000000 ) ;
#346 = DIRECTION ( 'NONE',  ( -0.000000000000000000, -0.000000000000000000, -1.000000000000000000 ) ) ;
#347 = DIRECTION ( 'NONE',  ( -1.000000000000000000, 0.000000000000000000, 0.000000000000000000 ) ) ;
#348 = VECTOR ( 'NONE', #216, 1000.000000000000000 ) ;
#349 = CARTESIAN_POINT ( 'NONE',  ( 4.500000000000000888, 0.000000000000000000, 5.500000000000005329 ) ) ;
#350 = ORIENTED_EDGE ( 'NONE', *, *, #369, .T. ) ;
#351 = SECURITY_CLASSIFICATION ( '', '', #101 ) ;
#352 = DIRECTION ( 'NONE',  ( 0.000000000000000000, 0.000000000000000000, 1.000000000000000000 ) ) ;
#353 = ORIENTED_EDGE ( 'NONE', *, *, #299, .T. ) ;
#354 = DIRECTION ( 'NONE',  ( 1.000000000000000000, 0.000000000000000000, 0.000000000000000000 ) ) ;
#355 = DIRECTION ( 'NONE',  ( -0.000000000000000000, -0.000000000000000000, -1.000000000000000000 ) ) ;
#356 = MANIFOLD_SOLID_BREP ( 'Odebrat vysunutím3', #321 ) ;
#357 = ADVANCED_FACE ( 'NONE', ( #90 ), #324, .F. ) ;
#358 = DIRECTION ( 'NONE',  ( -0.000000000000000000, -0.000000000000000000, -1.000000000000000000 ) ) ;
#359 = ORIENTED_EDGE ( 'NONE', *, *, #314, .F. ) ;
#360 = APPROVAL_DATE_TIME ( #238, #259 ) ;
#361 = EDGE_LOOP ( 'NONE', ( #266, #320 ) ) ;
#362 = APPROVAL_ROLE ( '' ) ;
#363 = LOCAL_TIME ( 17, 23, 34.00000000000000000, #69 ) ;
#364 = EDGE_LOOP ( 'NONE', ( #153, #317, #163, #125 ) ) ;
#365 = VERTEX_POINT ( 'NONE', #269 ) ;
#366 = ADVANCED_BREP_SHAPE_REPRESENTATION ( '1686', ( #356, #306 ), #83 ) ;
#367 = PERSON_AND_ORGANIZATION_ROLE ( 'classification_officer' ) ;
#368 = LINE ( 'NONE', #250, #348 ) ;
#369 = EDGE_CURVE ( 'NONE', #365, #327, #182, .T. ) ;
#370 = DIRECTION ( 'NONE',  ( 0.000000000000000000, 0.000000000000000000, 1.000000000000000000 ) ) ;
#371 = FACE_BOUND ( 'NONE', #361, .T. ) ;
#372 = CARTESIAN_POINT ( 'NONE',  ( 7.000000000000000000, 8.572527594031473190E-16, 0.000000000000000000 ) ) ;
#373 = CIRCLE ( 'NONE', #136, 7.000000000000000000 ) ;
#374 = DIRECTION ( 'NONE',  ( -1.000000000000000000, 0.000000000000000000, 0.000000000000000000 ) ) ;
#375 = CIRCLE ( 'NONE', #311, 0.5000000000000004441 ) ;
#376 = CARTESIAN_POINT ( 'NONE',  ( 2.250000000000000000, 2.755455298081544285E-16, 305.0000000000000000 ) ) ;
#377 = EDGE_CURVE ( 'NONE', #99, #44, #31, .T. ) ;
#378 = DIRECTION ( 'NONE',  ( 0.000000000000000000, 0.000000000000000000, 1.000000000000000000 ) ) ;
#379 = DIRECTION ( 'NONE',  ( -0.000000000000000000, -0.000000000000000000, -1.000000000000000000 ) ) ;
#380 = ORIENTED_EDGE ( 'NONE', *, *, #17, .T. ) ;
#381 = APPROVAL_PERSON_ORGANIZATION ( #300, #259, #295 ) ;
ENDSEC;
END-ISO-10303-21;
