ISO-10303-21;
HEADER;
FILE_DESCRIPTION (( 'STEP AP203' ),
    '1' );
FILE_NAME ('c13a.STEP',
    '2022-07-08T15:31:53',
    ( '' ),
    ( '' ),
    'SwSTEP 2.0',
    'SolidWorks 2019',
    '' );
FILE_SCHEMA (( 'CONFIG_CONTROL_DESIGN' ));
ENDSEC;

DATA;
#1 = ADVANCED_FACE ( 'NONE', ( #123 ), #292, .F. ) ;
#2 = CALENDAR_DATE ( 2022, 8, 7 ) ;
#3 = MANIFOLD_SOLID_BREP ( 'Odebrat vysunutím3', #160 ) ;
#4 = CIRCLE ( 'NONE', #349, 4.000000000000000000 ) ;
#5 = EDGE_LOOP ( 'NONE', ( #372, #36, #83, #201 ) ) ;
#6 = VERTEX_POINT ( 'NONE', #8 ) ;
#7 = CALENDAR_DATE ( 2022, 8, 7 ) ;
#8 = CARTESIAN_POINT ( 'NONE',  ( 4.500000000000000888, 0.000000000000000000, 5.000000000000002665 ) ) ;
#9 = APPROVAL_STATUS ( 'not_yet_approved' ) ;
#10 = VERTEX_POINT ( 'NONE', #262 ) ;
#11 = CIRCLE ( 'NONE', #244, 2.000000000000000000 ) ;
#12 = APPROVAL_STATUS ( 'not_yet_approved' ) ;
#13 = EDGE_LOOP ( 'NONE', ( #30, #266, #138, #171 ) ) ;
#14 = CARTESIAN_POINT ( 'NONE',  ( 4.000000000000000000, 4.898587196589412829E-16, 5.500000000000005329 ) ) ;
#15 = EDGE_CURVE ( 'NONE', #379, #39, #26, .T. ) ;
#16 = FACE_OUTER_BOUND ( 'NONE', #13, .T. ) ;
#17 = TOROIDAL_SURFACE ( 'NONE', #275, 4.500000000000000888, 0.5000000000000000000 ) ;
#18 = DATE_AND_TIME ( #303, #49 ) ;
#19 = DIRECTION ( 'NONE',  ( 0.000000000000000000, 0.000000000000000000, 1.000000000000000000 ) ) ;
#20 = ADVANCED_FACE ( 'NONE', ( #147, #259 ), #353, .T. ) ;
#21 = CARTESIAN_POINT ( 'NONE',  ( 2.000000000000000000, 2.449293598294705921E-16, 180.0000000000000000 ) ) ;
#22 = VECTOR ( 'NONE', #378, 1000.000000000000000 ) ;
#23 = DIRECTION ( 'NONE',  ( -1.000000000000000000, 0.000000000000000000, 0.000000000000000000 ) ) ;
#24 = ADVANCED_FACE ( 'NONE', ( #16 ), #70, .F. ) ;
#25 = CARTESIAN_POINT ( 'NONE',  ( 4.000000000000000000, 4.898587196589412829E-16, 180.0000000000000000 ) ) ;
#26 = CIRCLE ( 'NONE', #251, 0.5000000000000004441 ) ;
#27 = DIRECTION ( 'NONE',  ( 0.000000000000000000, 0.000000000000000000, 1.000000000000000000 ) ) ;
#28 = CYLINDRICAL_SURFACE ( 'NONE', #267, 4.000000000000000000 ) ;
#29 = DIRECTION ( 'NONE',  ( 0.000000000000000000, 0.000000000000000000, 1.000000000000000000 ) ) ;
#30 = ORIENTED_EDGE ( 'NONE', *, *, #380, .F. ) ;
#31 = PRODUCT_RELATED_PRODUCT_CATEGORY ( 'detail', '', ( #366 ) ) ;
#32 = DATE_AND_TIME ( #2, #77 ) ;
#33 = AXIS2_PLACEMENT_3D ( 'NONE', #230, #111, #192 ) ;
#34 = ORIENTED_EDGE ( 'NONE', *, *, #15, .F. ) ;
#35 = VERTEX_POINT ( 'NONE', #100 ) ;
#36 = ORIENTED_EDGE ( 'NONE', *, *, #153, .F. ) ;
#37 = EDGE_CURVE ( 'NONE', #377, #145, #274, .T. ) ;
#38 = DATE_TIME_ROLE ( 'creation_date' ) ;
#39 = VERTEX_POINT ( 'NONE', #246 ) ;
#40 = CC_DESIGN_APPROVAL ( #135, ( #178 ) ) ;
#41 = EDGE_CURVE ( 'NONE', #80, #35, #281, .T. ) ;
#42 = CALENDAR_DATE ( 2022, 8, 7 ) ;
#43 = DIRECTION ( 'NONE',  ( 0.000000000000000000, 0.000000000000000000, 1.000000000000000000 ) ) ;
#44 = CARTESIAN_POINT ( 'NONE',  ( 0.000000000000000000, 0.000000000000000000, 5.500000000000005329 ) ) ;
#45 = VECTOR ( 'NONE', #239, 1000.000000000000000 ) ;
#46 = CARTESIAN_POINT ( 'NONE',  ( 7.000000000000000000, 8.572527594031473190E-16, 5.000000000000000000 ) ) ;
#47 = CARTESIAN_POINT ( 'NONE',  ( -4.000000000000000000, 0.000000000000000000, 180.0000000000000000 ) ) ;
#48 = LINE ( 'NONE', #167, #302 ) ;
#49 = LOCAL_TIME ( 17, 31, 53.00000000000000000, #332 ) ;
#50 = CARTESIAN_POINT ( 'NONE',  ( -4.000000000000000000, 0.000000000000000000, 180.0000000000000000 ) ) ;
#51 = DIRECTION ( 'NONE',  ( 0.000000000000000000, 0.000000000000000000, 1.000000000000000000 ) ) ;
#52 = FACE_OUTER_BOUND ( 'NONE', #96, .T. ) ;
#53 = VECTOR ( 'NONE', #248, 1000.000000000000000 ) ;
#54 = CARTESIAN_POINT ( 'NONE',  ( 0.000000000000000000, 0.000000000000000000, 5.500000000000005329 ) ) ;
#55 = ORIENTED_EDGE ( 'NONE', *, *, #264, .F. ) ;
#56 = APPLICATION_PROTOCOL_DEFINITION ( 'international standard', 'config_control_design', 1994, #233 ) ;
#57 = DATE_AND_TIME ( #300, #237 ) ;
#58 = EDGE_LOOP ( 'NONE', ( #327, #321 ) ) ;
#59 = EDGE_CURVE ( 'NONE', #6, #39, #169, .T. ) ;
#60 = CIRCLE ( 'NONE', #33, 4.000000000000000000 ) ;
#61 = MECHANICAL_CONTEXT ( 'NONE', #233, 'mechanical' ) ;
#62 = ORIENTED_EDGE ( 'NONE', *, *, #358, .F. ) ;
#63 = ORIENTED_EDGE ( 'NONE', *, *, #280, .T. ) ;
#64 = LINE ( 'NONE', #261, #45 ) ;
#65 = EDGE_LOOP ( 'NONE', ( #112, #86 ) ) ;
#66 = VERTEX_POINT ( 'NONE', #47 ) ;
#67 = CC_DESIGN_APPROVAL ( #146, ( #214 ) ) ;
#68 = EDGE_CURVE ( 'NONE', #66, #320, #318, .T. ) ;
#69 = CARTESIAN_POINT ( 'NONE',  ( -2.000000000000000000, 0.000000000000000000, 0.000000000000000000 ) ) ;
#70 = CYLINDRICAL_SURFACE ( 'NONE', #229, 2.000000000000000000 ) ;
#71 = EDGE_CURVE ( 'NONE', #379, #224, #162, .T. ) ;
#72 = CARTESIAN_POINT ( 'NONE',  ( 0.000000000000000000, 0.000000000000000000, 180.0000000000000000 ) ) ;
#73 = CYLINDRICAL_SURFACE ( 'NONE', #155, 4.000000000000000000 ) ;
#74 = CARTESIAN_POINT ( 'NONE',  ( 0.000000000000000000, 0.000000000000000000, 180.0000000000000000 ) ) ;
#75 = FACE_OUTER_BOUND ( 'NONE', #356, .T. ) ;
#76 = ORIENTED_EDGE ( 'NONE', *, *, #193, .F. ) ;
#77 = LOCAL_TIME ( 17, 31, 53.00000000000000000, #294 ) ;
#78 = CIRCLE ( 'NONE', #243, 2.000000000000000000 ) ;
#79 = DIRECTION ( 'NONE',  ( 1.000000000000000000, 0.000000000000000000, 0.000000000000000000 ) ) ;
#80 = VERTEX_POINT ( 'NONE', #309 ) ;
#81 = FACE_OUTER_BOUND ( 'NONE', #110, .T. ) ;
#82 = DIRECTION ( 'NONE',  ( 1.000000000000000000, 0.000000000000000000, 0.000000000000000000 ) ) ;
#83 = ORIENTED_EDGE ( 'NONE', *, *, #203, .T. ) ;
#84 = AXIS2_PLACEMENT_3D ( 'NONE', #190, #51, #85 ) ;
#85 = DIRECTION ( 'NONE',  ( 1.000000000000000000, 0.000000000000000000, 0.000000000000000000 ) ) ;
#86 = ORIENTED_EDGE ( 'NONE', *, *, #358, .T. ) ;
#87 = PERSON_AND_ORGANIZATION_ROLE ( 'creator' ) ;
#88 = EDGE_LOOP ( 'NONE', ( #92, #362, #150, #174 ) ) ;
#89 = PERSON_AND_ORGANIZATION ( #270, #184 ) ;
#90 = ORIENTED_EDGE ( 'NONE', *, *, #203, .F. ) ;
#91 = CARTESIAN_POINT ( 'NONE',  ( -2.000000000000000000, 0.000000000000000000, 180.0000000000000000 ) ) ;
#92 = ORIENTED_EDGE ( 'NONE', *, *, #71, .F. ) ;
#93 =( LENGTH_UNIT ( ) NAMED_UNIT ( * ) SI_UNIT ( .MILLI., .METRE. ) );
#94 = EDGE_CURVE ( 'NONE', #145, #10, #367, .T. ) ;
#95 = VERTEX_POINT ( 'NONE', #21 ) ;
#96 = EDGE_LOOP ( 'NONE', ( #55, #63, #240, #90 ) ) ;
#97 = DIRECTION ( 'NONE',  ( 0.000000000000000000, 0.000000000000000000, -1.000000000000000000 ) ) ;
#98 = AXIS2_PLACEMENT_3D ( 'NONE', #148, #361, #173 ) ;
#99 = CC_DESIGN_PERSON_AND_ORGANIZATION_ASSIGNMENT ( #212, #241, ( #178 ) ) ;
#100 = CARTESIAN_POINT ( 'NONE',  ( -7.000000000000000000, 0.000000000000000000, 0.000000000000000000 ) ) ;
#101 = CARTESIAN_POINT ( 'NONE',  ( 0.000000000000000000, 0.000000000000000000, 5.000000000000000000 ) ) ;
#102 = ADVANCED_FACE ( 'NONE', ( #339 ), #73, .T. ) ;
#103 = CARTESIAN_POINT ( 'NONE',  ( 0.000000000000000000, 0.000000000000000000, 5.000000000000000000 ) ) ;
#104 = AXIS2_PLACEMENT_3D ( 'NONE', #136, #141, #223 ) ;
#105 = CARTESIAN_POINT ( 'NONE',  ( 0.000000000000000000, 0.000000000000000000, 5.000000000000000000 ) ) ;
#106 = CARTESIAN_POINT ( 'NONE',  ( 0.000000000000000000, 0.000000000000000000, 180.0000000000000000 ) ) ;
#107 = EDGE_LOOP ( 'NONE', ( #228, #235 ) ) ;
#108 = PLANE ( 'NONE',  #330 ) ;
#109 = DIRECTION ( 'NONE',  ( 1.000000000000000000, 0.000000000000000000, 0.000000000000000000 ) ) ;
#110 = EDGE_LOOP ( 'NONE', ( #34, #188, #299, #250 ) ) ;
#111 = DIRECTION ( 'NONE',  ( 0.000000000000000000, 0.000000000000000000, 1.000000000000000000 ) ) ;
#112 = ORIENTED_EDGE ( 'NONE', *, *, #68, .T. ) ;
#113 = AXIS2_PLACEMENT_3D ( 'NONE', #182, #19, #365 ) ;
#114 = FACE_BOUND ( 'NONE', #231, .T. ) ;
#115 = LOCAL_TIME ( 17, 31, 53.00000000000000000, #307 ) ;
#116 = APPROVAL_DATE_TIME ( #32, #159 ) ;
#117 = ORIENTED_EDGE ( 'NONE', *, *, #68, .F. ) ;
#118 = ORIENTED_EDGE ( 'NONE', *, *, #37, .F. ) ;
#119 = CC_DESIGN_DATE_AND_TIME_ASSIGNMENT ( #276, #131, ( #178 ) ) ;
#120 = VECTOR ( 'NONE', #363, 1000.000000000000000 ) ;
#121 = DATE_AND_TIME ( #7, #375 ) ;
#122 = APPROVAL_ROLE ( '' ) ;
#123 = FACE_OUTER_BOUND ( 'NONE', #88, .T. ) ;
#124 = FACE_OUTER_BOUND ( 'NONE', #5, .T. ) ;
#125 = AXIS2_PLACEMENT_3D ( 'NONE', #348, #186, #373 ) ;
#126 = DIRECTION ( 'NONE',  ( -1.000000000000000000, 0.000000000000000000, 0.000000000000000000 ) ) ;
#127 = DIRECTION ( 'NONE',  ( -0.000000000000000000, -0.000000000000000000, -1.000000000000000000 ) ) ;
#128 = APPROVAL_STATUS ( 'not_yet_approved' ) ;
#129 = DIRECTION ( 'NONE',  ( 1.000000000000000000, 0.000000000000000000, 0.000000000000000000 ) ) ;
#130 = PRODUCT_DEFINITION_SHAPE ( 'NONE', 'NONE',  #214 ) ;
#131 = DATE_TIME_ROLE ( 'classification_date' ) ;
#132 = CARTESIAN_POINT ( 'NONE',  ( 4.000000000000000000, 4.898587196589412829E-16, 180.0000000000000000 ) ) ;
#133 = AXIS2_PLACEMENT_3D ( 'NONE', #284, #27, #165 ) ;
#134 = DIRECTION ( 'NONE',  ( -0.000000000000000000, -0.000000000000000000, -1.000000000000000000 ) ) ;
#135 = APPROVAL ( #128, 'NEURÈENÝ' ) ;
#136 = CARTESIAN_POINT ( 'NONE',  ( 4.500000000000000888, 0.000000000000000000, 5.500000000000005329 ) ) ;
#137 = DIRECTION ( 'NONE',  ( -0.000000000000000000, -0.000000000000000000, -1.000000000000000000 ) ) ;
#138 = ORIENTED_EDGE ( 'NONE', *, *, #37, .T. ) ;
#139 = ADVANCED_FACE ( 'NONE', ( #124 ), #210, .T. ) ;
#140 = AXIS2_PLACEMENT_3D ( 'NONE', #279, #157, #311 ) ;
#141 = DIRECTION ( 'NONE',  ( 0.000000000000000000, -1.000000000000000000, 0.000000000000000000 ) ) ;
#142 = DIRECTION ( 'NONE',  ( 1.000000000000000000, 0.000000000000000000, 0.000000000000000000 ) ) ;
#143 = PERSON_AND_ORGANIZATION ( #270, #184 ) ;
#144 = DIRECTION ( 'NONE',  ( -1.000000000000000000, 1.224646799147351482E-16, 0.000000000000000000 ) ) ;
#145 = VERTEX_POINT ( 'NONE', #69 ) ;
#146 = APPROVAL ( #9, 'NEURÈENÝ' ) ;
#147 = FACE_BOUND ( 'NONE', #360, .T. ) ;
#148 = CARTESIAN_POINT ( 'NONE',  ( 0.000000000000000000, 0.000000000000000000, 0.000000000000000000 ) ) ;
#149 = AXIS2_PLACEMENT_3D ( 'NONE', #312, #185, #129 ) ;
#150 = ORIENTED_EDGE ( 'NONE', *, *, #59, .F. ) ;
#151 = AXIS2_PLACEMENT_3D ( 'NONE', #105, #137, #109 ) ;
#152 = DIRECTION ( 'NONE',  ( 0.000000000000000000, 0.000000000000000000, 1.000000000000000000 ) ) ;
#153 = EDGE_CURVE ( 'NONE', #221, #197, #310, .T. ) ;
#154 = DIRECTION ( 'NONE',  ( -0.000000000000000000, -0.000000000000000000, -1.000000000000000000 ) ) ;
#155 = AXIS2_PLACEMENT_3D ( 'NONE', #74, #368, #126 ) ;
#156 =( GEOMETRIC_REPRESENTATION_CONTEXT ( 3 ) GLOBAL_UNCERTAINTY_ASSIGNED_CONTEXT ( ( #166 ) ) GLOBAL_UNIT_ASSIGNED_CONTEXT ( ( #93, #269, #298 ) ) REPRESENTATION_CONTEXT ( 'NONE', 'WORKASPACE' ) );
#157 = DIRECTION ( 'NONE',  ( -0.000000000000000000, -0.000000000000000000, -1.000000000000000000 ) ) ;
#158 = CARTESIAN_POINT ( 'NONE',  ( -7.000000000000000000, 0.000000000000000000, 5.000000000000000000 ) ) ;
#159 = APPROVAL ( #12, 'NEURÈENÝ' ) ;
#160 = CLOSED_SHELL ( 'NONE', ( #350, #1, #102, #324, #139, #20, #290, #315, #308, #278, #24 ) ) ;
#161 = LINE ( 'NONE', #158, #120 ) ;
#162 = CIRCLE ( 'NONE', #199, 4.000000000000000000 ) ;
#163 = FACE_OUTER_BOUND ( 'NONE', #288, .T. ) ;
#164 = CIRCLE ( 'NONE', #104, 0.5000000000000004441 ) ;
#165 = DIRECTION ( 'NONE',  ( 1.000000000000000000, 0.000000000000000000, -0.000000000000000000 ) ) ;
#166 = UNCERTAINTY_MEASURE_WITH_UNIT (LENGTH_MEASURE( 1.000000000000000082E-05 ), #93, 'distance_accuracy_value', 'NONE');
#167 = CARTESIAN_POINT ( 'NONE',  ( 7.000000000000000000, 8.572527594031473190E-16, 5.000000000000000000 ) ) ;
#168 = APPROVAL_PERSON_ORGANIZATION ( #181, #135, #207 ) ;
#169 = CIRCLE ( 'NONE', #216, 4.500000000000000888 ) ;
#170 = DIRECTION ( 'NONE',  ( 0.000000000000000000, 0.000000000000000000, 1.000000000000000000 ) ) ;
#171 = ORIENTED_EDGE ( 'NONE', *, *, #94, .T. ) ;
#172 = AXIS2_PLACEMENT_3D ( 'NONE', #103, #218, #337 ) ;
#173 = DIRECTION ( 'NONE',  ( 1.000000000000000000, 0.000000000000000000, 0.000000000000000000 ) ) ;
#174 = ORIENTED_EDGE ( 'NONE', *, *, #336, .F. ) ;
#175 = ORIENTED_EDGE ( 'NONE', *, *, #193, .T. ) ;
#176 = PERSON_AND_ORGANIZATION_ROLE ( 'creator' ) ;
#177 = ORIENTED_EDGE ( 'NONE', *, *, #341, .T. ) ;
#178 = SECURITY_CLASSIFICATION ( '', '', #325 ) ;
#179 = ORIENTED_EDGE ( 'NONE', *, *, #313, .T. ) ;
#180 = CARTESIAN_POINT ( 'NONE',  ( -7.000000000000000000, 0.000000000000000000, 5.000000000000000000 ) ) ;
#181 = PERSON_AND_ORGANIZATION ( #270, #184 ) ;
#182 = CARTESIAN_POINT ( 'NONE',  ( 0.000000000000000000, 0.000000000000000000, 0.000000000000000000 ) ) ;
#183 = CC_DESIGN_PERSON_AND_ORGANIZATION_ASSIGNMENT ( #205, #176, ( #214 ) ) ;
#184 = ORGANIZATION ( 'NEURÈENÝ', 'NEURÈENÝ', '' ) ;
#185 = DIRECTION ( 'NONE',  ( 0.000000000000000000, 0.000000000000000000, 1.000000000000000000 ) ) ;
#186 = DIRECTION ( 'NONE',  ( -0.000000000000000000, -0.000000000000000000, -1.000000000000000000 ) ) ;
#187 = CIRCLE ( 'NONE', #151, 4.500000000000000888 ) ;
#188 = ORIENTED_EDGE ( 'NONE', *, *, #313, .F. ) ;
#189 = FACE_OUTER_BOUND ( 'NONE', #295, .T. ) ;
#190 = CARTESIAN_POINT ( 'NONE',  ( 0.000000000000000000, 0.000000000000000000, 5.000000000000000000 ) ) ;
#191 = AXIS2_PLACEMENT_3D ( 'NONE', #364, #127, #272 ) ;
#192 = DIRECTION ( 'NONE',  ( 1.000000000000000000, 0.000000000000000000, 0.000000000000000000 ) ) ;
#193 = EDGE_CURVE ( 'NONE', #10, #145, #342, .T. ) ;
#194 = ORIENTED_EDGE ( 'NONE', *, *, #71, .T. ) ;
#195 = PRODUCT_DEFINITION_FORMATION_WITH_SPECIFIED_SOURCE ( 'LIBOVOLNÝ', '', #366, .NOT_KNOWN. ) ;
#196 = CARTESIAN_POINT ( 'NONE',  ( 0.000000000000000000, 0.000000000000000000, 0.000000000000000000 ) ) ;
#197 = VERTEX_POINT ( 'NONE', #46 ) ;
#198 = PERSON_AND_ORGANIZATION ( #270, #184 ) ;
#199 = AXIS2_PLACEMENT_3D ( 'NONE', #44, #43, #242 ) ;
#200 = PERSON_AND_ORGANIZATION_ROLE ( 'design_supplier' ) ;
#201 = ORIENTED_EDGE ( 'NONE', *, *, #374, .T. ) ;
#202 = CC_DESIGN_SECURITY_CLASSIFICATION ( #178, ( #195 ) ) ;
#203 = EDGE_CURVE ( 'NONE', #221, #35, #161, .T. ) ;
#204 = ORIENTED_EDGE ( 'NONE', *, *, #293, .F. ) ;
#205 = PERSON_AND_ORGANIZATION ( #270, #184 ) ;
#206 = ORIENTED_EDGE ( 'NONE', *, *, #293, .T. ) ;
#207 = APPROVAL_ROLE ( '' ) ;
#208 = ORIENTED_EDGE ( 'NONE', *, *, #226, .T. ) ;
#209 = AXIS2_PLACEMENT_3D ( 'NONE', #196, #170, #355 ) ;
#210 = CYLINDRICAL_SURFACE ( 'NONE', #140, 7.000000000000000000 ) ;
#211 = ADVANCED_BREP_SHAPE_REPRESENTATION ( 'c13a', ( #3, #98 ), #156 ) ;
#212 = PERSON_AND_ORGANIZATION ( #270, #184 ) ;
#213 = DIRECTION ( 'NONE',  ( 1.000000000000000000, 0.000000000000000000, -0.000000000000000000 ) ) ;
#214 = PRODUCT_DEFINITION ( 'NEZNÁMÝ', '', #195, #253 ) ;
#215 = DIRECTION ( 'NONE',  ( 1.000000000000000000, 0.000000000000000000, 0.000000000000000000 ) ) ;
#216 = AXIS2_PLACEMENT_3D ( 'NONE', #219, #340, #215 ) ;
#217 = CIRCLE ( 'NONE', #209, 7.000000000000000000 ) ;
#218 = DIRECTION ( 'NONE',  ( 0.000000000000000000, 0.000000000000000000, 1.000000000000000000 ) ) ;
#219 = CARTESIAN_POINT ( 'NONE',  ( 0.000000000000000000, 0.000000000000000000, 5.000000000000000000 ) ) ;
#220 = FACE_BOUND ( 'NONE', #58, .T. ) ;
#221 = VERTEX_POINT ( 'NONE', #180 ) ;
#222 = EDGE_CURVE ( 'NONE', #320, #224, #282, .T. ) ;
#223 = DIRECTION ( 'NONE',  ( 0.000000000000000000, 0.000000000000000000, -1.000000000000000000 ) ) ;
#224 = VERTEX_POINT ( 'NONE', #14 ) ;
#225 = CARTESIAN_POINT ( 'NONE',  ( 0.000000000000000000, 0.000000000000000000, 180.0000000000000000 ) ) ;
#226 = EDGE_CURVE ( 'NONE', #39, #6, #187, .T. ) ;
#227 = DIRECTION ( 'NONE',  ( 0.000000000000000000, 0.000000000000000000, 1.000000000000000000 ) ) ;
#228 = ORIENTED_EDGE ( 'NONE', *, *, #153, .T. ) ;
#229 = AXIS2_PLACEMENT_3D ( 'NONE', #72, #97, #277 ) ;
#230 = CARTESIAN_POINT ( 'NONE',  ( 0.000000000000000000, 0.000000000000000000, 5.500000000000005329 ) ) ;
#231 = EDGE_LOOP ( 'NONE', ( #323, #76 ) ) ;
#232 = CC_DESIGN_APPROVAL ( #159, ( #195 ) ) ;
#233 = APPLICATION_CONTEXT ( 'configuration controlled 3d designs of mechanical parts and assemblies' ) ;
#234 = COORDINATED_UNIVERSAL_TIME_OFFSET ( 1, 0, .AHEAD. ) ;
#235 = ORIENTED_EDGE ( 'NONE', *, *, #264, .T. ) ;
#236 = ORIENTED_EDGE ( 'NONE', *, *, #222, .T. ) ;
#237 = LOCAL_TIME ( 17, 31, 53.00000000000000000, #258 ) ;
#238 = DIRECTION ( 'NONE',  ( 1.224646799147353207E-16, 1.000000000000000000, -0.000000000000000000 ) ) ;
#239 = DIRECTION ( 'NONE',  ( 0.000000000000000000, 0.000000000000000000, -1.000000000000000000 ) ) ;
#240 = ORIENTED_EDGE ( 'NONE', *, *, #41, .T. ) ;
#241 = PERSON_AND_ORGANIZATION_ROLE ( 'classification_officer' ) ;
#242 = DIRECTION ( 'NONE',  ( 1.000000000000000000, 0.000000000000000000, 0.000000000000000000 ) ) ;
#243 = AXIS2_PLACEMENT_3D ( 'NONE', #287, #343, #79 ) ;
#244 = AXIS2_PLACEMENT_3D ( 'NONE', #106, #257, #256 ) ;
#245 = APPROVAL_DATE_TIME ( #18, #135 ) ;
#246 = CARTESIAN_POINT ( 'NONE',  ( -4.500000000000000888, 5.510910596163088569E-16, 5.000000000000002665 ) ) ;
#247 = CARTESIAN_POINT ( 'NONE',  ( 0.000000000000000000, 0.000000000000000000, 0.000000000000000000 ) ) ;
#248 = DIRECTION ( 'NONE',  ( -0.000000000000000000, -0.000000000000000000, -1.000000000000000000 ) ) ;
#249 = CYLINDRICAL_SURFACE ( 'NONE', #125, 7.000000000000000000 ) ;
#250 = ORIENTED_EDGE ( 'NONE', *, *, #226, .F. ) ;
#251 = AXIS2_PLACEMENT_3D ( 'NONE', #297, #238, #144 ) ;
#252 = PLANE ( 'NONE',  #133 ) ;
#253 = DESIGN_CONTEXT ( 'detailed design', #306, 'design' ) ;
#254 = CYLINDRICAL_SURFACE ( 'NONE', #283, 2.000000000000000000 ) ;
#255 = EDGE_LOOP ( 'NONE', ( #62, #236, #179, #204 ) ) ;
#256 = DIRECTION ( 'NONE',  ( 1.000000000000000000, 0.000000000000000000, 0.000000000000000000 ) ) ;
#257 = DIRECTION ( 'NONE',  ( 0.000000000000000000, 0.000000000000000000, 1.000000000000000000 ) ) ;
#258 = COORDINATED_UNIVERSAL_TIME_OFFSET ( 1, 0, .AHEAD. ) ;
#259 = FACE_OUTER_BOUND ( 'NONE', #107, .T. ) ;
#260 = APPROVAL_PERSON_ORGANIZATION ( #198, #159, #354 ) ;
#261 = CARTESIAN_POINT ( 'NONE',  ( 2.000000000000000000, 2.449293598294705921E-16, 180.0000000000000000 ) ) ;
#262 = CARTESIAN_POINT ( 'NONE',  ( 2.000000000000000000, 2.449293598294705921E-16, 0.000000000000000000 ) ) ;
#263 = PERSON_AND_ORGANIZATION ( #270, #184 ) ;
#264 = EDGE_CURVE ( 'NONE', #197, #221, #296, .T. ) ;
#265 = APPLICATION_PROTOCOL_DEFINITION ( 'international standard', 'config_control_design', 1994, #306 ) ;
#266 = ORIENTED_EDGE ( 'NONE', *, *, #268, .T. ) ;
#267 = AXIS2_PLACEMENT_3D ( 'NONE', #225, #285, #23 ) ;
#268 = EDGE_CURVE ( 'NONE', #95, #377, #11, .T. ) ;
#269 =( NAMED_UNIT ( * ) PLANE_ANGLE_UNIT ( ) SI_UNIT ( $, .RADIAN. ) );
#270 = PERSON ( 'NEURÈENÝ', 'NEURÈENÝ', 'NEURÈENÝ', ('NEURÈENÝ'), ('NEURÈENÝ'), ('NEURÈENÝ') ) ;
#271 = DIRECTION ( 'NONE',  ( 1.000000000000000000, 0.000000000000000000, 0.000000000000000000 ) ) ;
#272 = DIRECTION ( 'NONE',  ( 1.000000000000000000, 0.000000000000000000, 0.000000000000000000 ) ) ;
#273 = SHAPE_DEFINITION_REPRESENTATION ( #130, #211 ) ;
#274 = LINE ( 'NONE', #305, #335 ) ;
#275 = AXIS2_PLACEMENT_3D ( 'NONE', #54, #314, #82 ) ;
#276 = DATE_AND_TIME ( #42, #115 ) ;
#277 = DIRECTION ( 'NONE',  ( -1.000000000000000000, 0.000000000000000000, 0.000000000000000000 ) ) ;
#278 = ADVANCED_FACE ( 'NONE', ( #81 ), #17, .F. ) ;
#279 = CARTESIAN_POINT ( 'NONE',  ( 0.000000000000000000, 0.000000000000000000, 5.000000000000000000 ) ) ;
#280 = EDGE_CURVE ( 'NONE', #197, #80, #48, .T. ) ;
#281 = CIRCLE ( 'NONE', #113, 7.000000000000000000 ) ;
#282 = LINE ( 'NONE', #132, #53 ) ;
#283 = AXIS2_PLACEMENT_3D ( 'NONE', #376, #345, #319 ) ;
#284 = CARTESIAN_POINT ( 'NONE',  ( 0.000000000000000000, 0.000000000000000000, 180.0000000000000000 ) ) ;
#285 = DIRECTION ( 'NONE',  ( -0.000000000000000000, -0.000000000000000000, -1.000000000000000000 ) ) ;
#286 = AXIS2_PLACEMENT_3D ( 'NONE', #301, #152, #271 ) ;
#287 = CARTESIAN_POINT ( 'NONE',  ( 0.000000000000000000, 0.000000000000000000, 180.0000000000000000 ) ) ;
#288 = EDGE_LOOP ( 'NONE', ( #329, #304 ) ) ;
#289 = CARTESIAN_POINT ( 'NONE',  ( 0.000000000000000000, 0.000000000000000000, 0.000000000000000000 ) ) ;
#290 = ADVANCED_FACE ( 'NONE', ( #114, #163 ), #108, .F. ) ;
#291 = CARTESIAN_POINT ( 'NONE',  ( 0.000000000000000000, 0.000000000000000000, 180.0000000000000000 ) ) ;
#292 = TOROIDAL_SURFACE ( 'NONE', #286, 4.500000000000000888, 0.5000000000000000000 ) ;
#293 = EDGE_CURVE ( 'NONE', #66, #379, #347, .T. ) ;
#294 = COORDINATED_UNIVERSAL_TIME_OFFSET ( 1, 0, .AHEAD. ) ;
#295 = EDGE_LOOP ( 'NONE', ( #177, #326, #175, #118 ) ) ;
#296 = CIRCLE ( 'NONE', #84, 7.000000000000000000 ) ;
#297 = CARTESIAN_POINT ( 'NONE',  ( -4.500000000000000888, 5.510910596163089556E-16, 5.500000000000005329 ) ) ;
#298 =( NAMED_UNIT ( * ) SI_UNIT ( $, .STERADIAN. ) SOLID_ANGLE_UNIT ( ) );
#299 = ORIENTED_EDGE ( 'NONE', *, *, #336, .T. ) ;
#300 = CALENDAR_DATE ( 2022, 8, 7 ) ;
#301 = CARTESIAN_POINT ( 'NONE',  ( 0.000000000000000000, 0.000000000000000000, 5.500000000000005329 ) ) ;
#302 = VECTOR ( 'NONE', #134, 1000.000000000000000 ) ;
#303 = CALENDAR_DATE ( 2022, 8, 7 ) ;
#304 = ORIENTED_EDGE ( 'NONE', *, *, #41, .F. ) ;
#305 = CARTESIAN_POINT ( 'NONE',  ( -2.000000000000000000, 0.000000000000000000, 180.0000000000000000 ) ) ;
#306 = APPLICATION_CONTEXT ( 'configuration controlled 3d designs of mechanical parts and assemblies' ) ;
#307 = COORDINATED_UNIVERSAL_TIME_OFFSET ( 1, 0, .AHEAD. ) ;
#308 = ADVANCED_FACE ( 'NONE', ( #220, #381 ), #252, .T. ) ;
#309 = CARTESIAN_POINT ( 'NONE',  ( 7.000000000000000000, 8.572527594031473190E-16, 0.000000000000000000 ) ) ;
#310 = CIRCLE ( 'NONE', #172, 7.000000000000000000 ) ;
#311 = DIRECTION ( 'NONE',  ( -1.000000000000000000, 0.000000000000000000, 0.000000000000000000 ) ) ;
#312 = CARTESIAN_POINT ( 'NONE',  ( 0.000000000000000000, 0.000000000000000000, 180.0000000000000000 ) ) ;
#313 = EDGE_CURVE ( 'NONE', #224, #379, #60, .T. ) ;
#314 = DIRECTION ( 'NONE',  ( 0.000000000000000000, 0.000000000000000000, 1.000000000000000000 ) ) ;
#315 = ADVANCED_FACE ( 'NONE', ( #75 ), #28, .T. ) ;
#316 = CC_DESIGN_DATE_AND_TIME_ASSIGNMENT ( #57, #38, ( #214 ) ) ;
#317 = DIRECTION ( 'NONE',  ( 1.000000000000000000, 0.000000000000000000, -0.000000000000000000 ) ) ;
#318 = CIRCLE ( 'NONE', #149, 4.000000000000000000 ) ;
#319 = DIRECTION ( 'NONE',  ( -1.000000000000000000, 0.000000000000000000, 0.000000000000000000 ) ) ;
#320 = VERTEX_POINT ( 'NONE', #25 ) ;
#321 = ORIENTED_EDGE ( 'NONE', *, *, #268, .F. ) ;
#322 = CARTESIAN_POINT ( 'NONE',  ( -4.000000000000000000, 0.000000000000000000, 5.500000000000005329 ) ) ;
#323 = ORIENTED_EDGE ( 'NONE', *, *, #94, .F. ) ;
#324 = ADVANCED_FACE ( 'NONE', ( #52 ), #249, .T. ) ;
#325 = SECURITY_CLASSIFICATION_LEVEL ( 'unclassified' ) ;
#326 = ORIENTED_EDGE ( 'NONE', *, *, #380, .T. ) ;
#327 = ORIENTED_EDGE ( 'NONE', *, *, #341, .F. ) ;
#328 = PERSON_AND_ORGANIZATION_ROLE ( 'design_owner' ) ;
#329 = ORIENTED_EDGE ( 'NONE', *, *, #374, .F. ) ;
#330 = AXIS2_PLACEMENT_3D ( 'NONE', #289, #227, #317 ) ;
#331 = DIRECTION ( 'NONE',  ( 0.000000000000000000, 0.000000000000000000, -1.000000000000000000 ) ) ;
#332 = COORDINATED_UNIVERSAL_TIME_OFFSET ( 1, 0, .AHEAD. ) ;
#333 = DIRECTION ( 'NONE',  ( 0.000000000000000000, 0.000000000000000000, 1.000000000000000000 ) ) ;
#334 = AXIS2_PLACEMENT_3D ( 'NONE', #101, #333, #213 ) ;
#335 = VECTOR ( 'NONE', #331, 1000.000000000000000 ) ;
#336 = EDGE_CURVE ( 'NONE', #224, #6, #164, .T. ) ;
#337 = DIRECTION ( 'NONE',  ( 1.000000000000000000, 0.000000000000000000, 0.000000000000000000 ) ) ;
#338 = CC_DESIGN_PERSON_AND_ORGANIZATION_ASSIGNMENT ( #352, #87, ( #195 ) ) ;
#339 = FACE_OUTER_BOUND ( 'NONE', #255, .T. ) ;
#340 = DIRECTION ( 'NONE',  ( -0.000000000000000000, -0.000000000000000000, -1.000000000000000000 ) ) ;
#341 = EDGE_CURVE ( 'NONE', #377, #95, #78, .T. ) ;
#342 = CIRCLE ( 'NONE', #357, 2.000000000000000000 ) ;
#343 = DIRECTION ( 'NONE',  ( 0.000000000000000000, 0.000000000000000000, 1.000000000000000000 ) ) ;
#344 = ORIENTED_EDGE ( 'NONE', *, *, #59, .T. ) ;
#345 = DIRECTION ( 'NONE',  ( 0.000000000000000000, 0.000000000000000000, -1.000000000000000000 ) ) ;
#346 = CC_DESIGN_PERSON_AND_ORGANIZATION_ASSIGNMENT ( #263, #328, ( #366 ) ) ;
#347 = LINE ( 'NONE', #50, #22 ) ;
#348 = CARTESIAN_POINT ( 'NONE',  ( 0.000000000000000000, 0.000000000000000000, 5.000000000000000000 ) ) ;
#349 = AXIS2_PLACEMENT_3D ( 'NONE', #291, #29, #142 ) ;
#350 = ADVANCED_FACE ( 'NONE', ( #189 ), #254, .F. ) ;
#351 = ORIENTED_EDGE ( 'NONE', *, *, #222, .F. ) ;
#352 = PERSON_AND_ORGANIZATION ( #270, #184 ) ;
#353 = PLANE ( 'NONE',  #334 ) ;
#354 = APPROVAL_ROLE ( '' ) ;
#355 = DIRECTION ( 'NONE',  ( 1.000000000000000000, 0.000000000000000000, 0.000000000000000000 ) ) ;
#356 = EDGE_LOOP ( 'NONE', ( #351, #117, #206, #194 ) ) ;
#357 = AXIS2_PLACEMENT_3D ( 'NONE', #247, #154, #370 ) ;
#358 = EDGE_CURVE ( 'NONE', #320, #66, #4, .T. ) ;
#359 = APPROVAL_DATE_TIME ( #121, #146 ) ;
#360 = EDGE_LOOP ( 'NONE', ( #344, #208 ) ) ;
#361 = DIRECTION ( 'NONE',  ( 0.000000000000000000, 0.000000000000000000, 1.000000000000000000 ) ) ;
#362 = ORIENTED_EDGE ( 'NONE', *, *, #15, .T. ) ;
#363 = DIRECTION ( 'NONE',  ( -0.000000000000000000, -0.000000000000000000, -1.000000000000000000 ) ) ;
#364 = CARTESIAN_POINT ( 'NONE',  ( 0.000000000000000000, 0.000000000000000000, 0.000000000000000000 ) ) ;
#365 = DIRECTION ( 'NONE',  ( 1.000000000000000000, 0.000000000000000000, 0.000000000000000000 ) ) ;
#366 = PRODUCT ( 'c13a', 'c13a', '', ( #61 ) ) ;
#367 = CIRCLE ( 'NONE', #191, 2.000000000000000000 ) ;
#368 = DIRECTION ( 'NONE',  ( -0.000000000000000000, -0.000000000000000000, -1.000000000000000000 ) ) ;
#369 = APPROVAL_PERSON_ORGANIZATION ( #143, #146, #122 ) ;
#370 = DIRECTION ( 'NONE',  ( 1.000000000000000000, 0.000000000000000000, 0.000000000000000000 ) ) ;
#371 = CC_DESIGN_PERSON_AND_ORGANIZATION_ASSIGNMENT ( #89, #200, ( #195 ) ) ;
#372 = ORIENTED_EDGE ( 'NONE', *, *, #280, .F. ) ;
#373 = DIRECTION ( 'NONE',  ( -1.000000000000000000, 0.000000000000000000, 0.000000000000000000 ) ) ;
#374 = EDGE_CURVE ( 'NONE', #35, #80, #217, .T. ) ;
#375 = LOCAL_TIME ( 17, 31, 53.00000000000000000, #234 ) ;
#376 = CARTESIAN_POINT ( 'NONE',  ( 0.000000000000000000, 0.000000000000000000, 180.0000000000000000 ) ) ;
#377 = VERTEX_POINT ( 'NONE', #91 ) ;
#378 = DIRECTION ( 'NONE',  ( -0.000000000000000000, -0.000000000000000000, -1.000000000000000000 ) ) ;
#379 = VERTEX_POINT ( 'NONE', #322 ) ;
#380 = EDGE_CURVE ( 'NONE', #95, #10, #64, .T. ) ;
#381 = FACE_OUTER_BOUND ( 'NONE', #65, .T. ) ;
ENDSEC;
END-ISO-10303-21;
