ISO-10303-21;
HEADER;
FILE_DESCRIPTION (( 'STEP AP203' ),
    '1' );
FILE_NAME ('f93c.STEP',
    '2022-07-08T15:43:11',
    ( '' ),
    ( '' ),
    'SwSTEP 2.0',
    'SolidWorks 2019',
    '' );
FILE_SCHEMA (( 'CONFIG_CONTROL_DESIGN' ));
ENDSEC;

DATA;
#1 = DIRECTION ( 'NONE',  ( 0.000000000000000000, 0.000000000000000000, 1.000000000000000000 ) ) ;
#2 = AXIS2_PLACEMENT_3D ( 'NONE', #171, #228, #28 ) ;
#3 = EDGE_CURVE ( 'NONE', #162, #14, #193, .T. ) ;
#4 = DIRECTION ( 'NONE',  ( 0.000000000000000000, 0.000000000000000000, -1.000000000000000000 ) ) ;
#5 = VECTOR ( 'NONE', #92, 1000.000000000000000 ) ;
#6 = CARTESIAN_POINT ( 'NONE',  ( 0.000000000000000000, 0.000000000000000000, 0.000000000000000000 ) ) ;
#7 = ORIENTED_EDGE ( 'NONE', *, *, #60, .T. ) ;
#8 = FACE_OUTER_BOUND ( 'NONE', #96, .T. ) ;
#9 = CARTESIAN_POINT ( 'NONE',  ( 0.000000000000000000, 0.000000000000000000, 3.000000000000000000 ) ) ;
#10 = ORIENTED_EDGE ( 'NONE', *, *, #164, .F. ) ;
#11 = CARTESIAN_POINT ( 'NONE',  ( 2.500000000000000000, 3.061616997868383141E-16, 3.299999999999997158 ) ) ;
#12 = APPLICATION_CONTEXT ( 'configuration controlled 3d designs of mechanical parts and assemblies' ) ;
#13 = CARTESIAN_POINT ( 'NONE',  ( 0.000000000000000000, 0.000000000000000000, 128.0000000000000000 ) ) ;
#14 = VERTEX_POINT ( 'NONE', #103 ) ;
#15 = AXIS2_PLACEMENT_3D ( 'NONE', #55, #263, #327 ) ;
#16 = APPROVAL_PERSON_ORGANIZATION ( #255, #226, #131 ) ;
#17 = DIRECTION ( 'NONE',  ( -0.000000000000000000, -0.000000000000000000, -1.000000000000000000 ) ) ;
#18 = DIRECTION ( 'NONE',  ( 0.000000000000000000, 0.000000000000000000, 1.000000000000000000 ) ) ;
#19 = AXIS2_PLACEMENT_3D ( 'NONE', #341, #227, #356 ) ;
#20 = ORIENTED_EDGE ( 'NONE', *, *, #283, .F. ) ;
#21 = ADVANCED_FACE ( 'NONE', ( #287 ), #101, .F. ) ;
#22 = CALENDAR_DATE ( 2022, 8, 7 ) ;
#23 = ORIENTED_EDGE ( 'NONE', *, *, #105, .T. ) ;
#24 = EDGE_LOOP ( 'NONE', ( #83, #370, #313, #256 ) ) ;
#25 = APPROVAL_STATUS ( 'not_yet_approved' ) ;
#26 = UNCERTAINTY_MEASURE_WITH_UNIT (LENGTH_MEASURE( 1.000000000000000082E-05 ), #299, 'distance_accuracy_value', 'NONE');
#27 = CARTESIAN_POINT ( 'NONE',  ( 0.000000000000000000, 0.000000000000000000, 3.000000000000000000 ) ) ;
#28 = DIRECTION ( 'NONE',  ( -1.000000000000000000, 1.224646799147353207E-16, 0.000000000000000000 ) ) ;
#29 = LINE ( 'NONE', #137, #188 ) ;
#30 = MANIFOLD_SOLID_BREP ( 'Odebrat vysunutím3', #323 ) ;
#31 = DIRECTION ( 'NONE',  ( 0.000000000000000000, 0.000000000000000000, 1.000000000000000000 ) ) ;
#32 = FACE_OUTER_BOUND ( 'NONE', #24, .T. ) ;
#33 = CARTESIAN_POINT ( 'NONE',  ( -1.600000000000000089, 0.000000000000000000, 0.000000000000000000 ) ) ;
#34 = AXIS2_PLACEMENT_3D ( 'NONE', #9, #235, #337 ) ;
#35 = ADVANCED_BREP_SHAPE_REPRESENTATION ( 'f93c', ( #30, #247 ), #214 ) ;
#36 = LINE ( 'NONE', #277, #361 ) ;
#37 = DIRECTION ( 'NONE',  ( -1.000000000000000000, 0.000000000000000000, 0.000000000000000000 ) ) ;
#38 = AXIS2_PLACEMENT_3D ( 'NONE', #379, #51, #160 ) ;
#39 = VERTEX_POINT ( 'NONE', #165 ) ;
#40 = EDGE_CURVE ( 'NONE', #42, #304, #342, .T. ) ;
#41 = CARTESIAN_POINT ( 'NONE',  ( 2.500000000000000000, 3.061616997868383141E-16, 128.0000000000000000 ) ) ;
#42 = VERTEX_POINT ( 'NONE', #187 ) ;
#43 = CIRCLE ( 'NONE', #169, 5.000000000000000000 ) ;
#44 = FACE_BOUND ( 'NONE', #210, .T. ) ;
#45 = APPROVAL_ROLE ( '' ) ;
#46 = ORIENTED_EDGE ( 'NONE', *, *, #245, .F. ) ;
#47 = EDGE_CURVE ( 'NONE', #270, #39, #198, .T. ) ;
#48 = AXIS2_PLACEMENT_3D ( 'NONE', #61, #1, #352 ) ;
#49 = LOCAL_TIME ( 17, 43, 11.00000000000000000, #127 ) ;
#50 = APPLICATION_PROTOCOL_DEFINITION ( 'international standard', 'config_control_design', 1994, #321 ) ;
#51 = DIRECTION ( 'NONE',  ( -0.000000000000000000, -0.000000000000000000, -1.000000000000000000 ) ) ;
#52 = DATE_AND_TIME ( #316, #258 ) ;
#53 = APPROVAL_STATUS ( 'not_yet_approved' ) ;
#54 = DIRECTION ( 'NONE',  ( 0.000000000000000000, 0.000000000000000000, 1.000000000000000000 ) ) ;
#55 = CARTESIAN_POINT ( 'NONE',  ( 0.000000000000000000, 0.000000000000000000, 128.0000000000000000 ) ) ;
#56 = EDGE_CURVE ( 'NONE', #244, #346, #253, .T. ) ;
#57 = CARTESIAN_POINT ( 'NONE',  ( 0.000000000000000000, 0.000000000000000000, 128.0000000000000000 ) ) ;
#58 = CYLINDRICAL_SURFACE ( 'NONE', #151, 2.500000000000000000 ) ;
#59 = AXIS2_PLACEMENT_3D ( 'NONE', #364, #122, #243 ) ;
#60 = EDGE_CURVE ( 'NONE', #244, #304, #88, .T. ) ;
#61 = CARTESIAN_POINT ( 'NONE',  ( 0.000000000000000000, 0.000000000000000000, 128.0000000000000000 ) ) ;
#62 = CARTESIAN_POINT ( 'NONE',  ( 5.000000000000000000, 6.123233995736766282E-16, 0.000000000000000000 ) ) ;
#63 = DIRECTION ( 'NONE',  ( 1.000000000000000000, 0.000000000000000000, 0.000000000000000000 ) ) ;
#64 = VERTEX_POINT ( 'NONE', #173 ) ;
#65 = CIRCLE ( 'NONE', #138, 2.500000000000000000 ) ;
#66 = ORIENTED_EDGE ( 'NONE', *, *, #290, .T. ) ;
#67 = EDGE_CURVE ( 'NONE', #276, #229, #302, .T. ) ;
#68 = DIRECTION ( 'NONE',  ( 0.000000000000000000, 0.000000000000000000, 1.000000000000000000 ) ) ;
#69 = EDGE_LOOP ( 'NONE', ( #129, #66, #126, #242 ) ) ;
#70 = DESIGN_CONTEXT ( 'detailed design', #12, 'design' ) ;
#71 = FACE_OUTER_BOUND ( 'NONE', #338, .T. ) ;
#72 = AXIS2_PLACEMENT_3D ( 'NONE', #86, #196, #266 ) ;
#73 = EDGE_CURVE ( 'NONE', #64, #162, #353, .T. ) ;
#74 = PERSON_AND_ORGANIZATION_ROLE ( 'classification_officer' ) ;
#75 = EDGE_LOOP ( 'NONE', ( #156, #233 ) ) ;
#76 = COORDINATED_UNIVERSAL_TIME_OFFSET ( 1, 0, .AHEAD. ) ;
#77 = PERSON_AND_ORGANIZATION ( #236, #269 ) ;
#78 = DIRECTION ( 'NONE',  ( -1.000000000000000000, 0.000000000000000000, 0.000000000000000000 ) ) ;
#79 = AXIS2_PLACEMENT_3D ( 'NONE', #118, #18, #63 ) ;
#80 = DATE_AND_TIME ( #134, #49 ) ;
#81 = CARTESIAN_POINT ( 'NONE',  ( -5.000000000000000000, 0.000000000000000000, 3.000000000000000000 ) ) ;
#82 = EDGE_CURVE ( 'NONE', #229, #39, #298, .T. ) ;
#83 = ORIENTED_EDGE ( 'NONE', *, *, #67, .T. ) ;
#84 = LOCAL_TIME ( 17, 43, 11.00000000000000000, #191 ) ;
#85 = ADVANCED_FACE ( 'NONE', ( #203 ), #348, .F. ) ;
#86 = CARTESIAN_POINT ( 'NONE',  ( 0.000000000000000000, 0.000000000000000000, 128.0000000000000000 ) ) ;
#87 = CYLINDRICAL_SURFACE ( 'NONE', #157, 5.000000000000000000 ) ;
#88 = CIRCLE ( 'NONE', #19, 0.2999999999999999334 ) ;
#89 = DIRECTION ( 'NONE',  ( 1.000000000000000000, 0.000000000000000000, 0.000000000000000000 ) ) ;
#90 = CARTESIAN_POINT ( 'NONE',  ( -5.000000000000000000, 0.000000000000000000, 3.000000000000000000 ) ) ;
#91 = VECTOR ( 'NONE', #17, 1000.000000000000000 ) ;
#92 = DIRECTION ( 'NONE',  ( 0.000000000000000000, 0.000000000000000000, -1.000000000000000000 ) ) ;
#93 = ORIENTED_EDGE ( 'NONE', *, *, #105, .F. ) ;
#94 = DIRECTION ( 'NONE',  ( -0.000000000000000000, -0.000000000000000000, -1.000000000000000000 ) ) ;
#95 = DIRECTION ( 'NONE',  ( 0.000000000000000000, 0.000000000000000000, 1.000000000000000000 ) ) ;
#96 = EDGE_LOOP ( 'NONE', ( #363, #120, #340, #206 ) ) ;
#97 = DIRECTION ( 'NONE',  ( 1.000000000000000000, 0.000000000000000000, 0.000000000000000000 ) ) ;
#98 = FACE_OUTER_BOUND ( 'NONE', #308, .T. ) ;
#99 = APPROVAL_PERSON_ORGANIZATION ( #312, #347, #252 ) ;
#100 = PERSON_AND_ORGANIZATION ( #236, #269 ) ;
#101 = CYLINDRICAL_SURFACE ( 'NONE', #234, 1.600000000000000089 ) ;
#102 = COORDINATED_UNIVERSAL_TIME_OFFSET ( 1, 0, .AHEAD. ) ;
#103 = CARTESIAN_POINT ( 'NONE',  ( -5.000000000000000000, 0.000000000000000000, 0.000000000000000000 ) ) ;
#104 = DIRECTION ( 'NONE',  ( -0.000000000000000000, -0.000000000000000000, -1.000000000000000000 ) ) ;
#105 = EDGE_CURVE ( 'NONE', #346, #42, #311, .T. ) ;
#106 = APPROVAL_DATE_TIME ( #372, #347 ) ;
#107 = EDGE_LOOP ( 'NONE', ( #208, #251, #274, #285 ) ) ;
#108 = EDGE_CURVE ( 'NONE', #304, #42, #326, .T. ) ;
#109 = DIRECTION ( 'NONE',  ( -1.000000000000000000, 0.000000000000000000, 0.000000000000000000 ) ) ;
#110 = AXIS2_PLACEMENT_3D ( 'NONE', #324, #355, #89 ) ;
#111 = CYLINDRICAL_SURFACE ( 'NONE', #15, 2.500000000000000000 ) ;
#112 = FACE_OUTER_BOUND ( 'NONE', #132, .T. ) ;
#113 = DIRECTION ( 'NONE',  ( 1.000000000000000000, 0.000000000000000000, 0.000000000000000000 ) ) ;
#114 = ADVANCED_FACE ( 'NONE', ( #135 ), #58, .T. ) ;
#115 = TOROIDAL_SURFACE ( 'NONE', #345, 2.799999999999999822, 0.2999999999999999889 ) ;
#116 = CARTESIAN_POINT ( 'NONE',  ( -1.600000000000000089, 0.000000000000000000, 128.0000000000000000 ) ) ;
#117 = EDGE_CURVE ( 'NONE', #276, #270, #29, .T. ) ;
#118 = CARTESIAN_POINT ( 'NONE',  ( 0.000000000000000000, 0.000000000000000000, 0.000000000000000000 ) ) ;
#119 = CARTESIAN_POINT ( 'NONE',  ( -2.500000000000000000, 0.000000000000000000, 3.299999999999997158 ) ) ;
#120 = ORIENTED_EDGE ( 'NONE', *, *, #197, .F. ) ;
#121 = AXIS2_PLACEMENT_3D ( 'NONE', #13, #178, #303 ) ;
#122 = DIRECTION ( 'NONE',  ( 0.000000000000000000, 0.000000000000000000, 1.000000000000000000 ) ) ;
#123 = ORIENTED_EDGE ( 'NONE', *, *, #330, .T. ) ;
#124 = CC_DESIGN_PERSON_AND_ORGANIZATION_ASSIGNMENT ( #163, #374, ( #249 ) ) ;
#125 = AXIS2_PLACEMENT_3D ( 'NONE', #380, #265, #354 ) ;
#126 = ORIENTED_EDGE ( 'NONE', *, *, #117, .T. ) ;
#127 = COORDINATED_UNIVERSAL_TIME_OFFSET ( 1, 0, .AHEAD. ) ;
#128 = AXIS2_PLACEMENT_3D ( 'NONE', #139, #195, #113 ) ;
#129 = ORIENTED_EDGE ( 'NONE', *, *, #82, .F. ) ;
#130 = ADVANCED_FACE ( 'NONE', ( #142, #112 ), #261, .T. ) ;
#131 = APPROVAL_ROLE ( '' ) ;
#132 = EDGE_LOOP ( 'NONE', ( #296, #172 ) ) ;
#133 = EDGE_LOOP ( 'NONE', ( #281, #278 ) ) ;
#134 = CALENDAR_DATE ( 2022, 8, 7 ) ;
#135 = FACE_OUTER_BOUND ( 'NONE', #373, .T. ) ;
#136 = VECTOR ( 'NONE', #104, 1000.000000000000000 ) ;
#137 = CARTESIAN_POINT ( 'NONE',  ( -1.600000000000000089, 0.000000000000000000, 128.0000000000000000 ) ) ;
#138 = AXIS2_PLACEMENT_3D ( 'NONE', #146, #68, #335 ) ;
#139 = CARTESIAN_POINT ( 'NONE',  ( 0.000000000000000000, 0.000000000000000000, 3.000000000000000000 ) ) ;
#140 = CC_DESIGN_PERSON_AND_ORGANIZATION_ASSIGNMENT ( #375, #74, ( #264 ) ) ;
#141 = DIRECTION ( 'NONE',  ( 1.000000000000000000, 0.000000000000000000, 0.000000000000000000 ) ) ;
#142 = FACE_BOUND ( 'NONE', #365, .T. ) ;
#143 = CC_DESIGN_APPROVAL ( #347, ( #297 ) ) ;
#144 = LINE ( 'NONE', #41, #91 ) ;
#145 = ADVANCED_FACE ( 'NONE', ( #32 ), #230, .F. ) ;
#146 = CARTESIAN_POINT ( 'NONE',  ( 0.000000000000000000, 0.000000000000000000, 128.0000000000000000 ) ) ;
#147 = ORIENTED_EDGE ( 'NONE', *, *, #153, .F. ) ;
#148 = AXIS2_PLACEMENT_3D ( 'NONE', #27, #194, #218 ) ;
#149 = CARTESIAN_POINT ( 'NONE',  ( -2.500000000000000000, 0.000000000000000000, 128.0000000000000000 ) ) ;
#150 = EDGE_LOOP ( 'NONE', ( #10, #367 ) ) ;
#151 = AXIS2_PLACEMENT_3D ( 'NONE', #57, #295, #109 ) ;
#152 = CARTESIAN_POINT ( 'NONE',  ( -2.500000000000000000, 0.000000000000000000, 128.0000000000000000 ) ) ;
#153 = EDGE_CURVE ( 'NONE', #39, #270, #231, .T. ) ;
#154 = APPROVAL_DATE_TIME ( #52, #168 ) ;
#155 = SECURITY_CLASSIFICATION_LEVEL ( 'unclassified' ) ;
#156 = ORIENTED_EDGE ( 'NONE', *, *, #267, .T. ) ;
#157 = AXIS2_PLACEMENT_3D ( 'NONE', #325, #271, #205 ) ;
#158 = CC_DESIGN_PERSON_AND_ORGANIZATION_ASSIGNMENT ( #77, #280, ( #249 ) ) ;
#159 =( NAMED_UNIT ( * ) PLANE_ANGLE_UNIT ( ) SI_UNIT ( $, .RADIAN. ) );
#160 = DIRECTION ( 'NONE',  ( 1.000000000000000000, 0.000000000000000000, 0.000000000000000000 ) ) ;
#161 = SHAPE_DEFINITION_REPRESENTATION ( #291, #35 ) ;
#162 = VERTEX_POINT ( 'NONE', #90 ) ;
#163 = PERSON_AND_ORGANIZATION ( #236, #269 ) ;
#164 = EDGE_CURVE ( 'NONE', #14, #248, #43, .T. ) ;
#165 = CARTESIAN_POINT ( 'NONE',  ( 1.600000000000000089, 1.959434878635765230E-16, 0.000000000000000000 ) ) ;
#166 = AXIS2_PLACEMENT_3D ( 'NONE', #301, #275, #37 ) ;
#167 = DIRECTION ( 'NONE',  ( 1.000000000000000000, 0.000000000000000000, 0.000000000000000000 ) ) ;
#168 = APPROVAL ( #309, 'NEURÈENÝ' ) ;
#169 = AXIS2_PLACEMENT_3D ( 'NONE', #6, #322, #202 ) ;
#170 = CC_DESIGN_APPROVAL ( #168, ( #264 ) ) ;
#171 = CARTESIAN_POINT ( 'NONE',  ( -2.799999999999999822, 3.429011037612588783E-16, 3.299999999999997158 ) ) ;
#172 = ORIENTED_EDGE ( 'NONE', *, *, #185, .T. ) ;
#173 = CARTESIAN_POINT ( 'NONE',  ( 5.000000000000000000, 6.123233995736766282E-16, 3.000000000000000000 ) ) ;
#174 = AXIS2_PLACEMENT_3D ( 'NONE', #289, #31, #167 ) ;
#175 = DIRECTION ( 'NONE',  ( 0.000000000000000000, 0.000000000000000000, 1.000000000000000000 ) ) ;
#176 = ADVANCED_FACE ( 'NONE', ( #8 ), #111, .T. ) ;
#177 = FACE_BOUND ( 'NONE', #133, .T. ) ;
#178 = DIRECTION ( 'NONE',  ( 0.000000000000000000, 0.000000000000000000, 1.000000000000000000 ) ) ;
#179 = AXIS2_PLACEMENT_3D ( 'NONE', #292, #54, #141 ) ;
#180 = FACE_OUTER_BOUND ( 'NONE', #75, .T. ) ;
#181 = CYLINDRICAL_SURFACE ( 'NONE', #166, 5.000000000000000000 ) ;
#182 = ORIENTED_EDGE ( 'NONE', *, *, #290, .F. ) ;
#183 = DATE_TIME_ROLE ( 'creation_date' ) ;
#184 = DIRECTION ( 'NONE',  ( 0.000000000000000000, 0.000000000000000000, -1.000000000000000000 ) ) ;
#185 = EDGE_CURVE ( 'NONE', #237, #359, #368, .T. ) ;
#186 = DIRECTION ( 'NONE',  ( 0.000000000000000000, 0.000000000000000000, 1.000000000000000000 ) ) ;
#187 = CARTESIAN_POINT ( 'NONE',  ( -2.799999999999999822, 3.429011037612589276E-16, 2.999999999999998668 ) ) ;
#188 = VECTOR ( 'NONE', #4, 1000.000000000000000 ) ;
#189 = PERSON_AND_ORGANIZATION ( #236, #269 ) ;
#190 = ADVANCED_FACE ( 'NONE', ( #199 ), #87, .T. ) ;
#191 = COORDINATED_UNIVERSAL_TIME_OFFSET ( 1, 0, .AHEAD. ) ;
#192 = AXIS2_PLACEMENT_3D ( 'NONE', #254, #221, #319 ) ;
#193 = LINE ( 'NONE', #81, #136 ) ;
#194 = DIRECTION ( 'NONE',  ( -0.000000000000000000, -0.000000000000000000, -1.000000000000000000 ) ) ;
#195 = DIRECTION ( 'NONE',  ( -0.000000000000000000, -0.000000000000000000, -1.000000000000000000 ) ) ;
#196 = DIRECTION ( 'NONE',  ( 0.000000000000000000, 0.000000000000000000, -1.000000000000000000 ) ) ;
#197 = EDGE_CURVE ( 'NONE', #359, #237, #65, .T. ) ;
#198 = CIRCLE ( 'NONE', #38, 1.600000000000000089 ) ;
#199 = FACE_OUTER_BOUND ( 'NONE', #107, .T. ) ;
#200 = ORIENTED_EDGE ( 'NONE', *, *, #108, .F. ) ;
#201 = VECTOR ( 'NONE', #94, 1000.000000000000000 ) ;
#202 = DIRECTION ( 'NONE',  ( 1.000000000000000000, 0.000000000000000000, 0.000000000000000000 ) ) ;
#203 = FACE_OUTER_BOUND ( 'NONE', #215, .T. ) ;
#204 = ORIENTED_EDGE ( 'NONE', *, *, #164, .T. ) ;
#205 = DIRECTION ( 'NONE',  ( -1.000000000000000000, 0.000000000000000000, 0.000000000000000000 ) ) ;
#206 = ORIENTED_EDGE ( 'NONE', *, *, #216, .T. ) ;
#207 = LINE ( 'NONE', #149, #201 ) ;
#208 = ORIENTED_EDGE ( 'NONE', *, *, #73, .F. ) ;
#209 = PLANE ( 'NONE',  #34 ) ;
#210 = EDGE_LOOP ( 'NONE', ( #279, #147 ) ) ;
#211 = DIRECTION ( 'NONE',  ( 1.000000000000000000, 0.000000000000000000, 0.000000000000000000 ) ) ;
#212 = ORIENTED_EDGE ( 'NONE', *, *, #67, .F. ) ;
#213 = PERSON_AND_ORGANIZATION_ROLE ( 'creator' ) ;
#214 =( GEOMETRIC_REPRESENTATION_CONTEXT ( 3 ) GLOBAL_UNCERTAINTY_ASSIGNED_CONTEXT ( ( #26 ) ) GLOBAL_UNIT_ASSIGNED_CONTEXT ( ( #299, #159, #246 ) ) REPRESENTATION_CONTEXT ( 'NONE', 'WORKASPACE' ) );
#215 = EDGE_LOOP ( 'NONE', ( #93, #317, #7, #331 ) ) ;
#216 = EDGE_CURVE ( 'NONE', #346, #244, #222, .T. ) ;
#217 = PERSON_AND_ORGANIZATION ( #236, #269 ) ;
#218 = DIRECTION ( 'NONE',  ( 1.000000000000000000, 0.000000000000000000, 0.000000000000000000 ) ) ;
#219 = COORDINATED_UNIVERSAL_TIME_OFFSET ( 1, 0, .AHEAD. ) ;
#220 = CALENDAR_DATE ( 2022, 8, 7 ) ;
#221 = DIRECTION ( 'NONE',  ( 0.000000000000000000, 0.000000000000000000, 1.000000000000000000 ) ) ;
#222 = CIRCLE ( 'NONE', #59, 2.500000000000000000 ) ;
#223 = CC_DESIGN_DATE_AND_TIME_ASSIGNMENT ( #378, #183, ( #297 ) ) ;
#224 = CARTESIAN_POINT ( 'NONE',  ( 0.000000000000000000, 0.000000000000000000, 128.0000000000000000 ) ) ;
#225 = DIRECTION ( 'NONE',  ( 0.000000000000000000, 0.000000000000000000, 1.000000000000000000 ) ) ;
#226 = APPROVAL ( #25, 'NEURÈENÝ' ) ;
#227 = DIRECTION ( 'NONE',  ( 0.000000000000000000, -1.000000000000000000, 0.000000000000000000 ) ) ;
#228 = DIRECTION ( 'NONE',  ( 1.224646799147353207E-16, 1.000000000000000000, -0.000000000000000000 ) ) ;
#229 = VERTEX_POINT ( 'NONE', #333 ) ;
#230 = CYLINDRICAL_SURFACE ( 'NONE', #72, 1.600000000000000089 ) ;
#231 = CIRCLE ( 'NONE', #110, 1.600000000000000089 ) ;
#232 = CC_DESIGN_APPROVAL ( #226, ( #249 ) ) ;
#233 = ORIENTED_EDGE ( 'NONE', *, *, #73, .T. ) ;
#234 = AXIS2_PLACEMENT_3D ( 'NONE', #224, #184, #78 ) ;
#235 = DIRECTION ( 'NONE',  ( 0.000000000000000000, 0.000000000000000000, 1.000000000000000000 ) ) ;
#236 = PERSON ( 'NEURÈENÝ', 'NEURÈENÝ', 'NEURÈENÝ', ('NEURÈENÝ'), ('NEURÈENÝ'), ('NEURÈENÝ') ) ;
#237 = VERTEX_POINT ( 'NONE', #307 ) ;
#238 = FACE_OUTER_BOUND ( 'NONE', #150, .T. ) ;
#239 = CC_DESIGN_PERSON_AND_ORGANIZATION_ASSIGNMENT ( #217, #259, ( #351 ) ) ;
#240 = ORIENTED_EDGE ( 'NONE', *, *, #3, .T. ) ;
#241 = CARTESIAN_POINT ( 'NONE',  ( 0.000000000000000000, 0.000000000000000000, 0.000000000000000000 ) ) ;
#242 = ORIENTED_EDGE ( 'NONE', *, *, #47, .T. ) ;
#243 = DIRECTION ( 'NONE',  ( 1.000000000000000000, 0.000000000000000000, 0.000000000000000000 ) ) ;
#244 = VERTEX_POINT ( 'NONE', #11 ) ;
#245 = EDGE_CURVE ( 'NONE', #64, #248, #36, .T. ) ;
#246 =( NAMED_UNIT ( * ) SI_UNIT ( $, .STERADIAN. ) SOLID_ANGLE_UNIT ( ) );
#247 = AXIS2_PLACEMENT_3D ( 'NONE', #286, #186, #343 ) ;
#248 = VERTEX_POINT ( 'NONE', #62 ) ;
#249 = PRODUCT_DEFINITION_FORMATION_WITH_SPECIFIED_SOURCE ( 'LIBOVOLNÝ', '', #351, .NOT_KNOWN. ) ;
#250 = DATE_AND_TIME ( #220, #369 ) ;
#251 = ORIENTED_EDGE ( 'NONE', *, *, #245, .T. ) ;
#252 = APPROVAL_ROLE ( '' ) ;
#253 = CIRCLE ( 'NONE', #192, 2.500000000000000000 ) ;
#254 = CARTESIAN_POINT ( 'NONE',  ( 0.000000000000000000, 0.000000000000000000, 3.299999999999997158 ) ) ;
#255 = PERSON_AND_ORGANIZATION ( #236, #269 ) ;
#256 = ORIENTED_EDGE ( 'NONE', *, *, #117, .F. ) ;
#257 = CIRCLE ( 'NONE', #79, 5.000000000000000000 ) ;
#258 = LOCAL_TIME ( 17, 43, 11.00000000000000000, #219 ) ;
#259 = PERSON_AND_ORGANIZATION_ROLE ( 'design_owner' ) ;
#260 = ORIENTED_EDGE ( 'NONE', *, *, #60, .F. ) ;
#261 = PLANE ( 'NONE',  #350 ) ;
#262 = EDGE_CURVE ( 'NONE', #248, #14, #257, .T. ) ;
#263 = DIRECTION ( 'NONE',  ( -0.000000000000000000, -0.000000000000000000, -1.000000000000000000 ) ) ;
#264 = SECURITY_CLASSIFICATION ( '', '', #155 ) ;
#265 = DIRECTION ( 'NONE',  ( 0.000000000000000000, 0.000000000000000000, 1.000000000000000000 ) ) ;
#266 = DIRECTION ( 'NONE',  ( -1.000000000000000000, 0.000000000000000000, 0.000000000000000000 ) ) ;
#267 = EDGE_CURVE ( 'NONE', #162, #64, #376, .T. ) ;
#268 = CARTESIAN_POINT ( 'NONE',  ( 0.000000000000000000, 0.000000000000000000, 128.0000000000000000 ) ) ;
#269 = ORGANIZATION ( 'NEURÈENÝ', 'NEURÈENÝ', '' ) ;
#270 = VERTEX_POINT ( 'NONE', #33 ) ;
#271 = DIRECTION ( 'NONE',  ( -0.000000000000000000, -0.000000000000000000, -1.000000000000000000 ) ) ;
#272 = ADVANCED_FACE ( 'NONE', ( #177, #180 ), #209, .T. ) ;
#273 = CARTESIAN_POINT ( 'NONE',  ( 2.799999999999999822, 0.000000000000000000, 2.999999999999998668 ) ) ;
#274 = ORIENTED_EDGE ( 'NONE', *, *, #262, .T. ) ;
#275 = DIRECTION ( 'NONE',  ( -0.000000000000000000, -0.000000000000000000, -1.000000000000000000 ) ) ;
#276 = VERTEX_POINT ( 'NONE', #116 ) ;
#277 = CARTESIAN_POINT ( 'NONE',  ( 5.000000000000000000, 6.123233995736766282E-16, 3.000000000000000000 ) ) ;
#278 = ORIENTED_EDGE ( 'NONE', *, *, #40, .T. ) ;
#279 = ORIENTED_EDGE ( 'NONE', *, *, #47, .F. ) ;
#280 = PERSON_AND_ORGANIZATION_ROLE ( 'design_supplier' ) ;
#281 = ORIENTED_EDGE ( 'NONE', *, *, #108, .T. ) ;
#282 = APPLICATION_PROTOCOL_DEFINITION ( 'international standard', 'config_control_design', 1994, #12 ) ;
#283 = EDGE_CURVE ( 'NONE', #359, #346, #207, .T. ) ;
#284 = MECHANICAL_CONTEXT ( 'NONE', #321, 'mechanical' ) ;
#285 = ORIENTED_EDGE ( 'NONE', *, *, #3, .F. ) ;
#286 = CARTESIAN_POINT ( 'NONE',  ( 0.000000000000000000, 0.000000000000000000, 0.000000000000000000 ) ) ;
#287 = FACE_OUTER_BOUND ( 'NONE', #69, .T. ) ;
#288 = CIRCLE ( 'NONE', #121, 1.600000000000000089 ) ;
#289 = CARTESIAN_POINT ( 'NONE',  ( 0.000000000000000000, 0.000000000000000000, 3.299999999999997158 ) ) ;
#290 = EDGE_CURVE ( 'NONE', #229, #276, #288, .T. ) ;
#291 = PRODUCT_DEFINITION_SHAPE ( 'NONE', 'NONE',  #297 ) ;
#292 = CARTESIAN_POINT ( 'NONE',  ( 0.000000000000000000, 0.000000000000000000, 3.000000000000000000 ) ) ;
#293 = CARTESIAN_POINT ( 'NONE',  ( 1.600000000000000089, 1.959434878635765230E-16, 128.0000000000000000 ) ) ;
#294 = AXIS2_PLACEMENT_3D ( 'NONE', #366, #175, #211 ) ;
#295 = DIRECTION ( 'NONE',  ( -0.000000000000000000, -0.000000000000000000, -1.000000000000000000 ) ) ;
#296 = ORIENTED_EDGE ( 'NONE', *, *, #197, .T. ) ;
#297 = PRODUCT_DEFINITION ( 'NEZNÁMÝ', '', #249, #70 ) ;
#298 = LINE ( 'NONE', #293, #5 ) ;
#299 =( LENGTH_UNIT ( ) NAMED_UNIT ( * ) SI_UNIT ( .MILLI., .METRE. ) );
#300 = ADVANCED_FACE ( 'NONE', ( #71 ), #115, .F. ) ;
#301 = CARTESIAN_POINT ( 'NONE',  ( 0.000000000000000000, 0.000000000000000000, 3.000000000000000000 ) ) ;
#302 = CIRCLE ( 'NONE', #125, 1.600000000000000089 ) ;
#303 = DIRECTION ( 'NONE',  ( 1.000000000000000000, 0.000000000000000000, 0.000000000000000000 ) ) ;
#304 = VERTEX_POINT ( 'NONE', #273 ) ;
#305 = AXIS2_PLACEMENT_3D ( 'NONE', #241, #95, #328 ) ;
#306 = PRODUCT_RELATED_PRODUCT_CATEGORY ( 'detail', '', ( #351 ) ) ;
#307 = CARTESIAN_POINT ( 'NONE',  ( 2.500000000000000000, 3.061616997868383141E-16, 128.0000000000000000 ) ) ;
#308 = EDGE_LOOP ( 'NONE', ( #46, #334, #240, #204 ) ) ;
#309 = APPROVAL_STATUS ( 'not_yet_approved' ) ;
#310 = ORIENTED_EDGE ( 'NONE', *, *, #216, .F. ) ;
#311 = CIRCLE ( 'NONE', #2, 0.2999999999999999334 ) ;
#312 = PERSON_AND_ORGANIZATION ( #236, #269 ) ;
#313 = ORIENTED_EDGE ( 'NONE', *, *, #153, .T. ) ;
#314 = CC_DESIGN_SECURITY_CLASSIFICATION ( #264, ( #249 ) ) ;
#315 = ADVANCED_FACE ( 'NONE', ( #98 ), #181, .T. ) ;
#316 = CALENDAR_DATE ( 2022, 8, 7 ) ;
#317 = ORIENTED_EDGE ( 'NONE', *, *, #56, .F. ) ;
#318 = APPROVAL_DATE_TIME ( #250, #226 ) ;
#319 = DIRECTION ( 'NONE',  ( 1.000000000000000000, 0.000000000000000000, 0.000000000000000000 ) ) ;
#320 = LOCAL_TIME ( 17, 43, 11.00000000000000000, #76 ) ;
#321 = APPLICATION_CONTEXT ( 'configuration controlled 3d designs of mechanical parts and assemblies' ) ;
#322 = DIRECTION ( 'NONE',  ( 0.000000000000000000, 0.000000000000000000, 1.000000000000000000 ) ) ;
#323 = CLOSED_SHELL ( 'NONE', ( #145, #300, #114, #190, #315, #272, #357, #176, #130, #85, #21 ) ) ;
#324 = CARTESIAN_POINT ( 'NONE',  ( 0.000000000000000000, 0.000000000000000000, 0.000000000000000000 ) ) ;
#325 = CARTESIAN_POINT ( 'NONE',  ( 0.000000000000000000, 0.000000000000000000, 3.000000000000000000 ) ) ;
#326 = CIRCLE ( 'NONE', #128, 2.799999999999999822 ) ;
#327 = DIRECTION ( 'NONE',  ( -1.000000000000000000, 0.000000000000000000, 0.000000000000000000 ) ) ;
#328 = DIRECTION ( 'NONE',  ( 1.000000000000000000, 0.000000000000000000, -0.000000000000000000 ) ) ;
#329 = DIRECTION ( 'NONE',  ( -0.000000000000000000, -0.000000000000000000, -1.000000000000000000 ) ) ;
#330 = EDGE_CURVE ( 'NONE', #237, #244, #144, .T. ) ;
#331 = ORIENTED_EDGE ( 'NONE', *, *, #40, .F. ) ;
#332 = APPROVAL_PERSON_ORGANIZATION ( #189, #168, #45 ) ;
#333 = CARTESIAN_POINT ( 'NONE',  ( 1.600000000000000089, 1.959434878635765230E-16, 128.0000000000000000 ) ) ;
#334 = ORIENTED_EDGE ( 'NONE', *, *, #267, .F. ) ;
#335 = DIRECTION ( 'NONE',  ( 1.000000000000000000, 0.000000000000000000, 0.000000000000000000 ) ) ;
#336 = ORIENTED_EDGE ( 'NONE', *, *, #185, .F. ) ;
#337 = DIRECTION ( 'NONE',  ( 1.000000000000000000, 0.000000000000000000, -0.000000000000000000 ) ) ;
#338 = EDGE_LOOP ( 'NONE', ( #310, #23, #200, #260 ) ) ;
#339 = DATE_TIME_ROLE ( 'classification_date' ) ;
#340 = ORIENTED_EDGE ( 'NONE', *, *, #283, .T. ) ;
#341 = CARTESIAN_POINT ( 'NONE',  ( 2.799999999999999822, 0.000000000000000000, 3.299999999999997158 ) ) ;
#342 = CIRCLE ( 'NONE', #148, 2.799999999999999822 ) ;
#343 = DIRECTION ( 'NONE',  ( 1.000000000000000000, 0.000000000000000000, 0.000000000000000000 ) ) ;
#344 = CALENDAR_DATE ( 2022, 8, 7 ) ;
#345 = AXIS2_PLACEMENT_3D ( 'NONE', #360, #358, #97 ) ;
#346 = VERTEX_POINT ( 'NONE', #119 ) ;
#347 = APPROVAL ( #53, 'NEURÈENÝ' ) ;
#348 = TOROIDAL_SURFACE ( 'NONE', #174, 2.799999999999999822, 0.2999999999999999889 ) ;
#349 = DIRECTION ( 'NONE',  ( 1.000000000000000000, 0.000000000000000000, -0.000000000000000000 ) ) ;
#350 = AXIS2_PLACEMENT_3D ( 'NONE', #268, #225, #349 ) ;
#351 = PRODUCT ( 'f93c', 'f93c', '', ( #284 ) ) ;
#352 = DIRECTION ( 'NONE',  ( 1.000000000000000000, 0.000000000000000000, 0.000000000000000000 ) ) ;
#353 = CIRCLE ( 'NONE', #179, 5.000000000000000000 ) ;
#354 = DIRECTION ( 'NONE',  ( 1.000000000000000000, 0.000000000000000000, 0.000000000000000000 ) ) ;
#355 = DIRECTION ( 'NONE',  ( -0.000000000000000000, -0.000000000000000000, -1.000000000000000000 ) ) ;
#356 = DIRECTION ( 'NONE',  ( 0.000000000000000000, 0.000000000000000000, -1.000000000000000000 ) ) ;
#357 = ADVANCED_FACE ( 'NONE', ( #44, #238 ), #362, .F. ) ;
#358 = DIRECTION ( 'NONE',  ( 0.000000000000000000, 0.000000000000000000, 1.000000000000000000 ) ) ;
#359 = VERTEX_POINT ( 'NONE', #152 ) ;
#360 = CARTESIAN_POINT ( 'NONE',  ( 0.000000000000000000, 0.000000000000000000, 3.299999999999997158 ) ) ;
#361 = VECTOR ( 'NONE', #329, 1000.000000000000000 ) ;
#362 = PLANE ( 'NONE',  #305 ) ;
#363 = ORIENTED_EDGE ( 'NONE', *, *, #330, .F. ) ;
#364 = CARTESIAN_POINT ( 'NONE',  ( 0.000000000000000000, 0.000000000000000000, 3.299999999999997158 ) ) ;
#365 = EDGE_LOOP ( 'NONE', ( #212, #182 ) ) ;
#366 = CARTESIAN_POINT ( 'NONE',  ( 0.000000000000000000, 0.000000000000000000, 3.000000000000000000 ) ) ;
#367 = ORIENTED_EDGE ( 'NONE', *, *, #262, .F. ) ;
#368 = CIRCLE ( 'NONE', #48, 2.500000000000000000 ) ;
#369 = LOCAL_TIME ( 17, 43, 11.00000000000000000, #102 ) ;
#370 = ORIENTED_EDGE ( 'NONE', *, *, #82, .T. ) ;
#371 = CC_DESIGN_PERSON_AND_ORGANIZATION_ASSIGNMENT ( #100, #213, ( #297 ) ) ;
#372 = DATE_AND_TIME ( #22, #320 ) ;
#373 = EDGE_LOOP ( 'NONE', ( #336, #123, #381, #20 ) ) ;
#374 = PERSON_AND_ORGANIZATION_ROLE ( 'creator' ) ;
#375 = PERSON_AND_ORGANIZATION ( #236, #269 ) ;
#376 = CIRCLE ( 'NONE', #294, 5.000000000000000000 ) ;
#377 = CC_DESIGN_DATE_AND_TIME_ASSIGNMENT ( #80, #339, ( #264 ) ) ;
#378 = DATE_AND_TIME ( #344, #84 ) ;
#379 = CARTESIAN_POINT ( 'NONE',  ( 0.000000000000000000, 0.000000000000000000, 0.000000000000000000 ) ) ;
#380 = CARTESIAN_POINT ( 'NONE',  ( 0.000000000000000000, 0.000000000000000000, 128.0000000000000000 ) ) ;
#381 = ORIENTED_EDGE ( 'NONE', *, *, #56, .T. ) ;
ENDSEC;
END-ISO-10303-21;
