ISO-10303-21;
HEADER;
FILE_DESCRIPTION (( 'STEP AP203' ),
    '1' );
FILE_NAME ('5947.STEP',
    '2022-07-08T15:37:57',
    ( '' ),
    ( '' ),
    'SwSTEP 2.0',
    'SolidWorks 2019',
    '' );
FILE_SCHEMA (( 'CONFIG_CONTROL_DESIGN' ));
ENDSEC;

DATA;
#1 = DIRECTION ( 'NONE',  ( 1.000000000000000000, 0.000000000000000000, 0.000000000000000000 ) ) ;
#2 = ORIENTED_EDGE ( 'NONE', *, *, #45, .T. ) ;
#3 = ADVANCED_FACE ( 'NONE', ( #242, #215 ), #304, .F. ) ;
#4 = VERTEX_POINT ( 'NONE', #101 ) ;
#5 = VERTEX_POINT ( 'NONE', #40 ) ;
#6 = APPROVAL_ROLE ( '' ) ;
#7 = MANIFOLD_SOLID_BREP ( 'Odebrat vysunutím3', #275 ) ;
#8 = LOCAL_TIME ( 17, 37, 57.00000000000000000, #294 ) ;
#9 = ORIENTED_EDGE ( 'NONE', *, *, #123, .F. ) ;
#10 = EDGE_CURVE ( 'NONE', #352, #207, #202, .T. ) ;
#11 = CARTESIAN_POINT ( 'NONE',  ( -3.500000000000000444, 4.286263797015737088E-16, 5.500000000000005329 ) ) ;
#12 = CARTESIAN_POINT ( 'NONE',  ( -3.000000000000000444, 0.000000000000000000, 455.0000000000000000 ) ) ;
#13 = CARTESIAN_POINT ( 'NONE',  ( -3.000000000000000444, 0.000000000000000000, 5.500000000000005329 ) ) ;
#14 = VECTOR ( 'NONE', #135, 1000.000000000000000 ) ;
#15 = APPROVAL_PERSON_ORGANIZATION ( #177, #220, #6 ) ;
#16 = PRODUCT_RELATED_PRODUCT_CATEGORY ( 'detail', '', ( #151 ) ) ;
#17 = CC_DESIGN_PERSON_AND_ORGANIZATION_ASSIGNMENT ( #166, #23, ( #117 ) ) ;
#18 = DIRECTION ( 'NONE',  ( 1.000000000000000000, 0.000000000000000000, -0.000000000000000000 ) ) ;
#19 = CIRCLE ( 'NONE', #79, 1.750000000000000000 ) ;
#20 = DIRECTION ( 'NONE',  ( 0.000000000000000000, 0.000000000000000000, -1.000000000000000000 ) ) ;
#21 = FACE_OUTER_BOUND ( 'NONE', #33, .T. ) ;
#22 = AXIS2_PLACEMENT_3D ( 'NONE', #312, #206, #155 ) ;
#23 = PERSON_AND_ORGANIZATION_ROLE ( 'creator' ) ;
#24 = ORIENTED_EDGE ( 'NONE', *, *, #210, .F. ) ;
#25 = EDGE_CURVE ( 'NONE', #59, #213, #176, .T. ) ;
#26 = ORIENTED_EDGE ( 'NONE', *, *, #136, .F. ) ;
#27 = AXIS2_PLACEMENT_3D ( 'NONE', #74, #138, #250 ) ;
#28 = CC_DESIGN_APPROVAL ( #160, ( #198 ) ) ;
#29 = ORIENTED_EDGE ( 'NONE', *, *, #284, .T. ) ;
#30 = APPROVAL_DATE_TIME ( #355, #220 ) ;
#31 = ORIENTED_EDGE ( 'NONE', *, *, #195, .T. ) ;
#32 = PRODUCT_DEFINITION_SHAPE ( 'NONE', 'NONE',  #117 ) ;
#33 = EDGE_LOOP ( 'NONE', ( #150, #58 ) ) ;
#34 = CARTESIAN_POINT ( 'NONE',  ( 0.000000000000000000, 0.000000000000000000, 5.000000000000000000 ) ) ;
#35 = CC_DESIGN_DATE_AND_TIME_ASSIGNMENT ( #310, #339, ( #117 ) ) ;
#36 = AXIS2_PLACEMENT_3D ( 'NONE', #130, #279, #102 ) ;
#37 = VECTOR ( 'NONE', #211, 1000.000000000000000 ) ;
#38 = DIRECTION ( 'NONE',  ( 1.000000000000000000, 0.000000000000000000, -0.000000000000000000 ) ) ;
#39 = DIRECTION ( 'NONE',  ( 1.000000000000000000, 0.000000000000000000, 0.000000000000000000 ) ) ;
#40 = CARTESIAN_POINT ( 'NONE',  ( -1.750000000000000000, 0.000000000000000000, 455.0000000000000000 ) ) ;
#41 = ADVANCED_FACE ( 'NONE', ( #221 ), #125, .F. ) ;
#42 = FACE_OUTER_BOUND ( 'NONE', #214, .T. ) ;
#43 = VECTOR ( 'NONE', #244, 1000.000000000000000 ) ;
#44 = ORIENTED_EDGE ( 'NONE', *, *, #96, .T. ) ;
#45 = EDGE_CURVE ( 'NONE', #87, #59, #68, .T. ) ;
#46 = AXIS2_PLACEMENT_3D ( 'NONE', #240, #328, #39 ) ;
#47 = CARTESIAN_POINT ( 'NONE',  ( 0.000000000000000000, 0.000000000000000000, 5.500000000000005329 ) ) ;
#48 = CARTESIAN_POINT ( 'NONE',  ( 0.000000000000000000, 0.000000000000000000, 455.0000000000000000 ) ) ;
#49 = CC_DESIGN_PERSON_AND_ORGANIZATION_ASSIGNMENT ( #147, #174, ( #198 ) ) ;
#50 = CYLINDRICAL_SURFACE ( 'NONE', #168, 3.000000000000000444 ) ;
#51 = VERTEX_POINT ( 'NONE', #65 ) ;
#52 = CIRCLE ( 'NONE', #178, 3.500000000000000444 ) ;
#53 = DIRECTION ( 'NONE',  ( 1.000000000000000000, 0.000000000000000000, 0.000000000000000000 ) ) ;
#54 = ORIENTED_EDGE ( 'NONE', *, *, #10, .T. ) ;
#55 = CALENDAR_DATE ( 2022, 8, 7 ) ;
#56 = EDGE_CURVE ( 'NONE', #145, #51, #73, .T. ) ;
#57 = DIRECTION ( 'NONE',  ( 1.000000000000000000, 0.000000000000000000, 0.000000000000000000 ) ) ;
#58 = ORIENTED_EDGE ( 'NONE', *, *, #273, .T. ) ;
#59 = VERTEX_POINT ( 'NONE', #13 ) ;
#60 = VECTOR ( 'NONE', #186, 1000.000000000000000 ) ;
#61 = ORIENTED_EDGE ( 'NONE', *, *, #195, .F. ) ;
#62 = ORIENTED_EDGE ( 'NONE', *, *, #273, .F. ) ;
#63 = ADVANCED_FACE ( 'NONE', ( #128 ), #161, .T. ) ;
#64 = PERSON_AND_ORGANIZATION ( #113, #110 ) ;
#65 = CARTESIAN_POINT ( 'NONE',  ( -1.750000000000000000, 0.000000000000000000, 0.000000000000000000 ) ) ;
#66 = CIRCLE ( 'NONE', #299, 3.000000000000000444 ) ;
#67 = CC_DESIGN_SECURITY_CLASSIFICATION ( #366, ( #198 ) ) ;
#68 = LINE ( 'NONE', #12, #329 ) ;
#69 = CARTESIAN_POINT ( 'NONE',  ( -6.000000000000000888, 0.000000000000000000, 0.000000000000000000 ) ) ;
#70 = ADVANCED_FACE ( 'NONE', ( #185 ), #302, .F. ) ;
#71 = ORIENTED_EDGE ( 'NONE', *, *, #56, .T. ) ;
#72 = CARTESIAN_POINT ( 'NONE',  ( 3.000000000000000444, 3.673940397442060361E-16, 5.500000000000005329 ) ) ;
#73 = CIRCLE ( 'NONE', #139, 1.750000000000000000 ) ;
#74 = CARTESIAN_POINT ( 'NONE',  ( 0.000000000000000000, 0.000000000000000000, 5.000000000000000000 ) ) ;
#75 = DIRECTION ( 'NONE',  ( -1.000000000000000000, 0.000000000000000000, 0.000000000000000000 ) ) ;
#76 = EDGE_CURVE ( 'NONE', #88, #59, #282, .T. ) ;
#77 = DIRECTION ( 'NONE',  ( 0.000000000000000000, 0.000000000000000000, 1.000000000000000000 ) ) ;
#78 = FACE_OUTER_BOUND ( 'NONE', #83, .T. ) ;
#79 = AXIS2_PLACEMENT_3D ( 'NONE', #367, #373, #308 ) ;
#80 = DIRECTION ( 'NONE',  ( -1.000000000000000000, 0.000000000000000000, 0.000000000000000000 ) ) ;
#81 = COORDINATED_UNIVERSAL_TIME_OFFSET ( 1, 0, .AHEAD. ) ;
#82 = DIRECTION ( 'NONE',  ( -0.000000000000000000, -0.000000000000000000, -1.000000000000000000 ) ) ;
#83 = EDGE_LOOP ( 'NONE', ( #347, #321, #325, #319 ) ) ;
#84 = EDGE_CURVE ( 'NONE', #87, #4, #66, .T. ) ;
#85 = APPROVAL_ROLE ( '' ) ;
#86 = LOCAL_TIME ( 17, 37, 57.00000000000000000, #196 ) ;
#87 = VERTEX_POINT ( 'NONE', #332 ) ;
#88 = VERTEX_POINT ( 'NONE', #72 ) ;
#89 = PERSON_AND_ORGANIZATION_ROLE ( 'design_supplier' ) ;
#90 = ORIENTED_EDGE ( 'NONE', *, *, #184, .F. ) ;
#91 = AXIS2_PLACEMENT_3D ( 'NONE', #11, #248, #272 ) ;
#92 = APPROVAL_PERSON_ORGANIZATION ( #375, #160, #256 ) ;
#93 = ORIENTED_EDGE ( 'NONE', *, *, #76, .T. ) ;
#94 = DIRECTION ( 'NONE',  ( 1.000000000000000000, 0.000000000000000000, 0.000000000000000000 ) ) ;
#95 = DIRECTION ( 'NONE',  ( 1.000000000000000000, 0.000000000000000000, 0.000000000000000000 ) ) ;
#96 = EDGE_CURVE ( 'NONE', #212, #207, #188, .T. ) ;
#97 = CARTESIAN_POINT ( 'NONE',  ( -6.000000000000000888, 0.000000000000000000, 5.000000000000000000 ) ) ;
#98 = CIRCLE ( 'NONE', #22, 0.5000000000000004441 ) ;
#99 = AXIS2_PLACEMENT_3D ( 'NONE', #34, #181, #241 ) ;
#100 = DIRECTION ( 'NONE',  ( 0.000000000000000000, 0.000000000000000000, 1.000000000000000000 ) ) ;
#101 = CARTESIAN_POINT ( 'NONE',  ( 3.000000000000000444, 3.673940397442060361E-16, 455.0000000000000000 ) ) ;
#102 = DIRECTION ( 'NONE',  ( -1.000000000000000000, 0.000000000000000000, 0.000000000000000000 ) ) ;
#103 = DIRECTION ( 'NONE',  ( -0.000000000000000000, -0.000000000000000000, -1.000000000000000000 ) ) ;
#104 = CIRCLE ( 'NONE', #311, 6.000000000000000888 ) ;
#105 = CC_DESIGN_PERSON_AND_ORGANIZATION_ASSIGNMENT ( #372, #143, ( #151 ) ) ;
#106 = FACE_OUTER_BOUND ( 'NONE', #316, .T. ) ;
#107 = ADVANCED_FACE ( 'NONE', ( #305, #42 ), #159, .T. ) ;
#108 = CARTESIAN_POINT ( 'NONE',  ( 0.000000000000000000, 0.000000000000000000, 455.0000000000000000 ) ) ;
#109 = AXIS2_PLACEMENT_3D ( 'NONE', #336, #314, #193 ) ;
#110 = ORGANIZATION ( 'NEURÈENÝ', 'NEURÈENÝ', '' ) ;
#111 = APPROVAL_STATUS ( 'not_yet_approved' ) ;
#112 = DIRECTION ( 'NONE',  ( 1.000000000000000000, 0.000000000000000000, 0.000000000000000000 ) ) ;
#113 = PERSON ( 'NEURÈENÝ', 'NEURÈENÝ', 'NEURÈENÝ', ('NEURÈENÝ'), ('NEURÈENÝ'), ('NEURÈENÝ') ) ;
#114 = FACE_OUTER_BOUND ( 'NONE', #180, .T. ) ;
#115 = PERSON_AND_ORGANIZATION ( #113, #110 ) ;
#116 = ORIENTED_EDGE ( 'NONE', *, *, #351, .T. ) ;
#117 = PRODUCT_DEFINITION ( 'NEZNÁMÝ', '', #198, #265 ) ;
#118 = AXIS2_PLACEMENT_3D ( 'NONE', #108, #283, #18 ) ;
#119 = LOCAL_TIME ( 17, 37, 57.00000000000000000, #348 ) ;
#120 = ORIENTED_EDGE ( 'NONE', *, *, #210, .T. ) ;
#121 = DATE_TIME_ROLE ( 'classification_date' ) ;
#122 = ORIENTED_EDGE ( 'NONE', *, *, #335, .T. ) ;
#123 = EDGE_CURVE ( 'NONE', #344, #212, #315, .T. ) ;
#124 = ORIENTED_EDGE ( 'NONE', *, *, #317, .F. ) ;
#125 = TOROIDAL_SURFACE ( 'NONE', #362, 3.500000000000000444, 0.5000000000000000000 ) ;
#126 = ORIENTED_EDGE ( 'NONE', *, *, #378, .T. ) ;
#127 = CARTESIAN_POINT ( 'NONE',  ( -1.750000000000000000, 0.000000000000000000, 455.0000000000000000 ) ) ;
#128 = FACE_OUTER_BOUND ( 'NONE', #154, .T. ) ;
#129 = CC_DESIGN_PERSON_AND_ORGANIZATION_ASSIGNMENT ( #237, #209, ( #366 ) ) ;
#130 = CARTESIAN_POINT ( 'NONE',  ( 0.000000000000000000, 0.000000000000000000, 5.000000000000000000 ) ) ;
#131 = AXIS2_PLACEMENT_3D ( 'NONE', #260, #271, #95 ) ;
#132 = CARTESIAN_POINT ( 'NONE',  ( 0.000000000000000000, 0.000000000000000000, 455.0000000000000000 ) ) ;
#133 = CARTESIAN_POINT ( 'NONE',  ( 0.000000000000000000, 0.000000000000000000, 5.500000000000005329 ) ) ;
#134 = CARTESIAN_POINT ( 'NONE',  ( 0.000000000000000000, 0.000000000000000000, 5.000000000000000000 ) ) ;
#135 = DIRECTION ( 'NONE',  ( -0.000000000000000000, -0.000000000000000000, -1.000000000000000000 ) ) ;
#136 = EDGE_CURVE ( 'NONE', #187, #5, #19, .T. ) ;
#137 = CARTESIAN_POINT ( 'NONE',  ( 0.000000000000000000, 0.000000000000000000, 5.500000000000005329 ) ) ;
#138 = DIRECTION ( 'NONE',  ( 0.000000000000000000, 0.000000000000000000, 1.000000000000000000 ) ) ;
#139 = AXIS2_PLACEMENT_3D ( 'NONE', #270, #333, #182 ) ;
#140 = LINE ( 'NONE', #257, #37 ) ;
#141 = DIRECTION ( 'NONE',  ( 0.000000000000000000, 0.000000000000000000, 1.000000000000000000 ) ) ;
#142 = ORIENTED_EDGE ( 'NONE', *, *, #25, .T. ) ;
#143 = PERSON_AND_ORGANIZATION_ROLE ( 'design_owner' ) ;
#144 = DIRECTION ( 'NONE',  ( 0.000000000000000000, 0.000000000000000000, 1.000000000000000000 ) ) ;
#145 = VERTEX_POINT ( 'NONE', #200 ) ;
#146 = AXIS2_PLACEMENT_3D ( 'NONE', #358, #363, #38 ) ;
#147 = PERSON_AND_ORGANIZATION ( #113, #110 ) ;
#148 = AXIS2_PLACEMENT_3D ( 'NONE', #162, #280, #194 ) ;
#149 = UNCERTAINTY_MEASURE_WITH_UNIT (LENGTH_MEASURE( 1.000000000000000082E-05 ), #246, 'distance_accuracy_value', 'NONE');
#150 = ORIENTED_EDGE ( 'NONE', *, *, #84, .T. ) ;
#151 = PRODUCT ( '5947', '5947', '', ( #278 ) ) ;
#152 = ORIENTED_EDGE ( 'NONE', *, *, #351, .F. ) ;
#153 = APPROVAL_DATE_TIME ( #201, #160 ) ;
#154 = EDGE_LOOP ( 'NONE', ( #266, #9, #172, #54 ) ) ;
#155 = DIRECTION ( 'NONE',  ( 0.000000000000000000, 0.000000000000000000, -1.000000000000000000 ) ) ;
#156 = CIRCLE ( 'NONE', #268, 1.750000000000000000 ) ;
#157 = DIRECTION ( 'NONE',  ( 0.000000000000000000, 0.000000000000000000, -1.000000000000000000 ) ) ;
#158 = AXIS2_PLACEMENT_3D ( 'NONE', #163, #77, #112 ) ;
#159 = PLANE ( 'NONE',  #27 ) ;
#160 = APPROVAL ( #111, 'NEURÈENÝ' ) ;
#161 = CYLINDRICAL_SURFACE ( 'NONE', #36, 6.000000000000000888 ) ;
#162 = CARTESIAN_POINT ( 'NONE',  ( 0.000000000000000000, 0.000000000000000000, 0.000000000000000000 ) ) ;
#163 = CARTESIAN_POINT ( 'NONE',  ( 0.000000000000000000, 0.000000000000000000, 455.0000000000000000 ) ) ;
#164 = ADVANCED_FACE ( 'NONE', ( #223, #21 ), #285, .T. ) ;
#165 = CARTESIAN_POINT ( 'NONE',  ( 6.000000000000000888, 7.347880794884120722E-16, 0.000000000000000000 ) ) ;
#166 = PERSON_AND_ORGANIZATION ( #113, #110 ) ;
#167 = DIRECTION ( 'NONE',  ( 1.000000000000000000, 0.000000000000000000, 0.000000000000000000 ) ) ;
#168 = AXIS2_PLACEMENT_3D ( 'NONE', #377, #103, #80 ) ;
#169 = AXIS2_PLACEMENT_3D ( 'NONE', #327, #287, #1 ) ;
#170 = ADVANCED_FACE ( 'NONE', ( #365 ), #50, .T. ) ;
#171 = LINE ( 'NONE', #380, #60 ) ;
#172 = ORIENTED_EDGE ( 'NONE', *, *, #359, .T. ) ;
#173 = EDGE_LOOP ( 'NONE', ( #350, #44, #234, #290 ) ) ;
#174 = PERSON_AND_ORGANIZATION_ROLE ( 'creator' ) ;
#175 = EDGE_LOOP ( 'NONE', ( #292, #238, #323, #116 ) ) ;
#176 = CIRCLE ( 'NONE', #91, 0.4999999999999995559 ) ;
#177 = PERSON_AND_ORGANIZATION ( #113, #110 ) ;
#178 = AXIS2_PLACEMENT_3D ( 'NONE', #134, #303, #370 ) ;
#179 = EDGE_LOOP ( 'NONE', ( #24, #262, #2, #267 ) ) ;
#180 = EDGE_LOOP ( 'NONE', ( #62, #120, #93, #295 ) ) ;
#181 = DIRECTION ( 'NONE',  ( -0.000000000000000000, -0.000000000000000000, -1.000000000000000000 ) ) ;
#182 = DIRECTION ( 'NONE',  ( 1.000000000000000000, 0.000000000000000000, 0.000000000000000000 ) ) ;
#183 = CIRCLE ( 'NONE', #131, 3.000000000000000444 ) ;
#184 = EDGE_CURVE ( 'NONE', #59, #88, #230, .T. ) ;
#185 = FACE_OUTER_BOUND ( 'NONE', #175, .T. ) ;
#186 = DIRECTION ( 'NONE',  ( -0.000000000000000000, -0.000000000000000000, -1.000000000000000000 ) ) ;
#187 = VERTEX_POINT ( 'NONE', #224 ) ;
#188 = LINE ( 'NONE', #222, #197 ) ;
#189 = ADVANCED_FACE ( 'NONE', ( #106 ), #342, .F. ) ;
#190 =( NAMED_UNIT ( * ) PLANE_ANGLE_UNIT ( ) SI_UNIT ( $, .RADIAN. ) );
#191 = AXIS2_PLACEMENT_3D ( 'NONE', #137, #225, #167 ) ;
#192 = DIRECTION ( 'NONE',  ( 0.000000000000000000, 0.000000000000000000, 1.000000000000000000 ) ) ;
#193 = DIRECTION ( 'NONE',  ( 1.000000000000000000, 0.000000000000000000, 0.000000000000000000 ) ) ;
#194 = DIRECTION ( 'NONE',  ( 1.000000000000000000, 0.000000000000000000, 0.000000000000000000 ) ) ;
#195 = EDGE_CURVE ( 'NONE', #5, #187, #345, .T. ) ;
#196 = COORDINATED_UNIVERSAL_TIME_OFFSET ( 1, 0, .AHEAD. ) ;
#197 = VECTOR ( 'NONE', #356, 1000.000000000000000 ) ;
#198 = PRODUCT_DEFINITION_FORMATION_WITH_SPECIFIED_SOURCE ( 'LIBOVOLNÝ', '', #151, .NOT_KNOWN. ) ;
#199 = CALENDAR_DATE ( 2022, 8, 7 ) ;
#200 = CARTESIAN_POINT ( 'NONE',  ( 1.750000000000000000, 2.143131898507867804E-16, 0.000000000000000000 ) ) ;
#201 = DATE_AND_TIME ( #227, #300 ) ;
#202 = CIRCLE ( 'NONE', #46, 6.000000000000000888 ) ;
#203 = EDGE_LOOP ( 'NONE', ( #288, #124 ) ) ;
#204 =( GEOMETRIC_REPRESENTATION_CONTEXT ( 3 ) GLOBAL_UNCERTAINTY_ASSIGNED_CONTEXT ( ( #149 ) ) GLOBAL_UNIT_ASSIGNED_CONTEXT ( ( #246, #190, #219 ) ) REPRESENTATION_CONTEXT ( 'NONE', 'WORKASPACE' ) );
#205 = APPROVAL_DATE_TIME ( #313, #258 ) ;
#206 = DIRECTION ( 'NONE',  ( 0.000000000000000000, -1.000000000000000000, 0.000000000000000000 ) ) ;
#207 = VERTEX_POINT ( 'NONE', #165 ) ;
#208 = ADVANCED_BREP_SHAPE_REPRESENTATION ( '5947', ( #7, #148 ), #204 ) ;
#209 = PERSON_AND_ORGANIZATION_ROLE ( 'classification_officer' ) ;
#210 = EDGE_CURVE ( 'NONE', #4, #88, #341, .T. ) ;
#211 = DIRECTION ( 'NONE',  ( 0.000000000000000000, 0.000000000000000000, -1.000000000000000000 ) ) ;
#212 = VERTEX_POINT ( 'NONE', #252 ) ;
#213 = VERTEX_POINT ( 'NONE', #371 ) ;
#214 = EDGE_LOOP ( 'NONE', ( #298, #29 ) ) ;
#215 = FACE_OUTER_BOUND ( 'NONE', #203, .T. ) ;
#216 = ORIENTED_EDGE ( 'NONE', *, *, #254, .F. ) ;
#217 = CARTESIAN_POINT ( 'NONE',  ( 0.000000000000000000, 0.000000000000000000, 0.000000000000000000 ) ) ;
#218 = DIRECTION ( 'NONE',  ( 1.000000000000000000, 0.000000000000000000, 0.000000000000000000 ) ) ;
#219 =( NAMED_UNIT ( * ) SI_UNIT ( $, .STERADIAN. ) SOLID_ANGLE_UNIT ( ) );
#220 = APPROVAL ( #263, 'NEURÈENÝ' ) ;
#221 = FACE_OUTER_BOUND ( 'NONE', #264, .T. ) ;
#222 = CARTESIAN_POINT ( 'NONE',  ( 6.000000000000000888, 7.347880794884120722E-16, 5.000000000000000000 ) ) ;
#223 = FACE_BOUND ( 'NONE', #324, .T. ) ;
#224 = CARTESIAN_POINT ( 'NONE',  ( 1.750000000000000000, 2.143131898507867804E-16, 455.0000000000000000 ) ) ;
#225 = DIRECTION ( 'NONE',  ( 0.000000000000000000, 0.000000000000000000, 1.000000000000000000 ) ) ;
#226 = CC_DESIGN_APPROVAL ( #220, ( #366 ) ) ;
#227 = CALENDAR_DATE ( 2022, 8, 7 ) ;
#228 = CYLINDRICAL_SURFACE ( 'NONE', #276, 3.000000000000000444 ) ;
#229 = DIRECTION ( 'NONE',  ( 1.000000000000000000, 0.000000000000000000, 0.000000000000000000 ) ) ;
#230 = CIRCLE ( 'NONE', #191, 3.000000000000000444 ) ;
#231 = EDGE_LOOP ( 'NONE', ( #247, #126 ) ) ;
#232 = LOCAL_TIME ( 17, 37, 57.00000000000000000, #357 ) ;
#233 = LINE ( 'NONE', #127, #43 ) ;
#234 = ORIENTED_EDGE ( 'NONE', *, *, #317, .T. ) ;
#235 = CALENDAR_DATE ( 2022, 8, 7 ) ;
#236 = VERTEX_POINT ( 'NONE', #338 ) ;
#237 = PERSON_AND_ORGANIZATION ( #113, #110 ) ;
#238 = ORIENTED_EDGE ( 'NONE', *, *, #136, .T. ) ;
#239 = SHAPE_DEFINITION_REPRESENTATION ( #32, #208 ) ;
#240 = CARTESIAN_POINT ( 'NONE',  ( 0.000000000000000000, 0.000000000000000000, 0.000000000000000000 ) ) ;
#241 = DIRECTION ( 'NONE',  ( -1.000000000000000000, 0.000000000000000000, 0.000000000000000000 ) ) ;
#242 = FACE_BOUND ( 'NONE', #297, .T. ) ;
#243 = SECURITY_CLASSIFICATION_LEVEL ( 'unclassified' ) ;
#244 = DIRECTION ( 'NONE',  ( 0.000000000000000000, 0.000000000000000000, -1.000000000000000000 ) ) ;
#245 = DIRECTION ( 'NONE',  ( -1.000000000000000000, 0.000000000000000000, 0.000000000000000000 ) ) ;
#246 =( LENGTH_UNIT ( ) NAMED_UNIT ( * ) SI_UNIT ( .MILLI., .METRE. ) );
#247 = ORIENTED_EDGE ( 'NONE', *, *, #307, .T. ) ;
#248 = DIRECTION ( 'NONE',  ( 1.224646799147353207E-16, 1.000000000000000000, -0.000000000000000000 ) ) ;
#249 = CIRCLE ( 'NONE', #169, 6.000000000000000888 ) ;
#250 = DIRECTION ( 'NONE',  ( 1.000000000000000000, 0.000000000000000000, -0.000000000000000000 ) ) ;
#251 = ADVANCED_FACE ( 'NONE', ( #78 ), #374, .F. ) ;
#252 = CARTESIAN_POINT ( 'NONE',  ( 6.000000000000000888, 7.347880794884120722E-16, 5.000000000000000000 ) ) ;
#253 = APPLICATION_CONTEXT ( 'configuration controlled 3d designs of mechanical parts and assemblies' ) ;
#254 = EDGE_CURVE ( 'NONE', #88, #236, #98, .T. ) ;
#255 = CIRCLE ( 'NONE', #293, 3.500000000000000444 ) ;
#256 = APPROVAL_ROLE ( '' ) ;
#257 = CARTESIAN_POINT ( 'NONE',  ( 1.750000000000000000, 2.143131898507867804E-16, 455.0000000000000000 ) ) ;
#258 = APPROVAL ( #289, 'NEURÈENÝ' ) ;
#259 = ORIENTED_EDGE ( 'NONE', *, *, #296, .F. ) ;
#260 = CARTESIAN_POINT ( 'NONE',  ( 0.000000000000000000, 0.000000000000000000, 455.0000000000000000 ) ) ;
#261 = AXIS2_PLACEMENT_3D ( 'NONE', #48, #20, #75 ) ;
#262 = ORIENTED_EDGE ( 'NONE', *, *, #84, .F. ) ;
#263 = APPROVAL_STATUS ( 'not_yet_approved' ) ;
#264 = EDGE_LOOP ( 'NONE', ( #90, #142, #354, #216 ) ) ;
#265 = DESIGN_CONTEXT ( 'detailed design', #368, 'design' ) ;
#266 = ORIENTED_EDGE ( 'NONE', *, *, #96, .F. ) ;
#267 = ORIENTED_EDGE ( 'NONE', *, *, #184, .T. ) ;
#268 = AXIS2_PLACEMENT_3D ( 'NONE', #217, #331, #53 ) ;
#269 = DATE_AND_TIME ( #322, #232 ) ;
#270 = CARTESIAN_POINT ( 'NONE',  ( 0.000000000000000000, 0.000000000000000000, 0.000000000000000000 ) ) ;
#271 = DIRECTION ( 'NONE',  ( 0.000000000000000000, 0.000000000000000000, 1.000000000000000000 ) ) ;
#272 = DIRECTION ( 'NONE',  ( -1.000000000000000000, 1.224646799147354440E-16, 0.000000000000000000 ) ) ;
#273 = EDGE_CURVE ( 'NONE', #4, #87, #183, .T. ) ;
#274 = DIRECTION ( 'NONE',  ( -0.000000000000000000, -0.000000000000000000, -1.000000000000000000 ) ) ;
#275 = CLOSED_SHELL ( 'NONE', ( #189, #41, #369, #337, #63, #107, #3, #170, #164, #251, #70 ) ) ;
#276 = AXIS2_PLACEMENT_3D ( 'NONE', #343, #82, #364 ) ;
#277 = DIRECTION ( 'NONE',  ( 1.000000000000000000, 0.000000000000000000, 0.000000000000000000 ) ) ;
#278 = MECHANICAL_CONTEXT ( 'NONE', #253, 'mechanical' ) ;
#279 = DIRECTION ( 'NONE',  ( -0.000000000000000000, -0.000000000000000000, -1.000000000000000000 ) ) ;
#280 = DIRECTION ( 'NONE',  ( 0.000000000000000000, 0.000000000000000000, 1.000000000000000000 ) ) ;
#281 = CARTESIAN_POINT ( 'NONE',  ( 3.000000000000000444, 3.673940397442060361E-16, 455.0000000000000000 ) ) ;
#282 = CIRCLE ( 'NONE', #353, 3.000000000000000444 ) ;
#283 = DIRECTION ( 'NONE',  ( 0.000000000000000000, 0.000000000000000000, 1.000000000000000000 ) ) ;
#284 = EDGE_CURVE ( 'NONE', #212, #344, #249, .T. ) ;
#285 = PLANE ( 'NONE',  #118 ) ;
#286 = APPLICATION_PROTOCOL_DEFINITION ( 'international standard', 'config_control_design', 1994, #368 ) ;
#287 = DIRECTION ( 'NONE',  ( 0.000000000000000000, 0.000000000000000000, 1.000000000000000000 ) ) ;
#288 = ORIENTED_EDGE ( 'NONE', *, *, #10, .F. ) ;
#289 = APPROVAL_STATUS ( 'not_yet_approved' ) ;
#290 = ORIENTED_EDGE ( 'NONE', *, *, #359, .F. ) ;
#291 = AXIS2_PLACEMENT_3D ( 'NONE', #47, #144, #229 ) ;
#292 = ORIENTED_EDGE ( 'NONE', *, *, #335, .F. ) ;
#293 = AXIS2_PLACEMENT_3D ( 'NONE', #379, #346, #57 ) ;
#294 = COORDINATED_UNIVERSAL_TIME_OFFSET ( 1, 0, .AHEAD. ) ;
#295 = ORIENTED_EDGE ( 'NONE', *, *, #45, .F. ) ;
#296 = EDGE_CURVE ( 'NONE', #5, #51, #233, .T. ) ;
#297 = EDGE_LOOP ( 'NONE', ( #152, #381 ) ) ;
#298 = ORIENTED_EDGE ( 'NONE', *, *, #123, .T. ) ;
#299 = AXIS2_PLACEMENT_3D ( 'NONE', #132, #192, #218 ) ;
#300 = LOCAL_TIME ( 17, 37, 57.00000000000000000, #81 ) ;
#301 = CC_DESIGN_DATE_AND_TIME_ASSIGNMENT ( #269, #121, ( #366 ) ) ;
#302 = CYLINDRICAL_SURFACE ( 'NONE', #376, 1.750000000000000000 ) ;
#303 = DIRECTION ( 'NONE',  ( -0.000000000000000000, -0.000000000000000000, -1.000000000000000000 ) ) ;
#304 = PLANE ( 'NONE',  #146 ) ;
#305 = FACE_BOUND ( 'NONE', #231, .T. ) ;
#306 = DIRECTION ( 'NONE',  ( 0.000000000000000000, 0.000000000000000000, 1.000000000000000000 ) ) ;
#307 = EDGE_CURVE ( 'NONE', #236, #213, #255, .T. ) ;
#308 = DIRECTION ( 'NONE',  ( 1.000000000000000000, 0.000000000000000000, 0.000000000000000000 ) ) ;
#309 = APPLICATION_PROTOCOL_DEFINITION ( 'international standard', 'config_control_design', 1994, #253 ) ;
#310 = DATE_AND_TIME ( #55, #86 ) ;
#311 = AXIS2_PLACEMENT_3D ( 'NONE', #360, #141, #349 ) ;
#312 = CARTESIAN_POINT ( 'NONE',  ( 3.500000000000000444, 0.000000000000000000, 5.500000000000005329 ) ) ;
#313 = DATE_AND_TIME ( #199, #119 ) ;
#314 = DIRECTION ( 'NONE',  ( 0.000000000000000000, 0.000000000000000000, 1.000000000000000000 ) ) ;
#315 = CIRCLE ( 'NONE', #109, 6.000000000000000888 ) ;
#316 = EDGE_LOOP ( 'NONE', ( #31, #122, #71, #259 ) ) ;
#317 = EDGE_CURVE ( 'NONE', #207, #352, #104, .T. ) ;
#318 = CYLINDRICAL_SURFACE ( 'NONE', #99, 6.000000000000000888 ) ;
#319 = ORIENTED_EDGE ( 'NONE', *, *, #378, .F. ) ;
#320 = FACE_OUTER_BOUND ( 'NONE', #173, .T. ) ;
#321 = ORIENTED_EDGE ( 'NONE', *, *, #76, .F. ) ;
#322 = CALENDAR_DATE ( 2022, 8, 7 ) ;
#323 = ORIENTED_EDGE ( 'NONE', *, *, #296, .T. ) ;
#324 = EDGE_LOOP ( 'NONE', ( #61, #26 ) ) ;
#325 = ORIENTED_EDGE ( 'NONE', *, *, #254, .T. ) ;
#326 = CC_DESIGN_PERSON_AND_ORGANIZATION_ASSIGNMENT ( #64, #89, ( #198 ) ) ;
#327 = CARTESIAN_POINT ( 'NONE',  ( 0.000000000000000000, 0.000000000000000000, 5.000000000000000000 ) ) ;
#328 = DIRECTION ( 'NONE',  ( 0.000000000000000000, 0.000000000000000000, 1.000000000000000000 ) ) ;
#329 = VECTOR ( 'NONE', #274, 1000.000000000000000 ) ;
#330 = APPROVAL_PERSON_ORGANIZATION ( #115, #258, #85 ) ;
#331 = DIRECTION ( 'NONE',  ( -0.000000000000000000, -0.000000000000000000, -1.000000000000000000 ) ) ;
#332 = CARTESIAN_POINT ( 'NONE',  ( -3.000000000000000444, 0.000000000000000000, 455.0000000000000000 ) ) ;
#333 = DIRECTION ( 'NONE',  ( -0.000000000000000000, -0.000000000000000000, -1.000000000000000000 ) ) ;
#334 = CARTESIAN_POINT ( 'NONE',  ( 0.000000000000000000, 0.000000000000000000, 455.0000000000000000 ) ) ;
#335 = EDGE_CURVE ( 'NONE', #187, #145, #140, .T. ) ;
#336 = CARTESIAN_POINT ( 'NONE',  ( 0.000000000000000000, 0.000000000000000000, 5.000000000000000000 ) ) ;
#337 = ADVANCED_FACE ( 'NONE', ( #320 ), #318, .T. ) ;
#338 = CARTESIAN_POINT ( 'NONE',  ( 3.500000000000000444, 0.000000000000000000, 5.000000000000002665 ) ) ;
#339 = DATE_TIME_ROLE ( 'creation_date' ) ;
#340 = CC_DESIGN_APPROVAL ( #258, ( #117 ) ) ;
#341 = LINE ( 'NONE', #281, #14 ) ;
#342 = CYLINDRICAL_SURFACE ( 'NONE', #261, 1.750000000000000000 ) ;
#343 = CARTESIAN_POINT ( 'NONE',  ( 0.000000000000000000, 0.000000000000000000, 455.0000000000000000 ) ) ;
#344 = VERTEX_POINT ( 'NONE', #97 ) ;
#345 = CIRCLE ( 'NONE', #158, 1.750000000000000000 ) ;
#346 = DIRECTION ( 'NONE',  ( -0.000000000000000000, -0.000000000000000000, -1.000000000000000000 ) ) ;
#347 = ORIENTED_EDGE ( 'NONE', *, *, #25, .F. ) ;
#348 = COORDINATED_UNIVERSAL_TIME_OFFSET ( 1, 0, .AHEAD. ) ;
#349 = DIRECTION ( 'NONE',  ( 1.000000000000000000, 0.000000000000000000, 0.000000000000000000 ) ) ;
#350 = ORIENTED_EDGE ( 'NONE', *, *, #284, .F. ) ;
#351 = EDGE_CURVE ( 'NONE', #51, #145, #156, .T. ) ;
#352 = VERTEX_POINT ( 'NONE', #69 ) ;
#353 = AXIS2_PLACEMENT_3D ( 'NONE', #361, #100, #277 ) ;
#354 = ORIENTED_EDGE ( 'NONE', *, *, #307, .F. ) ;
#355 = DATE_AND_TIME ( #235, #8 ) ;
#356 = DIRECTION ( 'NONE',  ( -0.000000000000000000, -0.000000000000000000, -1.000000000000000000 ) ) ;
#357 = COORDINATED_UNIVERSAL_TIME_OFFSET ( 1, 0, .AHEAD. ) ;
#358 = CARTESIAN_POINT ( 'NONE',  ( 0.000000000000000000, 0.000000000000000000, 0.000000000000000000 ) ) ;
#359 = EDGE_CURVE ( 'NONE', #344, #352, #171, .T. ) ;
#360 = CARTESIAN_POINT ( 'NONE',  ( 0.000000000000000000, 0.000000000000000000, 0.000000000000000000 ) ) ;
#361 = CARTESIAN_POINT ( 'NONE',  ( 0.000000000000000000, 0.000000000000000000, 5.500000000000005329 ) ) ;
#362 = AXIS2_PLACEMENT_3D ( 'NONE', #133, #306, #94 ) ;
#363 = DIRECTION ( 'NONE',  ( 0.000000000000000000, 0.000000000000000000, 1.000000000000000000 ) ) ;
#364 = DIRECTION ( 'NONE',  ( -1.000000000000000000, 0.000000000000000000, 0.000000000000000000 ) ) ;
#365 = FACE_OUTER_BOUND ( 'NONE', #179, .T. ) ;
#366 = SECURITY_CLASSIFICATION ( '', '', #243 ) ;
#367 = CARTESIAN_POINT ( 'NONE',  ( 0.000000000000000000, 0.000000000000000000, 455.0000000000000000 ) ) ;
#368 = APPLICATION_CONTEXT ( 'configuration controlled 3d designs of mechanical parts and assemblies' ) ;
#369 = ADVANCED_FACE ( 'NONE', ( #114 ), #228, .T. ) ;
#370 = DIRECTION ( 'NONE',  ( 1.000000000000000000, 0.000000000000000000, 0.000000000000000000 ) ) ;
#371 = CARTESIAN_POINT ( 'NONE',  ( -3.500000000000000444, 4.286263797015737088E-16, 5.000000000000002665 ) ) ;
#372 = PERSON_AND_ORGANIZATION ( #113, #110 ) ;
#373 = DIRECTION ( 'NONE',  ( 0.000000000000000000, 0.000000000000000000, 1.000000000000000000 ) ) ;
#374 = TOROIDAL_SURFACE ( 'NONE', #291, 3.500000000000000444, 0.5000000000000000000 ) ;
#375 = PERSON_AND_ORGANIZATION ( #113, #110 ) ;
#376 = AXIS2_PLACEMENT_3D ( 'NONE', #334, #157, #245 ) ;
#377 = CARTESIAN_POINT ( 'NONE',  ( 0.000000000000000000, 0.000000000000000000, 455.0000000000000000 ) ) ;
#378 = EDGE_CURVE ( 'NONE', #213, #236, #52, .T. ) ;
#379 = CARTESIAN_POINT ( 'NONE',  ( 0.000000000000000000, 0.000000000000000000, 5.000000000000000000 ) ) ;
#380 = CARTESIAN_POINT ( 'NONE',  ( -6.000000000000000888, 0.000000000000000000, 5.000000000000000000 ) ) ;
#381 = ORIENTED_EDGE ( 'NONE', *, *, #56, .F. ) ;
ENDSEC;
END-ISO-10303-21;
