ISO-10303-21;
HEADER;
FILE_DESCRIPTION (( 'STEP AP203' ),
    '1' );
FILE_NAME ('5001.STEP',
    '2022-07-08T15:38:32',
    ( '' ),
    ( '' ),
    'SwSTEP 2.0',
    'SolidWorks 2019',
    '' );
FILE_SCHEMA (( 'CONFIG_CONTROL_DESIGN' ));
ENDSEC;

DATA;
#1 = EDGE_CURVE ( 'NONE', #63, #245, #211, .T. ) ;
#2 = DIRECTION ( 'NONE',  ( -1.000000000000000000, 0.000000000000000000, 0.000000000000000000 ) ) ;
#3 = ORIENTED_EDGE ( 'NONE', *, *, #98, .F. ) ;
#4 = ORIENTED_EDGE ( 'NONE', *, *, #224, .F. ) ;
#5 = ORIENTED_EDGE ( 'NONE', *, *, #207, .T. ) ;
#6 = CARTESIAN_POINT ( 'NONE',  ( -3.500000000000000444, 4.286263797015737088E-16, 5.000000000000002665 ) ) ;
#7 = ORIENTED_EDGE ( 'NONE', *, *, #283, .F. ) ;
#8 = CARTESIAN_POINT ( 'NONE',  ( 0.000000000000000000, 0.000000000000000000, 5.000000000000000000 ) ) ;
#9 = VERTEX_POINT ( 'NONE', #103 ) ;
#10 = LINE ( 'NONE', #252, #219 ) ;
#11 = DIRECTION ( 'NONE',  ( -1.000000000000000000, 0.000000000000000000, 0.000000000000000000 ) ) ;
#12 = CARTESIAN_POINT ( 'NONE',  ( -3.500000000000000444, 4.286263797015737088E-16, 5.500000000000005329 ) ) ;
#13 = DIRECTION ( 'NONE',  ( -0.000000000000000000, -0.000000000000000000, -1.000000000000000000 ) ) ;
#14 = VERTEX_POINT ( 'NONE', #79 ) ;
#15 = LOCAL_TIME ( 17, 38, 32.00000000000000000, #80 ) ;
#16 = EDGE_CURVE ( 'NONE', #358, #54, #265, .T. ) ;
#17 = APPROVAL_ROLE ( '' ) ;
#18 = FACE_OUTER_BOUND ( 'NONE', #248, .T. ) ;
#19 = CIRCLE ( 'NONE', #113, 3.000000000000000444 ) ;
#20 = DATE_AND_TIME ( #51, #59 ) ;
#21 = AXIS2_PLACEMENT_3D ( 'NONE', #236, #352, #348 ) ;
#22 = DIRECTION ( 'NONE',  ( 1.000000000000000000, 0.000000000000000000, -0.000000000000000000 ) ) ;
#23 = CC_DESIGN_SECURITY_CLASSIFICATION ( #195, ( #66 ) ) ;
#24 = EDGE_LOOP ( 'NONE', ( #293, #214, #357, #3 ) ) ;
#25 = CARTESIAN_POINT ( 'NONE',  ( 0.000000000000000000, 0.000000000000000000, 280.0000000000000000 ) ) ;
#26 = ADVANCED_FACE ( 'NONE', ( #18 ), #187, .T. ) ;
#27 = FACE_OUTER_BOUND ( 'NONE', #24, .T. ) ;
#28 = DATE_AND_TIME ( #327, #279 ) ;
#29 = EDGE_CURVE ( 'NONE', #54, #34, #104, .T. ) ;
#30 = EDGE_LOOP ( 'NONE', ( #143, #276 ) ) ;
#31 = AXIS2_PLACEMENT_3D ( 'NONE', #223, #60, #33 ) ;
#32 = ORIENTED_EDGE ( 'NONE', *, *, #1, .F. ) ;
#33 = DIRECTION ( 'NONE',  ( 1.000000000000000000, 0.000000000000000000, 0.000000000000000000 ) ) ;
#34 = VERTEX_POINT ( 'NONE', #43 ) ;
#35 = CARTESIAN_POINT ( 'NONE',  ( 3.000000000000000444, 3.673940397442060361E-16, 280.0000000000000000 ) ) ;
#36 = ORIENTED_EDGE ( 'NONE', *, *, #207, .F. ) ;
#37 = CIRCLE ( 'NONE', #298, 3.000000000000000444 ) ;
#38 =( LENGTH_UNIT ( ) NAMED_UNIT ( * ) SI_UNIT ( .MILLI., .METRE. ) );
#39 = CC_DESIGN_DATE_AND_TIME_ASSIGNMENT ( #28, #356, ( #195 ) ) ;
#40 = APPROVAL_PERSON_ORGANIZATION ( #316, #105, #128 ) ;
#41 = EDGE_LOOP ( 'NONE', ( #118, #129, #4, #45 ) ) ;
#42 = AXIS2_PLACEMENT_3D ( 'NONE', #376, #251, #257 ) ;
#43 = CARTESIAN_POINT ( 'NONE',  ( -1.750000000000000000, 0.000000000000000000, 0.000000000000000000 ) ) ;
#44 = EDGE_CURVE ( 'NONE', #63, #303, #345, .T. ) ;
#45 = ORIENTED_EDGE ( 'NONE', *, *, #94, .F. ) ;
#46 = CC_DESIGN_PERSON_AND_ORGANIZATION_ASSIGNMENT ( #321, #132, ( #66 ) ) ;
#47 = CARTESIAN_POINT ( 'NONE',  ( -1.750000000000000000, 0.000000000000000000, 280.0000000000000000 ) ) ;
#48 = PERSON_AND_ORGANIZATION_ROLE ( 'design_owner' ) ;
#49 = CIRCLE ( 'NONE', #208, 3.000000000000000444 ) ;
#50 = DIRECTION ( 'NONE',  ( 1.000000000000000000, 0.000000000000000000, -0.000000000000000000 ) ) ;
#51 = CALENDAR_DATE ( 2022, 8, 7 ) ;
#52 = LINE ( 'NONE', #82, #235 ) ;
#53 = DIRECTION ( 'NONE',  ( -0.000000000000000000, -0.000000000000000000, -1.000000000000000000 ) ) ;
#54 = VERTEX_POINT ( 'NONE', #47 ) ;
#55 = EDGE_CURVE ( 'NONE', #9, #346, #137, .T. ) ;
#56 = COORDINATED_UNIVERSAL_TIME_OFFSET ( 1, 0, .AHEAD. ) ;
#57 = CARTESIAN_POINT ( 'NONE',  ( -3.000000000000000444, 0.000000000000000000, 280.0000000000000000 ) ) ;
#58 = AXIS2_PLACEMENT_3D ( 'NONE', #313, #13, #74 ) ;
#59 = LOCAL_TIME ( 17, 38, 32.00000000000000000, #256 ) ;
#60 = DIRECTION ( 'NONE',  ( 0.000000000000000000, 0.000000000000000000, 1.000000000000000000 ) ) ;
#61 = ORIENTED_EDGE ( 'NONE', *, *, #62, .F. ) ;
#62 = EDGE_CURVE ( 'NONE', #346, #180, #212, .T. ) ;
#63 = VERTEX_POINT ( 'NONE', #253 ) ;
#64 = CLOSED_SHELL ( 'NONE', ( #274, #164, #121, #318, #117, #136, #237, #26, #158, #210, #371 ) ) ;
#65 = AXIS2_PLACEMENT_3D ( 'NONE', #328, #140, #270 ) ;
#66 = PRODUCT_DEFINITION_FORMATION_WITH_SPECIFIED_SOURCE ( 'LIBOVOLNÝ', '', #169, .NOT_KNOWN. ) ;
#67 = EDGE_LOOP ( 'NONE', ( #36, #120 ) ) ;
#68 = DIRECTION ( 'NONE',  ( 0.000000000000000000, 0.000000000000000000, -1.000000000000000000 ) ) ;
#69 = VERTEX_POINT ( 'NONE', #100 ) ;
#70 = PRODUCT_DEFINITION ( 'NEZNÁMÝ', '', #66, #262 ) ;
#71 = DIRECTION ( 'NONE',  ( 1.000000000000000000, 0.000000000000000000, 0.000000000000000000 ) ) ;
#72 = ORIENTED_EDGE ( 'NONE', *, *, #151, .T. ) ;
#73 = CIRCLE ( 'NONE', #65, 3.500000000000000444 ) ;
#74 = DIRECTION ( 'NONE',  ( 1.000000000000000000, 0.000000000000000000, 0.000000000000000000 ) ) ;
#75 = CARTESIAN_POINT ( 'NONE',  ( -6.000000000000000888, 0.000000000000000000, 0.000000000000000000 ) ) ;
#76 = CC_DESIGN_PERSON_AND_ORGANIZATION_ASSIGNMENT ( #342, #329, ( #195 ) ) ;
#77 = DIRECTION ( 'NONE',  ( 0.000000000000000000, -1.000000000000000000, 0.000000000000000000 ) ) ;
#78 = DATE_AND_TIME ( #159, #268 ) ;
#79 = CARTESIAN_POINT ( 'NONE',  ( 3.000000000000000444, 3.673940397442060361E-16, 5.500000000000005329 ) ) ;
#80 = COORDINATED_UNIVERSAL_TIME_OFFSET ( 1, 0, .AHEAD. ) ;
#81 = CARTESIAN_POINT ( 'NONE',  ( 6.000000000000000888, 7.347880794884120722E-16, 5.000000000000000000 ) ) ;
#82 = CARTESIAN_POINT ( 'NONE',  ( -6.000000000000000888, 0.000000000000000000, 5.000000000000000000 ) ) ;
#83 = EDGE_LOOP ( 'NONE', ( #216, #271 ) ) ;
#84 = PERSON_AND_ORGANIZATION_ROLE ( 'design_supplier' ) ;
#85 =( GEOMETRIC_REPRESENTATION_CONTEXT ( 3 ) GLOBAL_UNCERTAINTY_ASSIGNED_CONTEXT ( ( #181 ) ) GLOBAL_UNIT_ASSIGNED_CONTEXT ( ( #38, #167, #231 ) ) REPRESENTATION_CONTEXT ( 'NONE', 'WORKASPACE' ) );
#86 = DIRECTION ( 'NONE',  ( 1.000000000000000000, 0.000000000000000000, 0.000000000000000000 ) ) ;
#87 = ORIENTED_EDGE ( 'NONE', *, *, #306, .T. ) ;
#88 = DIRECTION ( 'NONE',  ( -0.000000000000000000, -0.000000000000000000, -1.000000000000000000 ) ) ;
#89 = VECTOR ( 'NONE', #320, 1000.000000000000000 ) ;
#90 = CIRCLE ( 'NONE', #162, 3.000000000000000444 ) ;
#91 = DATE_AND_TIME ( #110, #165 ) ;
#92 = ORIENTED_EDGE ( 'NONE', *, *, #29, .F. ) ;
#93 = DIRECTION ( 'NONE',  ( 1.000000000000000000, 0.000000000000000000, 0.000000000000000000 ) ) ;
#94 = EDGE_CURVE ( 'NONE', #14, #180, #246, .T. ) ;
#95 = DIRECTION ( 'NONE',  ( 0.000000000000000000, 0.000000000000000000, 1.000000000000000000 ) ) ;
#96 = DIRECTION ( 'NONE',  ( 1.224646799147353207E-16, 1.000000000000000000, -0.000000000000000000 ) ) ;
#97 = TOROIDAL_SURFACE ( 'NONE', #21, 3.500000000000000444, 0.5000000000000000000 ) ;
#98 = EDGE_CURVE ( 'NONE', #127, #9, #315, .T. ) ;
#99 = DIRECTION ( 'NONE',  ( 0.000000000000000000, 0.000000000000000000, -1.000000000000000000 ) ) ;
#100 = CARTESIAN_POINT ( 'NONE',  ( 1.750000000000000000, 2.143131898507868297E-16, 0.000000000000000000 ) ) ;
#101 = DIRECTION ( 'NONE',  ( 1.000000000000000000, 0.000000000000000000, 0.000000000000000000 ) ) ;
#102 = ORIENTED_EDGE ( 'NONE', *, *, #311, .F. ) ;
#103 = CARTESIAN_POINT ( 'NONE',  ( -3.000000000000000444, 0.000000000000000000, 5.500000000000005329 ) ) ;
#104 = LINE ( 'NONE', #229, #89 ) ;
#105 = APPROVAL ( #161, 'NEURÈENÝ' ) ;
#106 = EDGE_LOOP ( 'NONE', ( #205, #209 ) ) ;
#107 = EDGE_LOOP ( 'NONE', ( #300, #242, #115, #92 ) ) ;
#108 = DIRECTION ( 'NONE',  ( 1.000000000000000000, 0.000000000000000000, 0.000000000000000000 ) ) ;
#109 = FACE_OUTER_BOUND ( 'NONE', #41, .T. ) ;
#110 = CALENDAR_DATE ( 2022, 8, 7 ) ;
#111 = DIRECTION ( 'NONE',  ( 1.000000000000000000, 0.000000000000000000, 0.000000000000000000 ) ) ;
#112 = CC_DESIGN_DATE_AND_TIME_ASSIGNMENT ( #319, #190, ( #70 ) ) ;
#113 = AXIS2_PLACEMENT_3D ( 'NONE', #330, #233, #111 ) ;
#114 = ORIENTED_EDGE ( 'NONE', *, *, #98, .T. ) ;
#115 = ORIENTED_EDGE ( 'NONE', *, *, #295, .T. ) ;
#116 = CARTESIAN_POINT ( 'NONE',  ( 3.000000000000000444, 3.673940397442060361E-16, 280.0000000000000000 ) ) ;
#117 = ADVANCED_FACE ( 'NONE', ( #135 ), #299, .T. ) ;
#118 = ORIENTED_EDGE ( 'NONE', *, *, #306, .F. ) ;
#119 = FACE_OUTER_BOUND ( 'NONE', #234, .T. ) ;
#120 = ORIENTED_EDGE ( 'NONE', *, *, #295, .F. ) ;
#121 = ADVANCED_FACE ( 'NONE', ( #27 ), #350, .T. ) ;
#122 = MANIFOLD_SOLID_BREP ( 'Odebrat vysunutím3', #64 ) ;
#123 = CARTESIAN_POINT ( 'NONE',  ( -6.000000000000000888, 0.000000000000000000, 5.000000000000000000 ) ) ;
#124 = ORGANIZATION ( 'NEURÈENÝ', 'NEURÈENÝ', '' ) ;
#125 = CIRCLE ( 'NONE', #58, 1.750000000000000000 ) ;
#126 = CARTESIAN_POINT ( 'NONE',  ( 0.000000000000000000, 0.000000000000000000, 5.000000000000000000 ) ) ;
#127 = VERTEX_POINT ( 'NONE', #57 ) ;
#128 = APPROVAL_ROLE ( '' ) ;
#129 = ORIENTED_EDGE ( 'NONE', *, *, #55, .T. ) ;
#130 = PERSON_AND_ORGANIZATION ( #222, #124 ) ;
#131 = EDGE_CURVE ( 'NONE', #351, #127, #19, .T. ) ;
#132 = PERSON_AND_ORGANIZATION_ROLE ( 'creator' ) ;
#133 = FACE_BOUND ( 'NONE', #30, .T. ) ;
#134 = APPROVAL_DATE_TIME ( #78, #185 ) ;
#135 = FACE_OUTER_BOUND ( 'NONE', #149, .T. ) ;
#136 = ADVANCED_FACE ( 'NONE', ( #240, #238 ), #290, .T. ) ;
#137 = CIRCLE ( 'NONE', #154, 0.4999999999999995559 ) ;
#138 = CARTESIAN_POINT ( 'NONE',  ( 0.000000000000000000, 0.000000000000000000, 5.500000000000005329 ) ) ;
#139 = CC_DESIGN_APPROVAL ( #185, ( #70 ) ) ;
#140 = DIRECTION ( 'NONE',  ( -0.000000000000000000, -0.000000000000000000, -1.000000000000000000 ) ) ;
#141 = CARTESIAN_POINT ( 'NONE',  ( 0.000000000000000000, 0.000000000000000000, 280.0000000000000000 ) ) ;
#142 = AXIS2_PLACEMENT_3D ( 'NONE', #199, #294, #206 ) ;
#143 = ORIENTED_EDGE ( 'NONE', *, *, #324, .F. ) ;
#144 = ORIENTED_EDGE ( 'NONE', *, *, #244, .T. ) ;
#145 = ORIENTED_EDGE ( 'NONE', *, *, #44, .T. ) ;
#146 = AXIS2_PLACEMENT_3D ( 'NONE', #292, #326, #2 ) ;
#147 = DIRECTION ( 'NONE',  ( 0.000000000000000000, 0.000000000000000000, -1.000000000000000000 ) ) ;
#148 = AXIS2_PLACEMENT_3D ( 'NONE', #353, #168, #22 ) ;
#149 = EDGE_LOOP ( 'NONE', ( #157, #372, #200, #335 ) ) ;
#150 = PLANE ( 'NONE',  #343 ) ;
#151 = EDGE_CURVE ( 'NONE', #127, #351, #37, .T. ) ;
#152 = CARTESIAN_POINT ( 'NONE',  ( 0.000000000000000000, 0.000000000000000000, 280.0000000000000000 ) ) ;
#153 = DIRECTION ( 'NONE',  ( -0.000000000000000000, -0.000000000000000000, -1.000000000000000000 ) ) ;
#154 = AXIS2_PLACEMENT_3D ( 'NONE', #12, #96, #156 ) ;
#155 = LINE ( 'NONE', #35, #201 ) ;
#156 = DIRECTION ( 'NONE',  ( -1.000000000000000000, 1.224646799147354440E-16, 0.000000000000000000 ) ) ;
#157 = ORIENTED_EDGE ( 'NONE', *, *, #44, .F. ) ;
#158 = ADVANCED_FACE ( 'NONE', ( #133, #203 ), #261, .T. ) ;
#159 = CALENDAR_DATE ( 2022, 8, 7 ) ;
#160 = DIRECTION ( 'NONE',  ( 0.000000000000000000, 0.000000000000000000, 1.000000000000000000 ) ) ;
#161 = APPROVAL_STATUS ( 'not_yet_approved' ) ;
#162 = AXIS2_PLACEMENT_3D ( 'NONE', #336, #363, #93 ) ;
#163 = CALENDAR_DATE ( 2022, 8, 7 ) ;
#164 = ADVANCED_FACE ( 'NONE', ( #109 ), #97, .F. ) ;
#165 = LOCAL_TIME ( 17, 38, 32.00000000000000000, #56 ) ;
#166 = APPLICATION_CONTEXT ( 'configuration controlled 3d designs of mechanical parts and assemblies' ) ;
#167 =( NAMED_UNIT ( * ) PLANE_ANGLE_UNIT ( ) SI_UNIT ( $, .RADIAN. ) );
#168 = DIRECTION ( 'NONE',  ( 0.000000000000000000, 0.000000000000000000, 1.000000000000000000 ) ) ;
#169 = PRODUCT ( '5001', '5001', '', ( #228 ) ) ;
#170 = DIRECTION ( 'NONE',  ( -0.000000000000000000, -0.000000000000000000, -1.000000000000000000 ) ) ;
#171 = EDGE_LOOP ( 'NONE', ( #7, #331, #189, #5 ) ) ;
#172 = PERSON_AND_ORGANIZATION ( #222, #124 ) ;
#173 = CIRCLE ( 'NONE', #367, 6.000000000000000888 ) ;
#174 = APPROVAL_ROLE ( '' ) ;
#175 = CC_DESIGN_PERSON_AND_ORGANIZATION_ASSIGNMENT ( #130, #198, ( #70 ) ) ;
#176 = DIRECTION ( 'NONE',  ( -1.000000000000000000, 0.000000000000000000, 0.000000000000000000 ) ) ;
#177 = ORIENTED_EDGE ( 'NONE', *, *, #192, .F. ) ;
#178 = CC_DESIGN_PERSON_AND_ORGANIZATION_ASSIGNMENT ( #194, #48, ( #169 ) ) ;
#179 = EDGE_LOOP ( 'NONE', ( #72, #250 ) ) ;
#180 = VERTEX_POINT ( 'NONE', #204 ) ;
#181 = UNCERTAINTY_MEASURE_WITH_UNIT (LENGTH_MEASURE( 1.000000000000000082E-05 ), #38, 'distance_accuracy_value', 'NONE');
#182 = DIRECTION ( 'NONE',  ( -1.000000000000000000, 0.000000000000000000, 0.000000000000000000 ) ) ;
#183 = ORIENTED_EDGE ( 'NONE', *, *, #269, .F. ) ;
#184 = VECTOR ( 'NONE', #88, 1000.000000000000000 ) ;
#185 = APPROVAL ( #374, 'NEURÈENÝ' ) ;
#186 = CARTESIAN_POINT ( 'NONE',  ( 6.000000000000000888, 7.347880794884120722E-16, 0.000000000000000000 ) ) ;
#187 = CYLINDRICAL_SURFACE ( 'NONE', #314, 3.000000000000000444 ) ;
#188 = DIRECTION ( 'NONE',  ( 0.000000000000000000, 0.000000000000000000, 1.000000000000000000 ) ) ;
#189 = ORIENTED_EDGE ( 'NONE', *, *, #29, .T. ) ;
#190 = DATE_TIME_ROLE ( 'creation_date' ) ;
#191 = CARTESIAN_POINT ( 'NONE',  ( 0.000000000000000000, 0.000000000000000000, 280.0000000000000000 ) ) ;
#192 = EDGE_CURVE ( 'NONE', #245, #308, #52, .T. ) ;
#193 = TOROIDAL_SURFACE ( 'NONE', #227, 3.500000000000000444, 0.5000000000000000000 ) ;
#194 = PERSON_AND_ORGANIZATION ( #222, #124 ) ;
#195 = SECURITY_CLASSIFICATION ( '', '', #226 ) ;
#196 = CARTESIAN_POINT ( 'NONE',  ( 0.000000000000000000, 0.000000000000000000, 280.0000000000000000 ) ) ;
#197 = DIRECTION ( 'NONE',  ( -0.000000000000000000, -0.000000000000000000, -1.000000000000000000 ) ) ;
#198 = PERSON_AND_ORGANIZATION_ROLE ( 'creator' ) ;
#199 = CARTESIAN_POINT ( 'NONE',  ( 0.000000000000000000, 0.000000000000000000, 0.000000000000000000 ) ) ;
#200 = ORIENTED_EDGE ( 'NONE', *, *, #192, .T. ) ;
#201 = VECTOR ( 'NONE', #249, 1000.000000000000000 ) ;
#202 = COORDINATED_UNIVERSAL_TIME_OFFSET ( 1, 0, .AHEAD. ) ;
#203 = FACE_OUTER_BOUND ( 'NONE', #179, .T. ) ;
#204 = CARTESIAN_POINT ( 'NONE',  ( 3.500000000000000444, 0.000000000000000000, 5.000000000000002665 ) ) ;
#205 = ORIENTED_EDGE ( 'NONE', *, *, #224, .T. ) ;
#206 = DIRECTION ( 'NONE',  ( 1.000000000000000000, 0.000000000000000000, 0.000000000000000000 ) ) ;
#207 = EDGE_CURVE ( 'NONE', #34, #69, #285, .T. ) ;
#208 = AXIS2_PLACEMENT_3D ( 'NONE', #221, #310, #101 ) ;
#209 = ORIENTED_EDGE ( 'NONE', *, *, #62, .T. ) ;
#210 = ADVANCED_FACE ( 'NONE', ( #322 ), #193, .F. ) ;
#211 = CIRCLE ( 'NONE', #42, 6.000000000000000888 ) ;
#212 = CIRCLE ( 'NONE', #373, 3.500000000000000444 ) ;
#213 = ORIENTED_EDGE ( 'NONE', *, *, #94, .T. ) ;
#214 = ORIENTED_EDGE ( 'NONE', *, *, #269, .T. ) ;
#215 = CYLINDRICAL_SURFACE ( 'NONE', #309, 1.750000000000000000 ) ;
#216 = ORIENTED_EDGE ( 'NONE', *, *, #378, .T. ) ;
#217 = CARTESIAN_POINT ( 'NONE',  ( 0.000000000000000000, 0.000000000000000000, 0.000000000000000000 ) ) ;
#218 = FACE_OUTER_BOUND ( 'NONE', #107, .T. ) ;
#219 = VECTOR ( 'NONE', #99, 1000.000000000000000 ) ;
#220 = CARTESIAN_POINT ( 'NONE',  ( 0.000000000000000000, 0.000000000000000000, 5.000000000000000000 ) ) ;
#221 = CARTESIAN_POINT ( 'NONE',  ( 0.000000000000000000, 0.000000000000000000, 5.500000000000005329 ) ) ;
#222 = PERSON ( 'NEURÈENÝ', 'NEURÈENÝ', 'NEURÈENÝ', ('NEURÈENÝ'), ('NEURÈENÝ'), ('NEURÈENÝ') ) ;
#223 = CARTESIAN_POINT ( 'NONE',  ( 0.000000000000000000, 0.000000000000000000, 280.0000000000000000 ) ) ;
#224 = EDGE_CURVE ( 'NONE', #180, #346, #73, .T. ) ;
#225 = DIRECTION ( 'NONE',  ( -1.000000000000000000, 0.000000000000000000, 0.000000000000000000 ) ) ;
#226 = SECURITY_CLASSIFICATION_LEVEL ( 'unclassified' ) ;
#227 = AXIS2_PLACEMENT_3D ( 'NONE', #138, #267, #380 ) ;
#228 = MECHANICAL_CONTEXT ( 'NONE', #166, 'mechanical' ) ;
#229 = CARTESIAN_POINT ( 'NONE',  ( -1.750000000000000000, 0.000000000000000000, 280.0000000000000000 ) ) ;
#230 = APPLICATION_PROTOCOL_DEFINITION ( 'international standard', 'config_control_design', 1994, #166 ) ;
#231 =( NAMED_UNIT ( * ) SI_UNIT ( $, .STERADIAN. ) SOLID_ANGLE_UNIT ( ) );
#232 = APPLICATION_CONTEXT ( 'configuration controlled 3d designs of mechanical parts and assemblies' ) ;
#233 = DIRECTION ( 'NONE',  ( 0.000000000000000000, 0.000000000000000000, 1.000000000000000000 ) ) ;
#234 = EDGE_LOOP ( 'NONE', ( #102, #325 ) ) ;
#235 = VECTOR ( 'NONE', #170, 1000.000000000000000 ) ;
#236 = CARTESIAN_POINT ( 'NONE',  ( 0.000000000000000000, 0.000000000000000000, 5.500000000000005329 ) ) ;
#237 = ADVANCED_FACE ( 'NONE', ( #255, #119 ), #150, .F. ) ;
#238 = FACE_OUTER_BOUND ( 'NONE', #83, .T. ) ;
#239 = AXIS2_PLACEMENT_3D ( 'NONE', #141, #53, #272 ) ;
#240 = FACE_BOUND ( 'NONE', #106, .T. ) ;
#241 = AXIS2_PLACEMENT_3D ( 'NONE', #126, #368, #176 ) ;
#242 = ORIENTED_EDGE ( 'NONE', *, *, #283, .T. ) ;
#243 = APPROVAL_DATE_TIME ( #91, #289 ) ;
#244 = EDGE_CURVE ( 'NONE', #303, #308, #173, .T. ) ;
#245 = VERTEX_POINT ( 'NONE', #123 ) ;
#246 = CIRCLE ( 'NONE', #302, 0.5000000000000004441 ) ;
#247 = CARTESIAN_POINT ( 'NONE',  ( 1.750000000000000000, 2.143131898507868297E-16, 280.0000000000000000 ) ) ;
#248 = EDGE_LOOP ( 'NONE', ( #183, #361, #114, #87 ) ) ;
#249 = DIRECTION ( 'NONE',  ( -0.000000000000000000, -0.000000000000000000, -1.000000000000000000 ) ) ;
#250 = ORIENTED_EDGE ( 'NONE', *, *, #131, .T. ) ;
#251 = DIRECTION ( 'NONE',  ( 0.000000000000000000, 0.000000000000000000, 1.000000000000000000 ) ) ;
#252 = CARTESIAN_POINT ( 'NONE',  ( 1.750000000000000000, 2.143131898507868297E-16, 280.0000000000000000 ) ) ;
#253 = CARTESIAN_POINT ( 'NONE',  ( 6.000000000000000888, 7.347880794884120722E-16, 5.000000000000000000 ) ) ;
#254 = CC_DESIGN_PERSON_AND_ORGANIZATION_ASSIGNMENT ( #379, #84, ( #66 ) ) ;
#255 = FACE_BOUND ( 'NONE', #67, .T. ) ;
#256 = COORDINATED_UNIVERSAL_TIME_OFFSET ( 1, 0, .AHEAD. ) ;
#257 = DIRECTION ( 'NONE',  ( 1.000000000000000000, 0.000000000000000000, 0.000000000000000000 ) ) ;
#258 = CIRCLE ( 'NONE', #31, 1.750000000000000000 ) ;
#259 = PRODUCT_DEFINITION_SHAPE ( 'NONE', 'NONE',  #70 ) ;
#260 = CC_DESIGN_APPROVAL ( #289, ( #195 ) ) ;
#261 = PLANE ( 'NONE',  #355 ) ;
#262 = DESIGN_CONTEXT ( 'detailed design', #232, 'design' ) ;
#263 = CARTESIAN_POINT ( 'NONE',  ( 0.000000000000000000, 0.000000000000000000, 280.0000000000000000 ) ) ;
#264 = EDGE_LOOP ( 'NONE', ( #332, #341, #213, #61 ) ) ;
#265 = CIRCLE ( 'NONE', #296, 1.750000000000000000 ) ;
#266 = DIRECTION ( 'NONE',  ( 0.000000000000000000, 0.000000000000000000, 1.000000000000000000 ) ) ;
#267 = DIRECTION ( 'NONE',  ( 0.000000000000000000, 0.000000000000000000, 1.000000000000000000 ) ) ;
#268 = LOCAL_TIME ( 17, 38, 32.00000000000000000, #202 ) ;
#269 = EDGE_CURVE ( 'NONE', #351, #14, #155, .T. ) ;
#270 = DIRECTION ( 'NONE',  ( 1.000000000000000000, 0.000000000000000000, 0.000000000000000000 ) ) ;
#271 = ORIENTED_EDGE ( 'NONE', *, *, #1, .T. ) ;
#272 = DIRECTION ( 'NONE',  ( -1.000000000000000000, 0.000000000000000000, 0.000000000000000000 ) ) ;
#273 = COORDINATED_UNIVERSAL_TIME_OFFSET ( 1, 0, .AHEAD. ) ;
#274 = ADVANCED_FACE ( 'NONE', ( #218 ), #337, .F. ) ;
#275 = CIRCLE ( 'NONE', #362, 6.000000000000000888 ) ;
#276 = ORIENTED_EDGE ( 'NONE', *, *, #16, .F. ) ;
#277 = DIRECTION ( 'NONE',  ( 1.000000000000000000, 0.000000000000000000, 0.000000000000000000 ) ) ;
#278 = FACE_OUTER_BOUND ( 'NONE', #171, .T. ) ;
#279 = LOCAL_TIME ( 17, 38, 32.00000000000000000, #273 ) ;
#280 = DIRECTION ( 'NONE',  ( 1.000000000000000000, 0.000000000000000000, 0.000000000000000000 ) ) ;
#281 = DIRECTION ( 'NONE',  ( 0.000000000000000000, 0.000000000000000000, 1.000000000000000000 ) ) ;
#282 = DIRECTION ( 'NONE',  ( 1.000000000000000000, 0.000000000000000000, 0.000000000000000000 ) ) ;
#283 = EDGE_CURVE ( 'NONE', #358, #69, #10, .T. ) ;
#284 = CARTESIAN_POINT ( 'NONE',  ( 0.000000000000000000, 0.000000000000000000, 0.000000000000000000 ) ) ;
#285 = CIRCLE ( 'NONE', #142, 1.750000000000000000 ) ;
#286 = DIRECTION ( 'NONE',  ( 0.000000000000000000, 0.000000000000000000, -1.000000000000000000 ) ) ;
#287 = CC_DESIGN_APPROVAL ( #105, ( #66 ) ) ;
#288 = DIRECTION ( 'NONE',  ( 1.000000000000000000, 0.000000000000000000, 0.000000000000000000 ) ) ;
#289 = APPROVAL ( #381, 'NEURÈENÝ' ) ;
#290 = PLANE ( 'NONE',  #148 ) ;
#291 = CIRCLE ( 'NONE', #305, 6.000000000000000888 ) ;
#292 = CARTESIAN_POINT ( 'NONE',  ( 0.000000000000000000, 0.000000000000000000, 5.000000000000000000 ) ) ;
#293 = ORIENTED_EDGE ( 'NONE', *, *, #131, .F. ) ;
#294 = DIRECTION ( 'NONE',  ( -0.000000000000000000, -0.000000000000000000, -1.000000000000000000 ) ) ;
#295 = EDGE_CURVE ( 'NONE', #69, #34, #125, .T. ) ;
#296 = AXIS2_PLACEMENT_3D ( 'NONE', #196, #160, #288 ) ;
#297 = DIRECTION ( 'NONE',  ( 0.000000000000000000, 0.000000000000000000, 1.000000000000000000 ) ) ;
#298 = AXIS2_PLACEMENT_3D ( 'NONE', #263, #297, #86 ) ;
#299 = CYLINDRICAL_SURFACE ( 'NONE', #146, 6.000000000000000888 ) ;
#300 = ORIENTED_EDGE ( 'NONE', *, *, #324, .T. ) ;
#301 = SHAPE_DEFINITION_REPRESENTATION ( #259, #317 ) ;
#302 = AXIS2_PLACEMENT_3D ( 'NONE', #339, #77, #286 ) ;
#303 = VERTEX_POINT ( 'NONE', #186 ) ;
#304 = AXIS2_PLACEMENT_3D ( 'NONE', #344, #266, #108 ) ;
#305 = AXIS2_PLACEMENT_3D ( 'NONE', #217, #188, #277 ) ;
#306 = EDGE_CURVE ( 'NONE', #9, #14, #49, .T. ) ;
#307 = DIRECTION ( 'NONE',  ( 1.000000000000000000, 0.000000000000000000, -0.000000000000000000 ) ) ;
#308 = VERTEX_POINT ( 'NONE', #75 ) ;
#309 = AXIS2_PLACEMENT_3D ( 'NONE', #334, #68, #182 ) ;
#310 = DIRECTION ( 'NONE',  ( 0.000000000000000000, 0.000000000000000000, 1.000000000000000000 ) ) ;
#311 = EDGE_CURVE ( 'NONE', #308, #303, #291, .T. ) ;
#312 = DIRECTION ( 'NONE',  ( -0.000000000000000000, -0.000000000000000000, -1.000000000000000000 ) ) ;
#313 = CARTESIAN_POINT ( 'NONE',  ( 0.000000000000000000, 0.000000000000000000, 0.000000000000000000 ) ) ;
#314 = AXIS2_PLACEMENT_3D ( 'NONE', #191, #312, #225 ) ;
#315 = LINE ( 'NONE', #369, #184 ) ;
#316 = PERSON_AND_ORGANIZATION ( #222, #124 ) ;
#317 = ADVANCED_BREP_SHAPE_REPRESENTATION ( '5001', ( #122, #304 ), #85 ) ;
#318 = ADVANCED_FACE ( 'NONE', ( #366 ), #338, .T. ) ;
#319 = DATE_AND_TIME ( #163, #15 ) ;
#320 = DIRECTION ( 'NONE',  ( 0.000000000000000000, 0.000000000000000000, -1.000000000000000000 ) ) ;
#321 = PERSON_AND_ORGANIZATION ( #222, #124 ) ;
#322 = FACE_OUTER_BOUND ( 'NONE', #264, .T. ) ;
#323 = EDGE_LOOP ( 'NONE', ( #32, #145, #144, #177 ) ) ;
#324 = EDGE_CURVE ( 'NONE', #54, #358, #258, .T. ) ;
#325 = ORIENTED_EDGE ( 'NONE', *, *, #244, .F. ) ;
#326 = DIRECTION ( 'NONE',  ( -0.000000000000000000, -0.000000000000000000, -1.000000000000000000 ) ) ;
#327 = CALENDAR_DATE ( 2022, 8, 7 ) ;
#328 = CARTESIAN_POINT ( 'NONE',  ( 0.000000000000000000, 0.000000000000000000, 5.000000000000000000 ) ) ;
#329 = PERSON_AND_ORGANIZATION_ROLE ( 'classification_officer' ) ;
#330 = CARTESIAN_POINT ( 'NONE',  ( 0.000000000000000000, 0.000000000000000000, 280.0000000000000000 ) ) ;
#331 = ORIENTED_EDGE ( 'NONE', *, *, #16, .T. ) ;
#332 = ORIENTED_EDGE ( 'NONE', *, *, #55, .F. ) ;
#333 = APPROVAL_PERSON_ORGANIZATION ( #172, #289, #174 ) ;
#334 = CARTESIAN_POINT ( 'NONE',  ( 0.000000000000000000, 0.000000000000000000, 280.0000000000000000 ) ) ;
#335 = ORIENTED_EDGE ( 'NONE', *, *, #311, .T. ) ;
#336 = CARTESIAN_POINT ( 'NONE',  ( 0.000000000000000000, 0.000000000000000000, 5.500000000000005329 ) ) ;
#337 = CYLINDRICAL_SURFACE ( 'NONE', #375, 1.750000000000000000 ) ;
#338 = CYLINDRICAL_SURFACE ( 'NONE', #241, 6.000000000000000888 ) ;
#339 = CARTESIAN_POINT ( 'NONE',  ( 3.500000000000000444, 0.000000000000000000, 5.500000000000005329 ) ) ;
#340 = PERSON_AND_ORGANIZATION ( #222, #124 ) ;
#341 = ORIENTED_EDGE ( 'NONE', *, *, #360, .F. ) ;
#342 = PERSON_AND_ORGANIZATION ( #222, #124 ) ;
#343 = AXIS2_PLACEMENT_3D ( 'NONE', #284, #281, #307 ) ;
#344 = CARTESIAN_POINT ( 'NONE',  ( 0.000000000000000000, 0.000000000000000000, 0.000000000000000000 ) ) ;
#345 = LINE ( 'NONE', #81, #359 ) ;
#346 = VERTEX_POINT ( 'NONE', #6 ) ;
#347 = APPLICATION_PROTOCOL_DEFINITION ( 'international standard', 'config_control_design', 1994, #232 ) ;
#348 = DIRECTION ( 'NONE',  ( 1.000000000000000000, 0.000000000000000000, 0.000000000000000000 ) ) ;
#349 = APPROVAL_PERSON_ORGANIZATION ( #340, #185, #17 ) ;
#350 = CYLINDRICAL_SURFACE ( 'NONE', #239, 3.000000000000000444 ) ;
#351 = VERTEX_POINT ( 'NONE', #116 ) ;
#352 = DIRECTION ( 'NONE',  ( 0.000000000000000000, 0.000000000000000000, 1.000000000000000000 ) ) ;
#353 = CARTESIAN_POINT ( 'NONE',  ( 0.000000000000000000, 0.000000000000000000, 5.000000000000000000 ) ) ;
#354 = PRODUCT_RELATED_PRODUCT_CATEGORY ( 'detail', '', ( #169 ) ) ;
#355 = AXIS2_PLACEMENT_3D ( 'NONE', #25, #377, #50 ) ;
#356 = DATE_TIME_ROLE ( 'classification_date' ) ;
#357 = ORIENTED_EDGE ( 'NONE', *, *, #360, .T. ) ;
#358 = VERTEX_POINT ( 'NONE', #247 ) ;
#359 = VECTOR ( 'NONE', #197, 1000.000000000000000 ) ;
#360 = EDGE_CURVE ( 'NONE', #14, #9, #90, .T. ) ;
#361 = ORIENTED_EDGE ( 'NONE', *, *, #151, .F. ) ;
#362 = AXIS2_PLACEMENT_3D ( 'NONE', #8, #95, #71 ) ;
#363 = DIRECTION ( 'NONE',  ( 0.000000000000000000, 0.000000000000000000, 1.000000000000000000 ) ) ;
#364 = CARTESIAN_POINT ( 'NONE',  ( 0.000000000000000000, 0.000000000000000000, 0.000000000000000000 ) ) ;
#365 = DIRECTION ( 'NONE',  ( 0.000000000000000000, 0.000000000000000000, 1.000000000000000000 ) ) ;
#366 = FACE_OUTER_BOUND ( 'NONE', #323, .T. ) ;
#367 = AXIS2_PLACEMENT_3D ( 'NONE', #364, #365, #280 ) ;
#368 = DIRECTION ( 'NONE',  ( -0.000000000000000000, -0.000000000000000000, -1.000000000000000000 ) ) ;
#369 = CARTESIAN_POINT ( 'NONE',  ( -3.000000000000000444, 0.000000000000000000, 280.0000000000000000 ) ) ;
#370 = APPROVAL_DATE_TIME ( #20, #105 ) ;
#371 = ADVANCED_FACE ( 'NONE', ( #278 ), #215, .F. ) ;
#372 = ORIENTED_EDGE ( 'NONE', *, *, #378, .F. ) ;
#373 = AXIS2_PLACEMENT_3D ( 'NONE', #220, #153, #282 ) ;
#374 = APPROVAL_STATUS ( 'not_yet_approved' ) ;
#375 = AXIS2_PLACEMENT_3D ( 'NONE', #152, #147, #11 ) ;
#376 = CARTESIAN_POINT ( 'NONE',  ( 0.000000000000000000, 0.000000000000000000, 5.000000000000000000 ) ) ;
#377 = DIRECTION ( 'NONE',  ( 0.000000000000000000, 0.000000000000000000, 1.000000000000000000 ) ) ;
#378 = EDGE_CURVE ( 'NONE', #245, #63, #275, .T. ) ;
#379 = PERSON_AND_ORGANIZATION ( #222, #124 ) ;
#380 = DIRECTION ( 'NONE',  ( 1.000000000000000000, 0.000000000000000000, 0.000000000000000000 ) ) ;
#381 = APPROVAL_STATUS ( 'not_yet_approved' ) ;
ENDSEC;
END-ISO-10303-21;
