ISO-10303-21;
HEADER;
FILE_DESCRIPTION (( 'STEP AP203' ),
    '1' );
FILE_NAME ('296f.STEP',
    '2022-07-08T15:07:45',
    ( '' ),
    ( '' ),
    'SwSTEP 2.0',
    'SolidWorks 2019',
    '' );
FILE_SCHEMA (( 'CONFIG_CONTROL_DESIGN' ));
ENDSEC;

DATA;
#1 = EDGE_LOOP ( 'NONE', ( #106, #341, #52, #322 ) ) ;
#2 = LINE ( 'NONE', #61, #307 ) ;
#3 = ORIENTED_EDGE ( 'NONE', *, *, #32, .T. ) ;
#4 = ORIENTED_EDGE ( 'NONE', *, *, #344, .F. ) ;
#5 = MECHANICAL_CONTEXT ( 'NONE', #198, 'mechanical' ) ;
#6 = CC_DESIGN_PERSON_AND_ORGANIZATION_ASSIGNMENT ( #368, #332, ( #218 ) ) ;
#7 = FACE_BOUND ( 'NONE', #289, .T. ) ;
#8 = DIRECTION ( 'NONE',  ( 1.000000000000000000, 0.000000000000000000, 0.000000000000000000 ) ) ;
#9 = ORIENTED_EDGE ( 'NONE', *, *, #26, .T. ) ;
#10 = EDGE_CURVE ( 'NONE', #347, #202, #74, .T. ) ;
#11 = PERSON_AND_ORGANIZATION ( #325, #317 ) ;
#12 = DIRECTION ( 'NONE',  ( 0.000000000000000000, 0.000000000000000000, -1.000000000000000000 ) ) ;
#13 = DATE_AND_TIME ( #160, #182 ) ;
#14 = CARTESIAN_POINT ( 'NONE',  ( 4.000000000000000000, 4.898587196589412829E-16, 555.0000000000000000 ) ) ;
#15 = DIRECTION ( 'NONE',  ( 1.000000000000000000, 0.000000000000000000, 0.000000000000000000 ) ) ;
#16 = DIRECTION ( 'NONE',  ( 1.000000000000000000, 0.000000000000000000, 0.000000000000000000 ) ) ;
#17 = ORIENTED_EDGE ( 'NONE', *, *, #320, .T. ) ;
#18 = CARTESIAN_POINT ( 'NONE',  ( -4.500000000000000888, 5.510910596163089556E-16, 5.499999999999949374 ) ) ;
#19 = EDGE_CURVE ( 'NONE', #293, #347, #223, .T. ) ;
#20 = AXIS2_PLACEMENT_3D ( 'NONE', #354, #330, #211 ) ;
#21 = CARTESIAN_POINT ( 'NONE',  ( 0.000000000000000000, 0.000000000000000000, 0.000000000000000000 ) ) ;
#22 = ORIENTED_EDGE ( 'NONE', *, *, #366, .F. ) ;
#23 = VERTEX_POINT ( 'NONE', #183 ) ;
#24 =( NAMED_UNIT ( * ) PLANE_ANGLE_UNIT ( ) SI_UNIT ( $, .RADIAN. ) );
#25 = ADVANCED_BREP_SHAPE_REPRESENTATION ( '296f', ( #277, #71 ), #348 ) ;
#26 = EDGE_CURVE ( 'NONE', #120, #202, #143, .T. ) ;
#27 = DIRECTION ( 'NONE',  ( 0.000000000000000000, 0.000000000000000000, 1.000000000000000000 ) ) ;
#28 = DIRECTION ( 'NONE',  ( -0.000000000000000000, -0.000000000000000000, -1.000000000000000000 ) ) ;
#29 = CARTESIAN_POINT ( 'NONE',  ( 0.000000000000000000, 0.000000000000000000, 555.0000000000000000 ) ) ;
#30 = LOCAL_TIME ( 17, 7, 45.00000000000000000, #274 ) ;
#31 = APPROVAL_ROLE ( '' ) ;
#32 = EDGE_CURVE ( 'NONE', #23, #56, #163, .T. ) ;
#33 = FACE_OUTER_BOUND ( 'NONE', #381, .T. ) ;
#34 = CALENDAR_DATE ( 2022, 8, 7 ) ;
#35 = DIRECTION ( 'NONE',  ( 0.000000000000000000, 0.000000000000000000, -1.000000000000000000 ) ) ;
#36 = PERSON_AND_ORGANIZATION_ROLE ( 'classification_officer' ) ;
#37 = CARTESIAN_POINT ( 'NONE',  ( 0.000000000000000000, 0.000000000000000000, 555.0000000000000000 ) ) ;
#38 = CIRCLE ( 'NONE', #130, 0.5000000000000004441 ) ;
#39 = APPROVAL_ROLE ( '' ) ;
#40 = FACE_OUTER_BOUND ( 'NONE', #59, .T. ) ;
#41 = EDGE_CURVE ( 'NONE', #293, #167, #212, .T. ) ;
#42 = DIRECTION ( 'NONE',  ( 1.000000000000000000, 0.000000000000000000, 0.000000000000000000 ) ) ;
#43 = ORIENTED_EDGE ( 'NONE', *, *, #113, .T. ) ;
#44 = DIRECTION ( 'NONE',  ( -1.000000000000000000, 0.000000000000000000, 0.000000000000000000 ) ) ;
#45 = EDGE_LOOP ( 'NONE', ( #17, #144, #194, #117 ) ) ;
#46 = LOCAL_TIME ( 17, 7, 45.00000000000000000, #216 ) ;
#47 = DIRECTION ( 'NONE',  ( 1.000000000000000000, 0.000000000000000000, -0.000000000000000000 ) ) ;
#48 = ADVANCED_FACE ( 'NONE', ( #98 ), #273, .T. ) ;
#49 = DIRECTION ( 'NONE',  ( 0.000000000000000000, 0.000000000000000000, 1.000000000000000000 ) ) ;
#50 = ORIENTED_EDGE ( 'NONE', *, *, #192, .F. ) ;
#51 = CIRCLE ( 'NONE', #284, 4.000000000000000000 ) ;
#52 = ORIENTED_EDGE ( 'NONE', *, *, #10, .T. ) ;
#53 = FACE_BOUND ( 'NONE', #279, .T. ) ;
#54 = ORIENTED_EDGE ( 'NONE', *, *, #10, .F. ) ;
#55 = CIRCLE ( 'NONE', #104, 2.600000000000000089 ) ;
#56 = VERTEX_POINT ( 'NONE', #91 ) ;
#57 = PRODUCT_RELATED_PRODUCT_CATEGORY ( 'detail', '', ( #179 ) ) ;
#58 = DIRECTION ( 'NONE',  ( 0.000000000000000000, 0.000000000000000000, 1.000000000000000000 ) ) ;
#59 = EDGE_LOOP ( 'NONE', ( #80, #371, #50, #54 ) ) ;
#60 = DIRECTION ( 'NONE',  ( 0.000000000000000000, 0.000000000000000000, 1.000000000000000000 ) ) ;
#61 = CARTESIAN_POINT ( 'NONE',  ( -7.000000000000000000, 0.000000000000000000, 5.000000000000000000 ) ) ;
#62 = CC_DESIGN_DATE_AND_TIME_ASSIGNMENT ( #13, #339, ( #96 ) ) ;
#63 = CIRCLE ( 'NONE', #238, 4.000000000000000000 ) ;
#64 = DIRECTION ( 'NONE',  ( 1.000000000000000000, 0.000000000000000000, 0.000000000000000000 ) ) ;
#65 = LINE ( 'NONE', #247, #84 ) ;
#66 = CALENDAR_DATE ( 2022, 8, 7 ) ;
#67 = FACE_OUTER_BOUND ( 'NONE', #246, .T. ) ;
#68 = COORDINATED_UNIVERSAL_TIME_OFFSET ( 1, 0, .AHEAD. ) ;
#69 = CARTESIAN_POINT ( 'NONE',  ( 0.000000000000000000, 0.000000000000000000, 555.0000000000000000 ) ) ;
#70 = CIRCLE ( 'NONE', #114, 4.500000000000000888 ) ;
#71 = AXIS2_PLACEMENT_3D ( 'NONE', #362, #58, #177 ) ;
#72 = APPROVAL ( #131, 'NEURÈENÝ' ) ;
#73 = DATE_TIME_ROLE ( 'creation_date' ) ;
#74 = CIRCLE ( 'NONE', #248, 0.5000000000000004441 ) ;
#75 = CARTESIAN_POINT ( 'NONE',  ( 2.600000000000000089, 3.184081677783118191E-16, 555.0000000000000000 ) ) ;
#76 = ADVANCED_FACE ( 'NONE', ( #33 ), #151, .F. ) ;
#77 = CYLINDRICAL_SURFACE ( 'NONE', #207, 2.600000000000000089 ) ;
#78 = ORIENTED_EDGE ( 'NONE', *, *, #210, .T. ) ;
#79 = LINE ( 'NONE', #75, #89 ) ;
#80 = ORIENTED_EDGE ( 'NONE', *, *, #281, .F. ) ;
#81 = ORIENTED_EDGE ( 'NONE', *, *, #41, .T. ) ;
#82 = DIRECTION ( 'NONE',  ( -0.000000000000000000, -0.000000000000000000, -1.000000000000000000 ) ) ;
#83 = ORIENTED_EDGE ( 'NONE', *, *, #19, .T. ) ;
#84 = VECTOR ( 'NONE', #186, 1000.000000000000000 ) ;
#85 = DIRECTION ( 'NONE',  ( 1.000000000000000000, 0.000000000000000000, 0.000000000000000000 ) ) ;
#86 = ADVANCED_FACE ( 'NONE', ( #215, #133 ), #363, .T. ) ;
#87 = ORIENTED_EDGE ( 'NONE', *, *, #335, .F. ) ;
#88 =( NAMED_UNIT ( * ) SI_UNIT ( $, .STERADIAN. ) SOLID_ANGLE_UNIT ( ) );
#89 = VECTOR ( 'NONE', #193, 1000.000000000000000 ) ;
#90 = ORIENTED_EDGE ( 'NONE', *, *, #290, .T. ) ;
#91 = CARTESIAN_POINT ( 'NONE',  ( -7.000000000000000000, 0.000000000000000000, 5.000000000000000000 ) ) ;
#92 = AXIS2_PLACEMENT_3D ( 'NONE', #358, #275, #329 ) ;
#93 = FACE_OUTER_BOUND ( 'NONE', #1, .T. ) ;
#94 = CARTESIAN_POINT ( 'NONE',  ( 0.000000000000000000, 0.000000000000000000, 5.000000000000000000 ) ) ;
#95 = DIRECTION ( 'NONE',  ( -0.000000000000000000, -0.000000000000000000, -1.000000000000000000 ) ) ;
#96 = SECURITY_CLASSIFICATION ( '', '', #306 ) ;
#97 = DATE_AND_TIME ( #66, #116 ) ;
#98 = FACE_OUTER_BOUND ( 'NONE', #178, .T. ) ;
#99 = CALENDAR_DATE ( 2022, 8, 7 ) ;
#100 = EDGE_CURVE ( 'NONE', #23, #165, #65, .T. ) ;
#101 = DIRECTION ( 'NONE',  ( -1.000000000000000000, 0.000000000000000000, 0.000000000000000000 ) ) ;
#102 = PERSON_AND_ORGANIZATION ( #325, #317 ) ;
#103 = CYLINDRICAL_SURFACE ( 'NONE', #296, 7.000000000000000000 ) ;
#104 = AXIS2_PLACEMENT_3D ( 'NONE', #135, #125, #319 ) ;
#105 = DIRECTION ( 'NONE',  ( 0.000000000000000000, 0.000000000000000000, 1.000000000000000000 ) ) ;
#106 = ORIENTED_EDGE ( 'NONE', *, *, #276, .F. ) ;
#107 = AXIS2_PLACEMENT_3D ( 'NONE', #94, #95, #64 ) ;
#108 = CARTESIAN_POINT ( 'NONE',  ( -2.600000000000000089, 0.000000000000000000, 0.000000000000000000 ) ) ;
#109 = CIRCLE ( 'NONE', #140, 2.600000000000000089 ) ;
#110 = ORIENTED_EDGE ( 'NONE', *, *, #290, .F. ) ;
#111 = UNCERTAINTY_MEASURE_WITH_UNIT (LENGTH_MEASURE( 1.000000000000000082E-05 ), #268, 'distance_accuracy_value', 'NONE');
#112 = CLOSED_SHELL ( 'NONE', ( #263, #249, #159, #217, #228, #180, #316, #48, #86, #375, #76 ) ) ;
#113 = EDGE_CURVE ( 'NONE', #237, #232, #301, .T. ) ;
#114 = AXIS2_PLACEMENT_3D ( 'NONE', #252, #82, #16 ) ;
#115 = CARTESIAN_POINT ( 'NONE',  ( -7.000000000000000000, 0.000000000000000000, 0.000000000000000000 ) ) ;
#116 = LOCAL_TIME ( 17, 7, 45.00000000000000000, #372 ) ;
#117 = ORIENTED_EDGE ( 'NONE', *, *, #145, .F. ) ;
#118 = CC_DESIGN_PERSON_AND_ORGANIZATION_ASSIGNMENT ( #184, #187, ( #218 ) ) ;
#119 = DIRECTION ( 'NONE',  ( 0.000000000000000000, 0.000000000000000000, 1.000000000000000000 ) ) ;
#120 = VERTEX_POINT ( 'NONE', #269 ) ;
#121 = PERSON_AND_ORGANIZATION ( #325, #317 ) ;
#122 = AXIS2_PLACEMENT_3D ( 'NONE', #351, #190, #47 ) ;
#123 = APPROVAL_PERSON_ORGANIZATION ( #121, #185, #31 ) ;
#124 = DIRECTION ( 'NONE',  ( -1.000000000000000000, 0.000000000000000000, 0.000000000000000000 ) ) ;
#125 = DIRECTION ( 'NONE',  ( 0.000000000000000000, 0.000000000000000000, 1.000000000000000000 ) ) ;
#126 = DIRECTION ( 'NONE',  ( -1.000000000000000000, 0.000000000000000000, 0.000000000000000000 ) ) ;
#127 = CALENDAR_DATE ( 2022, 8, 7 ) ;
#128 = DIRECTION ( 'NONE',  ( 0.000000000000000000, -1.000000000000000000, 0.000000000000000000 ) ) ;
#129 = CARTESIAN_POINT ( 'NONE',  ( -2.600000000000000089, 0.000000000000000000, 555.0000000000000000 ) ) ;
#130 = AXIS2_PLACEMENT_3D ( 'NONE', #18, #255, #234 ) ;
#131 = APPROVAL_STATUS ( 'not_yet_approved' ) ;
#132 = CC_DESIGN_PERSON_AND_ORGANIZATION_ASSIGNMENT ( #272, #309, ( #254 ) ) ;
#133 = FACE_OUTER_BOUND ( 'NONE', #286, .T. ) ;
#134 = CARTESIAN_POINT ( 'NONE',  ( 0.000000000000000000, 0.000000000000000000, 5.000000000000000000 ) ) ;
#135 = CARTESIAN_POINT ( 'NONE',  ( 0.000000000000000000, 0.000000000000000000, 555.0000000000000000 ) ) ;
#136 = AXIS2_PLACEMENT_3D ( 'NONE', #355, #236, #321 ) ;
#137 = APPROVAL_DATE_TIME ( #303, #72 ) ;
#138 = FACE_OUTER_BOUND ( 'NONE', #176, .T. ) ;
#139 = CARTESIAN_POINT ( 'NONE',  ( 4.500000000000000888, 0.000000000000000000, 4.999999999999975131 ) ) ;
#140 = AXIS2_PLACEMENT_3D ( 'NONE', #146, #270, #85 ) ;
#141 = CC_DESIGN_PERSON_AND_ORGANIZATION_ASSIGNMENT ( #149, #240, ( #179 ) ) ;
#142 = ORIENTED_EDGE ( 'NONE', *, *, #41, .F. ) ;
#143 = CIRCLE ( 'NONE', #107, 4.500000000000000888 ) ;
#144 = ORIENTED_EDGE ( 'NONE', *, *, #199, .T. ) ;
#145 = EDGE_CURVE ( 'NONE', #345, #237, #158, .T. ) ;
#146 = CARTESIAN_POINT ( 'NONE',  ( 0.000000000000000000, 0.000000000000000000, 555.0000000000000000 ) ) ;
#147 = AXIS2_PLACEMENT_3D ( 'NONE', #203, #119, #8 ) ;
#148 = VERTEX_POINT ( 'NONE', #221 ) ;
#149 = PERSON_AND_ORGANIZATION ( #325, #317 ) ;
#150 = PRODUCT_DEFINITION_SHAPE ( 'NONE', 'NONE',  #254 ) ;
#151 = CYLINDRICAL_SURFACE ( 'NONE', #156, 2.600000000000000089 ) ;
#152 = APPROVAL_PERSON_ORGANIZATION ( #11, #359, #39 ) ;
#153 = CC_DESIGN_PERSON_AND_ORGANIZATION_ASSIGNMENT ( #311, #36, ( #96 ) ) ;
#154 = DIRECTION ( 'NONE',  ( -0.000000000000000000, -0.000000000000000000, -1.000000000000000000 ) ) ;
#155 = COORDINATED_UNIVERSAL_TIME_OFFSET ( 1, 0, .AHEAD. ) ;
#156 = AXIS2_PLACEMENT_3D ( 'NONE', #361, #12, #126 ) ;
#157 = APPROVAL_DATE_TIME ( #334, #359 ) ;
#158 = LINE ( 'NONE', #129, #353 ) ;
#159 = ADVANCED_FACE ( 'NONE', ( #67 ), #188, .T. ) ;
#160 = CALENDAR_DATE ( 2022, 8, 7 ) ;
#161 = ORIENTED_EDGE ( 'NONE', *, *, #199, .F. ) ;
#162 = DIRECTION ( 'NONE',  ( 0.000000000000000000, 0.000000000000000000, 1.000000000000000000 ) ) ;
#163 = CIRCLE ( 'NONE', #380, 7.000000000000000000 ) ;
#164 = CARTESIAN_POINT ( 'NONE',  ( 0.000000000000000000, 0.000000000000000000, 5.499999999999949374 ) ) ;
#165 = VERTEX_POINT ( 'NONE', #189 ) ;
#166 = DIRECTION ( 'NONE',  ( 1.000000000000000000, 0.000000000000000000, 0.000000000000000000 ) ) ;
#167 = VERTEX_POINT ( 'NONE', #338 ) ;
#168 = CIRCLE ( 'NONE', #136, 2.600000000000000089 ) ;
#169 = CYLINDRICAL_SURFACE ( 'NONE', #291, 7.000000000000000000 ) ;
#170 = DIRECTION ( 'NONE',  ( 1.000000000000000000, 0.000000000000000000, 0.000000000000000000 ) ) ;
#171 = EDGE_CURVE ( 'NONE', #167, #293, #63, .T. ) ;
#172 = CIRCLE ( 'NONE', #364, 4.000000000000000000 ) ;
#173 = CC_DESIGN_DATE_AND_TIME_ASSIGNMENT ( #97, #73, ( #254 ) ) ;
#174 = ORIENTED_EDGE ( 'NONE', *, *, #366, .T. ) ;
#175 = DIRECTION ( 'NONE',  ( 0.000000000000000000, 0.000000000000000000, 1.000000000000000000 ) ) ;
#176 = EDGE_LOOP ( 'NONE', ( #379, #3 ) ) ;
#177 = DIRECTION ( 'NONE',  ( 1.000000000000000000, 0.000000000000000000, 0.000000000000000000 ) ) ;
#178 = EDGE_LOOP ( 'NONE', ( #377, #318, #287, #227 ) ) ;
#179 = PRODUCT ( '296f', '296f', '', ( #5 ) ) ;
#180 = ADVANCED_FACE ( 'NONE', ( #7, #138 ), #250, .T. ) ;
#181 = DIRECTION ( 'NONE',  ( -0.000000000000000000, -0.000000000000000000, -1.000000000000000000 ) ) ;
#182 = LOCAL_TIME ( 17, 7, 45.00000000000000000, #68 ) ;
#183 = CARTESIAN_POINT ( 'NONE',  ( 7.000000000000000000, 8.572527594031473190E-16, 5.000000000000000000 ) ) ;
#184 = PERSON_AND_ORGANIZATION ( #325, #317 ) ;
#185 = APPROVAL ( #357, 'NEURÈENÝ' ) ;
#186 = DIRECTION ( 'NONE',  ( -0.000000000000000000, -0.000000000000000000, -1.000000000000000000 ) ) ;
#187 = PERSON_AND_ORGANIZATION_ROLE ( 'design_supplier' ) ;
#188 = CYLINDRICAL_SURFACE ( 'NONE', #305, 4.000000000000000000 ) ;
#189 = CARTESIAN_POINT ( 'NONE',  ( 7.000000000000000000, 8.572527594031473190E-16, 0.000000000000000000 ) ) ;
#190 = DIRECTION ( 'NONE',  ( 0.000000000000000000, 0.000000000000000000, 1.000000000000000000 ) ) ;
#191 = APPROVAL_STATUS ( 'not_yet_approved' ) ;
#192 = EDGE_CURVE ( 'NONE', #202, #120, #70, .T. ) ;
#193 = DIRECTION ( 'NONE',  ( 0.000000000000000000, 0.000000000000000000, -1.000000000000000000 ) ) ;
#194 = ORIENTED_EDGE ( 'NONE', *, *, #344, .T. ) ;
#195 = CARTESIAN_POINT ( 'NONE',  ( 2.600000000000000089, 3.184081677783118191E-16, 0.000000000000000000 ) ) ;
#196 = LOCAL_TIME ( 17, 7, 45.00000000000000000, #155 ) ;
#197 = CARTESIAN_POINT ( 'NONE',  ( 0.000000000000000000, 0.000000000000000000, 5.499999999999949374 ) ) ;
#198 = APPLICATION_CONTEXT ( 'configuration controlled 3d designs of mechanical parts and assemblies' ) ;
#199 = EDGE_CURVE ( 'NONE', #148, #232, #79, .T. ) ;
#200 = ORIENTED_EDGE ( 'NONE', *, *, #243, .F. ) ;
#201 = ORIENTED_EDGE ( 'NONE', *, *, #100, .F. ) ;
#202 = VERTEX_POINT ( 'NONE', #139 ) ;
#203 = CARTESIAN_POINT ( 'NONE',  ( 0.000000000000000000, 0.000000000000000000, 5.499999999999949374 ) ) ;
#204 = EDGE_LOOP ( 'NONE', ( #110, #87 ) ) ;
#205 = CARTESIAN_POINT ( 'NONE',  ( 0.000000000000000000, 0.000000000000000000, 0.000000000000000000 ) ) ;
#206 = ORIENTED_EDGE ( 'NONE', *, *, #192, .T. ) ;
#207 = AXIS2_PLACEMENT_3D ( 'NONE', #314, #282, #308 ) ;
#208 = CARTESIAN_POINT ( 'NONE',  ( 4.000000000000000000, 4.898587196589412829E-16, 5.499999999999949374 ) ) ;
#209 = ORIENTED_EDGE ( 'NONE', *, *, #298, .T. ) ;
#210 = EDGE_CURVE ( 'NONE', #347, #294, #51, .T. ) ;
#211 = DIRECTION ( 'NONE',  ( 1.000000000000000000, 0.000000000000000000, -0.000000000000000000 ) ) ;
#212 = CIRCLE ( 'NONE', #92, 4.000000000000000000 ) ;
#213 = VERTEX_POINT ( 'NONE', #115 ) ;
#214 = CARTESIAN_POINT ( 'NONE',  ( -2.600000000000000089, 0.000000000000000000, 555.0000000000000000 ) ) ;
#215 = FACE_BOUND ( 'NONE', #262, .T. ) ;
#216 = COORDINATED_UNIVERSAL_TIME_OFFSET ( 1, 0, .AHEAD. ) ;
#217 = ADVANCED_FACE ( 'NONE', ( #310 ), #103, .T. ) ;
#218 = PRODUCT_DEFINITION_FORMATION_WITH_SPECIFIED_SOURCE ( 'LIBOVOLNÝ', '', #179, .NOT_KNOWN. ) ;
#219 = DIRECTION ( 'NONE',  ( 1.000000000000000000, 0.000000000000000000, -0.000000000000000000 ) ) ;
#220 = APPROVAL_ROLE ( '' ) ;
#221 = CARTESIAN_POINT ( 'NONE',  ( 2.600000000000000089, 3.184081677783118191E-16, 555.0000000000000000 ) ) ;
#222 = DATE_AND_TIME ( #127, #196 ) ;
#223 = LINE ( 'NONE', #14, #328 ) ;
#224 = CARTESIAN_POINT ( 'NONE',  ( 4.000000000000000000, 4.898587196589412829E-16, 555.0000000000000000 ) ) ;
#225 = AXIS2_PLACEMENT_3D ( 'NONE', #37, #181, #124 ) ;
#226 = LINE ( 'NONE', #342, #280 ) ;
#227 = ORIENTED_EDGE ( 'NONE', *, *, #281, .T. ) ;
#228 = ADVANCED_FACE ( 'NONE', ( #370 ), #169, .T. ) ;
#229 = APPROVAL_PERSON_ORGANIZATION ( #102, #72, #220 ) ;
#230 = EDGE_LOOP ( 'NONE', ( #241, #259, #326, #22 ) ) ;
#231 = ORIENTED_EDGE ( 'NONE', *, *, #350, .F. ) ;
#232 = VERTEX_POINT ( 'NONE', #195 ) ;
#233 = AXIS2_PLACEMENT_3D ( 'NONE', #205, #175, #261 ) ;
#234 = DIRECTION ( 'NONE',  ( -1.000000000000000000, 1.224646799147351482E-16, 0.000000000000000000 ) ) ;
#235 = ORIENTED_EDGE ( 'NONE', *, *, #298, .F. ) ;
#236 = DIRECTION ( 'NONE',  ( -0.000000000000000000, -0.000000000000000000, -1.000000000000000000 ) ) ;
#237 = VERTEX_POINT ( 'NONE', #108 ) ;
#238 = AXIS2_PLACEMENT_3D ( 'NONE', #69, #27, #266 ) ;
#239 = AXIS2_PLACEMENT_3D ( 'NONE', #292, #288, #242 ) ;
#240 = PERSON_AND_ORGANIZATION_ROLE ( 'design_owner' ) ;
#241 = ORIENTED_EDGE ( 'NONE', *, *, #32, .F. ) ;
#242 = DIRECTION ( 'NONE',  ( 1.000000000000000000, 0.000000000000000000, 0.000000000000000000 ) ) ;
#243 = EDGE_CURVE ( 'NONE', #167, #294, #226, .T. ) ;
#244 = DIRECTION ( 'NONE',  ( -0.000000000000000000, -0.000000000000000000, -1.000000000000000000 ) ) ;
#245 = CC_DESIGN_SECURITY_CLASSIFICATION ( #96, ( #218 ) ) ;
#246 = EDGE_LOOP ( 'NONE', ( #142, #83, #78, #200 ) ) ;
#247 = CARTESIAN_POINT ( 'NONE',  ( 7.000000000000000000, 8.572527594031473190E-16, 5.000000000000000000 ) ) ;
#248 = AXIS2_PLACEMENT_3D ( 'NONE', #331, #128, #35 ) ;
#249 = ADVANCED_FACE ( 'NONE', ( #40 ), #356, .F. ) ;
#250 = PLANE ( 'NONE',  #122 ) ;
#251 = CC_DESIGN_APPROVAL ( #72, ( #218 ) ) ;
#252 = CARTESIAN_POINT ( 'NONE',  ( 0.000000000000000000, 0.000000000000000000, 5.000000000000000000 ) ) ;
#253 = DIRECTION ( 'NONE',  ( 0.000000000000000000, 0.000000000000000000, 1.000000000000000000 ) ) ;
#254 = PRODUCT_DEFINITION ( 'NEZNÁMÝ', '', #218, #346 ) ;
#255 = DIRECTION ( 'NONE',  ( 1.224646799147353207E-16, 1.000000000000000000, -0.000000000000000000 ) ) ;
#256 = APPLICATION_CONTEXT ( 'configuration controlled 3d designs of mechanical parts and assemblies' ) ;
#257 = CC_DESIGN_APPROVAL ( #185, ( #254 ) ) ;
#258 = ORIENTED_EDGE ( 'NONE', *, *, #113, .F. ) ;
#259 = ORIENTED_EDGE ( 'NONE', *, *, #100, .T. ) ;
#260 = EDGE_LOOP ( 'NONE', ( #201, #231, #174, #90 ) ) ;
#261 = DIRECTION ( 'NONE',  ( 1.000000000000000000, 0.000000000000000000, 0.000000000000000000 ) ) ;
#262 = EDGE_LOOP ( 'NONE', ( #349, #235 ) ) ;
#263 = ADVANCED_FACE ( 'NONE', ( #283 ), #77, .F. ) ;
#264 = APPLICATION_PROTOCOL_DEFINITION ( 'international standard', 'config_control_design', 1994, #256 ) ;
#265 = APPLICATION_PROTOCOL_DEFINITION ( 'international standard', 'config_control_design', 1994, #198 ) ;
#266 = DIRECTION ( 'NONE',  ( 1.000000000000000000, 0.000000000000000000, 0.000000000000000000 ) ) ;
#267 = CIRCLE ( 'NONE', #373, 7.000000000000000000 ) ;
#268 =( LENGTH_UNIT ( ) NAMED_UNIT ( * ) SI_UNIT ( .MILLI., .METRE. ) );
#269 = CARTESIAN_POINT ( 'NONE',  ( -4.500000000000000888, 5.510910596163088569E-16, 4.999999999999975131 ) ) ;
#270 = DIRECTION ( 'NONE',  ( 0.000000000000000000, 0.000000000000000000, 1.000000000000000000 ) ) ;
#271 = AXIS2_PLACEMENT_3D ( 'NONE', #29, #60, #219 ) ;
#272 = PERSON_AND_ORGANIZATION ( #325, #317 ) ;
#273 = CYLINDRICAL_SURFACE ( 'NONE', #225, 4.000000000000000000 ) ;
#274 = COORDINATED_UNIVERSAL_TIME_OFFSET ( 1, 0, .AHEAD. ) ;
#275 = DIRECTION ( 'NONE',  ( 0.000000000000000000, 0.000000000000000000, 1.000000000000000000 ) ) ;
#276 = EDGE_CURVE ( 'NONE', #294, #120, #38, .T. ) ;
#277 = MANIFOLD_SOLID_BREP ( 'Odebrat vysunutím3', #112 ) ;
#278 = CARTESIAN_POINT ( 'NONE',  ( -4.000000000000000000, 0.000000000000000000, 5.499999999999949374 ) ) ;
#279 = EDGE_LOOP ( 'NONE', ( #258, #4 ) ) ;
#280 = VECTOR ( 'NONE', #315, 1000.000000000000000 ) ;
#281 = EDGE_CURVE ( 'NONE', #294, #347, #172, .T. ) ;
#282 = DIRECTION ( 'NONE',  ( 0.000000000000000000, 0.000000000000000000, -1.000000000000000000 ) ) ;
#283 = FACE_OUTER_BOUND ( 'NONE', #45, .T. ) ;
#284 = AXIS2_PLACEMENT_3D ( 'NONE', #197, #253, #42 ) ;
#285 = TOROIDAL_SURFACE ( 'NONE', #147, 4.500000000000000888, 0.5000000000000000000 ) ;
#286 = EDGE_LOOP ( 'NONE', ( #313, #81 ) ) ;
#287 = ORIENTED_EDGE ( 'NONE', *, *, #243, .T. ) ;
#288 = DIRECTION ( 'NONE',  ( 0.000000000000000000, 0.000000000000000000, 1.000000000000000000 ) ) ;
#289 = EDGE_LOOP ( 'NONE', ( #206, #9 ) ) ;
#290 = EDGE_CURVE ( 'NONE', #213, #165, #267, .T. ) ;
#291 = AXIS2_PLACEMENT_3D ( 'NONE', #374, #376, #44 ) ;
#292 = CARTESIAN_POINT ( 'NONE',  ( 0.000000000000000000, 0.000000000000000000, 5.000000000000000000 ) ) ;
#293 = VERTEX_POINT ( 'NONE', #224 ) ;
#294 = VERTEX_POINT ( 'NONE', #278 ) ;
#295 = DIRECTION ( 'NONE',  ( 1.000000000000000000, 0.000000000000000000, 0.000000000000000000 ) ) ;
#296 = AXIS2_PLACEMENT_3D ( 'NONE', #134, #312, #340 ) ;
#297 = CC_DESIGN_APPROVAL ( #359, ( #96 ) ) ;
#298 = EDGE_CURVE ( 'NONE', #148, #345, #55, .T. ) ;
#299 = DIRECTION ( 'NONE',  ( 0.000000000000000000, 0.000000000000000000, 1.000000000000000000 ) ) ;
#300 = AXIS2_PLACEMENT_3D ( 'NONE', #302, #154, #295 ) ;
#301 = CIRCLE ( 'NONE', #300, 2.600000000000000089 ) ;
#302 = CARTESIAN_POINT ( 'NONE',  ( 0.000000000000000000, 0.000000000000000000, 0.000000000000000000 ) ) ;
#303 = DATE_AND_TIME ( #34, #46 ) ;
#304 = CARTESIAN_POINT ( 'NONE',  ( 0.000000000000000000, 0.000000000000000000, 555.0000000000000000 ) ) ;
#305 = AXIS2_PLACEMENT_3D ( 'NONE', #304, #369, #101 ) ;
#306 = SECURITY_CLASSIFICATION_LEVEL ( 'unclassified' ) ;
#307 = VECTOR ( 'NONE', #28, 1000.000000000000000 ) ;
#308 = DIRECTION ( 'NONE',  ( -1.000000000000000000, 0.000000000000000000, 0.000000000000000000 ) ) ;
#309 = PERSON_AND_ORGANIZATION_ROLE ( 'creator' ) ;
#310 = FACE_OUTER_BOUND ( 'NONE', #230, .T. ) ;
#311 = PERSON_AND_ORGANIZATION ( #325, #317 ) ;
#312 = DIRECTION ( 'NONE',  ( -0.000000000000000000, -0.000000000000000000, -1.000000000000000000 ) ) ;
#313 = ORIENTED_EDGE ( 'NONE', *, *, #171, .T. ) ;
#314 = CARTESIAN_POINT ( 'NONE',  ( 0.000000000000000000, 0.000000000000000000, 555.0000000000000000 ) ) ;
#315 = DIRECTION ( 'NONE',  ( -0.000000000000000000, -0.000000000000000000, -1.000000000000000000 ) ) ;
#316 = ADVANCED_FACE ( 'NONE', ( #53, #360 ), #327, .F. ) ;
#317 = ORGANIZATION ( 'NEURÈENÝ', 'NEURÈENÝ', '' ) ;
#318 = ORIENTED_EDGE ( 'NONE', *, *, #171, .F. ) ;
#319 = DIRECTION ( 'NONE',  ( 1.000000000000000000, 0.000000000000000000, 0.000000000000000000 ) ) ;
#320 = EDGE_CURVE ( 'NONE', #345, #148, #109, .T. ) ;
#321 = DIRECTION ( 'NONE',  ( 1.000000000000000000, 0.000000000000000000, 0.000000000000000000 ) ) ;
#322 = ORIENTED_EDGE ( 'NONE', *, *, #26, .F. ) ;
#323 = AXIS2_PLACEMENT_3D ( 'NONE', #164, #49, #166 ) ;
#324 = CIRCLE ( 'NONE', #239, 7.000000000000000000 ) ;
#325 = PERSON ( 'NEURÈENÝ', 'NEURÈENÝ', 'NEURÈENÝ', ('NEURÈENÝ'), ('NEURÈENÝ'), ('NEURÈENÝ') ) ;
#326 = ORIENTED_EDGE ( 'NONE', *, *, #335, .T. ) ;
#327 = PLANE ( 'NONE',  #20 ) ;
#328 = VECTOR ( 'NONE', #244, 1000.000000000000000 ) ;
#329 = DIRECTION ( 'NONE',  ( 1.000000000000000000, 0.000000000000000000, 0.000000000000000000 ) ) ;
#330 = DIRECTION ( 'NONE',  ( 0.000000000000000000, 0.000000000000000000, 1.000000000000000000 ) ) ;
#331 = CARTESIAN_POINT ( 'NONE',  ( 4.500000000000000888, 0.000000000000000000, 5.499999999999949374 ) ) ;
#332 = PERSON_AND_ORGANIZATION_ROLE ( 'creator' ) ;
#333 = CARTESIAN_POINT ( 'NONE',  ( 0.000000000000000000, 0.000000000000000000, 5.000000000000000000 ) ) ;
#334 = DATE_AND_TIME ( #99, #30 ) ;
#335 = EDGE_CURVE ( 'NONE', #165, #213, #343, .T. ) ;
#336 = DIRECTION ( 'NONE',  ( 1.000000000000000000, 0.000000000000000000, 0.000000000000000000 ) ) ;
#337 = SHAPE_DEFINITION_REPRESENTATION ( #150, #25 ) ;
#338 = CARTESIAN_POINT ( 'NONE',  ( -4.000000000000000000, 0.000000000000000000, 555.0000000000000000 ) ) ;
#339 = DATE_TIME_ROLE ( 'classification_date' ) ;
#340 = DIRECTION ( 'NONE',  ( -1.000000000000000000, 0.000000000000000000, 0.000000000000000000 ) ) ;
#341 = ORIENTED_EDGE ( 'NONE', *, *, #210, .F. ) ;
#342 = CARTESIAN_POINT ( 'NONE',  ( -4.000000000000000000, 0.000000000000000000, 555.0000000000000000 ) ) ;
#343 = CIRCLE ( 'NONE', #233, 7.000000000000000000 ) ;
#344 = EDGE_CURVE ( 'NONE', #232, #237, #168, .T. ) ;
#345 = VERTEX_POINT ( 'NONE', #214 ) ;
#346 = DESIGN_CONTEXT ( 'detailed design', #256, 'design' ) ;
#347 = VERTEX_POINT ( 'NONE', #208 ) ;
#348 =( GEOMETRIC_REPRESENTATION_CONTEXT ( 3 ) GLOBAL_UNCERTAINTY_ASSIGNED_CONTEXT ( ( #111 ) ) GLOBAL_UNIT_ASSIGNED_CONTEXT ( ( #268, #24, #88 ) ) REPRESENTATION_CONTEXT ( 'NONE', 'WORKASPACE' ) );
#349 = ORIENTED_EDGE ( 'NONE', *, *, #320, .F. ) ;
#350 = EDGE_CURVE ( 'NONE', #56, #23, #324, .T. ) ;
#351 = CARTESIAN_POINT ( 'NONE',  ( 0.000000000000000000, 0.000000000000000000, 5.000000000000000000 ) ) ;
#352 = ORIENTED_EDGE ( 'NONE', *, *, #145, .T. ) ;
#353 = VECTOR ( 'NONE', #367, 1000.000000000000000 ) ;
#354 = CARTESIAN_POINT ( 'NONE',  ( 0.000000000000000000, 0.000000000000000000, 0.000000000000000000 ) ) ;
#355 = CARTESIAN_POINT ( 'NONE',  ( 0.000000000000000000, 0.000000000000000000, 0.000000000000000000 ) ) ;
#356 = TOROIDAL_SURFACE ( 'NONE', #323, 4.500000000000000888, 0.5000000000000000000 ) ;
#357 = APPROVAL_STATUS ( 'not_yet_approved' ) ;
#358 = CARTESIAN_POINT ( 'NONE',  ( 0.000000000000000000, 0.000000000000000000, 555.0000000000000000 ) ) ;
#359 = APPROVAL ( #191, 'NEURÈENÝ' ) ;
#360 = FACE_OUTER_BOUND ( 'NONE', #204, .T. ) ;
#361 = CARTESIAN_POINT ( 'NONE',  ( 0.000000000000000000, 0.000000000000000000, 555.0000000000000000 ) ) ;
#362 = CARTESIAN_POINT ( 'NONE',  ( 0.000000000000000000, 0.000000000000000000, 0.000000000000000000 ) ) ;
#363 = PLANE ( 'NONE',  #271 ) ;
#364 = AXIS2_PLACEMENT_3D ( 'NONE', #378, #105, #170 ) ;
#365 = APPROVAL_DATE_TIME ( #222, #185 ) ;
#366 = EDGE_CURVE ( 'NONE', #56, #213, #2, .T. ) ;
#367 = DIRECTION ( 'NONE',  ( 0.000000000000000000, 0.000000000000000000, -1.000000000000000000 ) ) ;
#368 = PERSON_AND_ORGANIZATION ( #325, #317 ) ;
#369 = DIRECTION ( 'NONE',  ( -0.000000000000000000, -0.000000000000000000, -1.000000000000000000 ) ) ;
#370 = FACE_OUTER_BOUND ( 'NONE', #260, .T. ) ;
#371 = ORIENTED_EDGE ( 'NONE', *, *, #276, .T. ) ;
#372 = COORDINATED_UNIVERSAL_TIME_OFFSET ( 1, 0, .AHEAD. ) ;
#373 = AXIS2_PLACEMENT_3D ( 'NONE', #21, #162, #15 ) ;
#374 = CARTESIAN_POINT ( 'NONE',  ( 0.000000000000000000, 0.000000000000000000, 5.000000000000000000 ) ) ;
#375 = ADVANCED_FACE ( 'NONE', ( #93 ), #285, .F. ) ;
#376 = DIRECTION ( 'NONE',  ( -0.000000000000000000, -0.000000000000000000, -1.000000000000000000 ) ) ;
#377 = ORIENTED_EDGE ( 'NONE', *, *, #19, .F. ) ;
#378 = CARTESIAN_POINT ( 'NONE',  ( 0.000000000000000000, 0.000000000000000000, 5.499999999999949374 ) ) ;
#379 = ORIENTED_EDGE ( 'NONE', *, *, #350, .T. ) ;
#380 = AXIS2_PLACEMENT_3D ( 'NONE', #333, #299, #336 ) ;
#381 = EDGE_LOOP ( 'NONE', ( #161, #209, #352, #43 ) ) ;
ENDSEC;
END-ISO-10303-21;
