ISO-10303-21;
HEADER;
FILE_DESCRIPTION (( 'STEP AP203' ),
    '1' );
FILE_NAME ('994c.STEP',
    '2022-07-08T15:25:49',
    ( '' ),
    ( '' ),
    'SwSTEP 2.0',
    'SolidWorks 2019',
    '' );
FILE_SCHEMA (( 'CONFIG_CONTROL_DESIGN' ));
ENDSEC;

DATA;
#1 = EDGE_CURVE ( 'NONE', #374, #179, #104, .T. ) ;
#2 = APPROVAL_ROLE ( '' ) ;
#3 = DIRECTION ( 'NONE',  ( -0.000000000000000000, -0.000000000000000000, -1.000000000000000000 ) ) ;
#4 = APPROVAL_STATUS ( 'not_yet_approved' ) ;
#5 = CARTESIAN_POINT ( 'NONE',  ( -4.000000000000000000, 0.000000000000000000, 705.0000000000000000 ) ) ;
#6 = ADVANCED_FACE ( 'NONE', ( #136 ), #188, .F. ) ;
#7 = CARTESIAN_POINT ( 'NONE',  ( -7.000000000000000000, 0.000000000000000000, 0.000000000000000000 ) ) ;
#8 = DIRECTION ( 'NONE',  ( 0.000000000000000000, 0.000000000000000000, 1.000000000000000000 ) ) ;
#9 = CARTESIAN_POINT ( 'NONE',  ( 4.500000000000000888, 0.000000000000000000, 4.999999999999975131 ) ) ;
#10 = FACE_OUTER_BOUND ( 'NONE', #368, .T. ) ;
#11 = ORIENTED_EDGE ( 'NONE', *, *, #326, .T. ) ;
#12 = ADVANCED_FACE ( 'NONE', ( #48 ), #376, .F. ) ;
#13 = DIRECTION ( 'NONE',  ( 0.000000000000000000, 0.000000000000000000, 1.000000000000000000 ) ) ;
#14 = CARTESIAN_POINT ( 'NONE',  ( 0.000000000000000000, 0.000000000000000000, 705.0000000000000000 ) ) ;
#15 = VERTEX_POINT ( 'NONE', #275 ) ;
#16 = EDGE_CURVE ( 'NONE', #360, #85, #80, .T. ) ;
#17 = CARTESIAN_POINT ( 'NONE',  ( 0.000000000000000000, 0.000000000000000000, 705.0000000000000000 ) ) ;
#18 = ORIENTED_EDGE ( 'NONE', *, *, #183, .T. ) ;
#19 = CC_DESIGN_APPROVAL ( #263, ( #122 ) ) ;
#20 = ORIENTED_EDGE ( 'NONE', *, *, #283, .F. ) ;
#21 = CARTESIAN_POINT ( 'NONE',  ( 0.000000000000000000, 0.000000000000000000, 705.0000000000000000 ) ) ;
#22 = CARTESIAN_POINT ( 'NONE',  ( 7.000000000000000000, 8.572527594031473190E-16, 5.000000000000000000 ) ) ;
#23 = EDGE_LOOP ( 'NONE', ( #63, #51, #296, #358 ) ) ;
#24 = CIRCLE ( 'NONE', #319, 2.100000000000000089 ) ;
#25 = COORDINATED_UNIVERSAL_TIME_OFFSET ( 1, 0, .AHEAD. ) ;
#26 = ORIENTED_EDGE ( 'NONE', *, *, #36, .T. ) ;
#27 = MECHANICAL_CONTEXT ( 'NONE', #241, 'mechanical' ) ;
#28 = ORIENTED_EDGE ( 'NONE', *, *, #192, .T. ) ;
#29 = CARTESIAN_POINT ( 'NONE',  ( 0.000000000000000000, 0.000000000000000000, 705.0000000000000000 ) ) ;
#30 = CARTESIAN_POINT ( 'NONE',  ( 0.000000000000000000, 0.000000000000000000, 5.000000000000000000 ) ) ;
#31 = EDGE_CURVE ( 'NONE', #147, #81, #113, .T. ) ;
#32 = DIRECTION ( 'NONE',  ( 0.000000000000000000, 0.000000000000000000, 1.000000000000000000 ) ) ;
#33 = AXIS2_PLACEMENT_3D ( 'NONE', #139, #111, #189 ) ;
#34 = FACE_BOUND ( 'NONE', #120, .T. ) ;
#35 = DIRECTION ( 'NONE',  ( 1.000000000000000000, 0.000000000000000000, 0.000000000000000000 ) ) ;
#36 = EDGE_CURVE ( 'NONE', #176, #337, #254, .T. ) ;
#37 = CARTESIAN_POINT ( 'NONE',  ( 0.000000000000000000, 0.000000000000000000, 705.0000000000000000 ) ) ;
#38 = DIRECTION ( 'NONE',  ( 1.000000000000000000, 0.000000000000000000, 0.000000000000000000 ) ) ;
#39 = ORIENTED_EDGE ( 'NONE', *, *, #166, .T. ) ;
#40 = CYLINDRICAL_SURFACE ( 'NONE', #214, 2.100000000000000089 ) ;
#41 = CC_DESIGN_PERSON_AND_ORGANIZATION_ASSIGNMENT ( #128, #343, ( #187 ) ) ;
#42 = CARTESIAN_POINT ( 'NONE',  ( 0.000000000000000000, 0.000000000000000000, 705.0000000000000000 ) ) ;
#43 = DIRECTION ( 'NONE',  ( 0.000000000000000000, 0.000000000000000000, 1.000000000000000000 ) ) ;
#44 = ORIENTED_EDGE ( 'NONE', *, *, #310, .F. ) ;
#45 = CIRCLE ( 'NONE', #53, 7.000000000000000000 ) ;
#46 = APPLICATION_PROTOCOL_DEFINITION ( 'international standard', 'config_control_design', 1994, #73 ) ;
#47 = PERSON_AND_ORGANIZATION ( #131, #91 ) ;
#48 = FACE_OUTER_BOUND ( 'NONE', #202, .T. ) ;
#49 = AXIS2_PLACEMENT_3D ( 'NONE', #21, #127, #185 ) ;
#50 = PERSON_AND_ORGANIZATION_ROLE ( 'classification_officer' ) ;
#51 = ORIENTED_EDGE ( 'NONE', *, *, #1, .T. ) ;
#52 = LINE ( 'NONE', #223, #114 ) ;
#53 = AXIS2_PLACEMENT_3D ( 'NONE', #30, #289, #35 ) ;
#54 = LOCAL_TIME ( 17, 25, 49.00000000000000000, #367 ) ;
#55 = DIRECTION ( 'NONE',  ( 1.000000000000000000, 0.000000000000000000, 0.000000000000000000 ) ) ;
#56 = DIRECTION ( 'NONE',  ( 1.000000000000000000, 0.000000000000000000, 0.000000000000000000 ) ) ;
#57 = ORIENTED_EDGE ( 'NONE', *, *, #317, .F. ) ;
#58 = CIRCLE ( 'NONE', #180, 0.5000000000000004441 ) ;
#59 = DIRECTION ( 'NONE',  ( 1.224646799147353207E-16, 1.000000000000000000, -0.000000000000000000 ) ) ;
#60 = APPROVAL_PERSON_ORGANIZATION ( #270, #87, #274 ) ;
#61 = EDGE_CURVE ( 'NONE', #147, #156, #52, .T. ) ;
#62 = CARTESIAN_POINT ( 'NONE',  ( 0.000000000000000000, 0.000000000000000000, 5.000000000000000000 ) ) ;
#63 = ORIENTED_EDGE ( 'NONE', *, *, #169, .F. ) ;
#64 = EDGE_LOOP ( 'NONE', ( #57, #39, #234, #244 ) ) ;
#65 = DIRECTION ( 'NONE',  ( -0.000000000000000000, -0.000000000000000000, -1.000000000000000000 ) ) ;
#66 = EDGE_CURVE ( 'NONE', #179, #85, #95, .T. ) ;
#67 = EDGE_LOOP ( 'NONE', ( #26, #78 ) ) ;
#68 = LINE ( 'NONE', #258, #354 ) ;
#69 = ORIENTED_EDGE ( 'NONE', *, *, #323, .T. ) ;
#70 = DIRECTION ( 'NONE',  ( 0.000000000000000000, 0.000000000000000000, 1.000000000000000000 ) ) ;
#71 = ORIENTED_EDGE ( 'NONE', *, *, #61, .F. ) ;
#72 = CALENDAR_DATE ( 2022, 8, 7 ) ;
#73 = APPLICATION_CONTEXT ( 'configuration controlled 3d designs of mechanical parts and assemblies' ) ;
#74 = ORIENTED_EDGE ( 'NONE', *, *, #246, .T. ) ;
#75 = VECTOR ( 'NONE', #314, 1000.000000000000000 ) ;
#76 = EDGE_CURVE ( 'NONE', #85, #179, #299, .T. ) ;
#77 = DATE_AND_TIME ( #336, #129 ) ;
#78 = ORIENTED_EDGE ( 'NONE', *, *, #235, .T. ) ;
#79 = CARTESIAN_POINT ( 'NONE',  ( 4.000000000000000000, 4.898587196589412829E-16, 705.0000000000000000 ) ) ;
#80 = LINE ( 'NONE', #142, #118 ) ;
#81 = VERTEX_POINT ( 'NONE', #225 ) ;
#82 = ADVANCED_FACE ( 'NONE', ( #143 ), #322, .F. ) ;
#83 = CC_DESIGN_APPROVAL ( #87, ( #187 ) ) ;
#84 = LINE ( 'NONE', #79, #75 ) ;
#85 = VERTEX_POINT ( 'NONE', #7 ) ;
#86 = CARTESIAN_POINT ( 'NONE',  ( 7.000000000000000000, 8.572527594031473190E-16, 0.000000000000000000 ) ) ;
#87 = APPROVAL ( #242, 'NEURÈENÝ' ) ;
#88 = CARTESIAN_POINT ( 'NONE',  ( 0.000000000000000000, 0.000000000000000000, 5.000000000000000000 ) ) ;
#89 = DIRECTION ( 'NONE',  ( -0.000000000000000000, -0.000000000000000000, -1.000000000000000000 ) ) ;
#90 = PLANE ( 'NONE',  #190 ) ;
#91 = ORGANIZATION ( 'NEURÈENÝ', 'NEURÈENÝ', '' ) ;
#92 = CYLINDRICAL_SURFACE ( 'NONE', #230, 4.000000000000000000 ) ;
#93 = FACE_OUTER_BOUND ( 'NONE', #245, .T. ) ;
#94 = DIRECTION ( 'NONE',  ( -1.000000000000000000, 0.000000000000000000, 0.000000000000000000 ) ) ;
#95 = CIRCLE ( 'NONE', #211, 7.000000000000000000 ) ;
#96 = EDGE_LOOP ( 'NONE', ( #237, #162 ) ) ;
#97 = CARTESIAN_POINT ( 'NONE',  ( 0.000000000000000000, 0.000000000000000000, 705.0000000000000000 ) ) ;
#98 = CC_DESIGN_APPROVAL ( #138, ( #130 ) ) ;
#99 = CARTESIAN_POINT ( 'NONE',  ( 2.100000000000000089, 2.571758278209441957E-16, 0.000000000000000000 ) ) ;
#100 = CARTESIAN_POINT ( 'NONE',  ( -7.000000000000000000, 0.000000000000000000, 5.000000000000000000 ) ) ;
#101 = MANIFOLD_SOLID_BREP ( 'Odebrat vysunutím3', #273 ) ;
#102 = CC_DESIGN_DATE_AND_TIME_ASSIGNMENT ( #373, #220, ( #122 ) ) ;
#103 = PERSON_AND_ORGANIZATION ( #131, #91 ) ;
#104 = LINE ( 'NONE', #272, #281 ) ;
#105 = AXIS2_PLACEMENT_3D ( 'NONE', #117, #331, #178 ) ;
#106 = DIRECTION ( 'NONE',  ( 0.000000000000000000, 0.000000000000000000, 1.000000000000000000 ) ) ;
#107 = EDGE_CURVE ( 'NONE', #173, #279, #351, .T. ) ;
#108 = PERSON_AND_ORGANIZATION ( #131, #91 ) ;
#109 = ORIENTED_EDGE ( 'NONE', *, *, #183, .F. ) ;
#110 = CARTESIAN_POINT ( 'NONE',  ( 0.000000000000000000, 0.000000000000000000, 0.000000000000000000 ) ) ;
#111 = DIRECTION ( 'NONE',  ( 0.000000000000000000, 0.000000000000000000, 1.000000000000000000 ) ) ;
#112 = FACE_OUTER_BOUND ( 'NONE', #212, .T. ) ;
#113 = CIRCLE ( 'NONE', #288, 2.100000000000000089 ) ;
#114 = VECTOR ( 'NONE', #284, 1000.000000000000000 ) ;
#115 = DIRECTION ( 'NONE',  ( -1.000000000000000000, 0.000000000000000000, 0.000000000000000000 ) ) ;
#116 = DIRECTION ( 'NONE',  ( -0.000000000000000000, -0.000000000000000000, -1.000000000000000000 ) ) ;
#117 = CARTESIAN_POINT ( 'NONE',  ( 0.000000000000000000, 0.000000000000000000, 5.000000000000000000 ) ) ;
#118 = VECTOR ( 'NONE', #89, 1000.000000000000000 ) ;
#119 = CARTESIAN_POINT ( 'NONE',  ( 0.000000000000000000, 0.000000000000000000, 705.0000000000000000 ) ) ;
#120 = EDGE_LOOP ( 'NONE', ( #44, #218 ) ) ;
#121 = CYLINDRICAL_SURFACE ( 'NONE', #205, 4.000000000000000000 ) ;
#122 = SECURITY_CLASSIFICATION ( '', '', #216 ) ;
#123 = ORIENTED_EDGE ( 'NONE', *, *, #76, .T. ) ;
#124 = PERSON_AND_ORGANIZATION_ROLE ( 'design_owner' ) ;
#125 = CC_DESIGN_DATE_AND_TIME_ASSIGNMENT ( #77, #366, ( #130 ) ) ;
#126 = APPROVAL_ROLE ( '' ) ;
#127 = DIRECTION ( 'NONE',  ( 0.000000000000000000, 0.000000000000000000, -1.000000000000000000 ) ) ;
#128 = PERSON_AND_ORGANIZATION ( #131, #91 ) ;
#129 = LOCAL_TIME ( 17, 25, 49.00000000000000000, #339 ) ;
#130 = PRODUCT_DEFINITION ( 'NEZNÁMÝ', '', #187, #140 ) ;
#131 = PERSON ( 'NEURÈENÝ', 'NEURÈENÝ', 'NEURÈENÝ', ('NEURÈENÝ'), ('NEURÈENÝ'), ('NEURÈENÝ') ) ;
#132 = CALENDAR_DATE ( 2022, 8, 7 ) ;
#133 = ORIENTED_EDGE ( 'NONE', *, *, #66, .F. ) ;
#134 = ORIENTED_EDGE ( 'NONE', *, *, #317, .T. ) ;
#135 = DATE_AND_TIME ( #280, #171 ) ;
#136 = FACE_OUTER_BOUND ( 'NONE', #204, .T. ) ;
#137 = DIRECTION ( 'NONE',  ( 0.000000000000000000, 0.000000000000000000, 1.000000000000000000 ) ) ;
#138 = APPROVAL ( #247, 'NEURÈENÝ' ) ;
#139 = CARTESIAN_POINT ( 'NONE',  ( 0.000000000000000000, 0.000000000000000000, 5.499999999999949374 ) ) ;
#140 = DESIGN_CONTEXT ( 'detailed design', #73, 'design' ) ;
#141 = AXIS2_PLACEMENT_3D ( 'NONE', #231, #357, #201 ) ;
#142 = CARTESIAN_POINT ( 'NONE',  ( -7.000000000000000000, 0.000000000000000000, 5.000000000000000000 ) ) ;
#143 = FACE_OUTER_BOUND ( 'NONE', #64, .T. ) ;
#144 = VECTOR ( 'NONE', #253, 1000.000000000000000 ) ;
#145 = CARTESIAN_POINT ( 'NONE',  ( -4.000000000000000000, 0.000000000000000000, 5.499999999999949374 ) ) ;
#146 = ADVANCED_FACE ( 'NONE', ( #34, #112 ), #90, .F. ) ;
#147 = VERTEX_POINT ( 'NONE', #346 ) ;
#148 = CYLINDRICAL_SURFACE ( 'NONE', #154, 7.000000000000000000 ) ;
#149 = DIRECTION ( 'NONE',  ( 0.000000000000000000, 0.000000000000000000, -1.000000000000000000 ) ) ;
#150 = AXIS2_PLACEMENT_3D ( 'NONE', #193, #316, #56 ) ;
#151 = CARTESIAN_POINT ( 'NONE',  ( 0.000000000000000000, 0.000000000000000000, 5.000000000000000000 ) ) ;
#152 = CIRCLE ( 'NONE', #197, 7.000000000000000000 ) ;
#153 = FACE_BOUND ( 'NONE', #158, .T. ) ;
#154 = AXIS2_PLACEMENT_3D ( 'NONE', #62, #363, #94 ) ;
#155 =( GEOMETRIC_REPRESENTATION_CONTEXT ( 3 ) GLOBAL_UNCERTAINTY_ASSIGNED_CONTEXT ( ( #252 ) ) GLOBAL_UNIT_ASSIGNED_CONTEXT ( ( #341, #210, #186 ) ) REPRESENTATION_CONTEXT ( 'NONE', 'WORKASPACE' ) );
#156 = VERTEX_POINT ( 'NONE', #324 ) ;
#157 = COORDINATED_UNIVERSAL_TIME_OFFSET ( 1, 0, .AHEAD. ) ;
#158 = EDGE_LOOP ( 'NONE', ( #365, #262 ) ) ;
#159 = PERSON_AND_ORGANIZATION_ROLE ( 'creator' ) ;
#160 = AXIS2_PLACEMENT_3D ( 'NONE', #372, #106, #340 ) ;
#161 = DIRECTION ( 'NONE',  ( -1.000000000000000000, 0.000000000000000000, 0.000000000000000000 ) ) ;
#162 = ORIENTED_EDGE ( 'NONE', *, *, #169, .T. ) ;
#163 = DIRECTION ( 'NONE',  ( 1.000000000000000000, 0.000000000000000000, 0.000000000000000000 ) ) ;
#164 = DIRECTION ( 'NONE',  ( 0.000000000000000000, 0.000000000000000000, 1.000000000000000000 ) ) ;
#165 = AXIS2_PLACEMENT_3D ( 'NONE', #221, #8, #226 ) ;
#166 = EDGE_CURVE ( 'NONE', #279, #337, #58, .T. ) ;
#167 = DIRECTION ( 'NONE',  ( 0.000000000000000000, 0.000000000000000000, 1.000000000000000000 ) ) ;
#168 = CARTESIAN_POINT ( 'NONE',  ( 0.000000000000000000, 0.000000000000000000, 705.0000000000000000 ) ) ;
#169 = EDGE_CURVE ( 'NONE', #374, #360, #45, .T. ) ;
#170 = DIRECTION ( 'NONE',  ( 1.000000000000000000, 0.000000000000000000, 0.000000000000000000 ) ) ;
#171 = LOCAL_TIME ( 17, 25, 49.00000000000000000, #194 ) ;
#172 = DIRECTION ( 'NONE',  ( -1.000000000000000000, 1.224646799147351482E-16, 0.000000000000000000 ) ) ;
#173 = VERTEX_POINT ( 'NONE', #5 ) ;
#174 = FACE_BOUND ( 'NONE', #67, .T. ) ;
#175 = FACE_OUTER_BOUND ( 'NONE', #259, .T. ) ;
#176 = VERTEX_POINT ( 'NONE', #9 ) ;
#177 = DIRECTION ( 'NONE',  ( 1.000000000000000000, 0.000000000000000000, 0.000000000000000000 ) ) ;
#178 = DIRECTION ( 'NONE',  ( 1.000000000000000000, 0.000000000000000000, -0.000000000000000000 ) ) ;
#179 = VERTEX_POINT ( 'NONE', #86 ) ;
#180 = AXIS2_PLACEMENT_3D ( 'NONE', #257, #59, #172 ) ;
#181 = DATE_AND_TIME ( #72, #380 ) ;
#182 = LOCAL_TIME ( 17, 25, 49.00000000000000000, #25 ) ;
#183 = EDGE_CURVE ( 'NONE', #15, #279, #301, .T. ) ;
#184 = CALENDAR_DATE ( 2022, 8, 7 ) ;
#185 = DIRECTION ( 'NONE',  ( -1.000000000000000000, 0.000000000000000000, 0.000000000000000000 ) ) ;
#186 =( NAMED_UNIT ( * ) SI_UNIT ( $, .STERADIAN. ) SOLID_ANGLE_UNIT ( ) );
#187 = PRODUCT_DEFINITION_FORMATION_WITH_SPECIFIED_SOURCE ( 'LIBOVOLNÝ', '', #217, .NOT_KNOWN. ) ;
#188 = CYLINDRICAL_SURFACE ( 'NONE', #49, 2.100000000000000089 ) ;
#189 = DIRECTION ( 'NONE',  ( 1.000000000000000000, 0.000000000000000000, 0.000000000000000000 ) ) ;
#190 = AXIS2_PLACEMENT_3D ( 'NONE', #195, #352, #196 ) ;
#191 = DIRECTION ( 'NONE',  ( 1.000000000000000000, 0.000000000000000000, 0.000000000000000000 ) ) ;
#192 = EDGE_CURVE ( 'NONE', #81, #147, #294, .T. ) ;
#193 = CARTESIAN_POINT ( 'NONE',  ( 0.000000000000000000, 0.000000000000000000, 5.000000000000000000 ) ) ;
#194 = COORDINATED_UNIVERSAL_TIME_OFFSET ( 1, 0, .AHEAD. ) ;
#195 = CARTESIAN_POINT ( 'NONE',  ( 0.000000000000000000, 0.000000000000000000, 0.000000000000000000 ) ) ;
#196 = DIRECTION ( 'NONE',  ( 1.000000000000000000, 0.000000000000000000, -0.000000000000000000 ) ) ;
#197 = AXIS2_PLACEMENT_3D ( 'NONE', #239, #261, #177 ) ;
#198 = CC_DESIGN_SECURITY_CLASSIFICATION ( #122, ( #187 ) ) ;
#199 = DIRECTION ( 'NONE',  ( -0.000000000000000000, -0.000000000000000000, -1.000000000000000000 ) ) ;
#200 = EDGE_CURVE ( 'NONE', #249, #156, #311, .T. ) ;
#201 = DIRECTION ( 'NONE',  ( 0.000000000000000000, 0.000000000000000000, -1.000000000000000000 ) ) ;
#202 = EDGE_LOOP ( 'NONE', ( #232, #109, #11, #298 ) ) ;
#203 = CARTESIAN_POINT ( 'NONE',  ( -4.500000000000000888, 5.510910596163088569E-16, 4.999999999999975131 ) ) ;
#204 = EDGE_LOOP ( 'NONE', ( #345, #240, #305, #71 ) ) ;
#205 = AXIS2_PLACEMENT_3D ( 'NONE', #14, #65, #327 ) ;
#206 = DIRECTION ( 'NONE',  ( 1.000000000000000000, 0.000000000000000000, 0.000000000000000000 ) ) ;
#207 = PRODUCT_RELATED_PRODUCT_CATEGORY ( 'detail', '', ( #217 ) ) ;
#208 = DIRECTION ( 'NONE',  ( 0.000000000000000000, 0.000000000000000000, -1.000000000000000000 ) ) ;
#209 = VERTEX_POINT ( 'NONE', #347 ) ;
#210 =( NAMED_UNIT ( * ) PLANE_ANGLE_UNIT ( ) SI_UNIT ( $, .RADIAN. ) );
#211 = AXIS2_PLACEMENT_3D ( 'NONE', #320, #318, #255 ) ;
#212 = EDGE_LOOP ( 'NONE', ( #313, #133 ) ) ;
#213 = APPROVAL_DATE_TIME ( #181, #138 ) ;
#214 = AXIS2_PLACEMENT_3D ( 'NONE', #37, #149, #115 ) ;
#215 = ORIENTED_EDGE ( 'NONE', *, *, #61, .T. ) ;
#216 = SECURITY_CLASSIFICATION_LEVEL ( 'unclassified' ) ;
#217 = PRODUCT ( '994c', '994c', '', ( #27 ) ) ;
#218 = ORIENTED_EDGE ( 'NONE', *, *, #200, .F. ) ;
#219 = CC_DESIGN_PERSON_AND_ORGANIZATION_ASSIGNMENT ( #47, #159, ( #187 ) ) ;
#220 = DATE_TIME_ROLE ( 'classification_date' ) ;
#221 = CARTESIAN_POINT ( 'NONE',  ( 0.000000000000000000, 0.000000000000000000, 5.499999999999949374 ) ) ;
#222 = PERSON_AND_ORGANIZATION ( #131, #91 ) ;
#223 = CARTESIAN_POINT ( 'NONE',  ( -2.100000000000000089, 0.000000000000000000, 705.0000000000000000 ) ) ;
#224 = CIRCLE ( 'NONE', #369, 4.000000000000000000 ) ;
#225 = CARTESIAN_POINT ( 'NONE',  ( 2.100000000000000089, 2.571758278209441957E-16, 705.0000000000000000 ) ) ;
#226 = DIRECTION ( 'NONE',  ( 1.000000000000000000, 0.000000000000000000, 0.000000000000000000 ) ) ;
#227 = CYLINDRICAL_SURFACE ( 'NONE', #238, 7.000000000000000000 ) ;
#228 = CC_DESIGN_PERSON_AND_ORGANIZATION_ASSIGNMENT ( #108, #334, ( #130 ) ) ;
#229 = AXIS2_PLACEMENT_3D ( 'NONE', #29, #137, #191 ) ;
#230 = AXIS2_PLACEMENT_3D ( 'NONE', #42, #243, #161 ) ;
#231 = CARTESIAN_POINT ( 'NONE',  ( 4.500000000000000888, 0.000000000000000000, 5.499999999999949374 ) ) ;
#232 = ORIENTED_EDGE ( 'NONE', *, *, #166, .F. ) ;
#233 = CARTESIAN_POINT ( 'NONE',  ( 0.000000000000000000, 0.000000000000000000, 5.499999999999949374 ) ) ;
#234 = ORIENTED_EDGE ( 'NONE', *, *, #36, .F. ) ;
#235 = EDGE_CURVE ( 'NONE', #337, #176, #267, .T. ) ;
#236 = DIRECTION ( 'NONE',  ( 1.000000000000000000, 0.000000000000000000, 0.000000000000000000 ) ) ;
#237 = ORIENTED_EDGE ( 'NONE', *, *, #271, .T. ) ;
#238 = AXIS2_PLACEMENT_3D ( 'NONE', #151, #353, #297 ) ;
#239 = CARTESIAN_POINT ( 'NONE',  ( 0.000000000000000000, 0.000000000000000000, 5.000000000000000000 ) ) ;
#240 = ORIENTED_EDGE ( 'NONE', *, *, #283, .T. ) ;
#241 = APPLICATION_CONTEXT ( 'configuration controlled 3d designs of mechanical parts and assemblies' ) ;
#242 = APPROVAL_STATUS ( 'not_yet_approved' ) ;
#243 = DIRECTION ( 'NONE',  ( -0.000000000000000000, -0.000000000000000000, -1.000000000000000000 ) ) ;
#244 = ORIENTED_EDGE ( 'NONE', *, *, #326, .F. ) ;
#245 = EDGE_LOOP ( 'NONE', ( #330, #266, #329, #123 ) ) ;
#246 = EDGE_CURVE ( 'NONE', #173, #209, #224, .T. ) ;
#247 = APPROVAL_STATUS ( 'not_yet_approved' ) ;
#248 = DIRECTION ( 'NONE',  ( -0.000000000000000000, -0.000000000000000000, -1.000000000000000000 ) ) ;
#249 = VERTEX_POINT ( 'NONE', #99 ) ;
#250 = CARTESIAN_POINT ( 'NONE',  ( 0.000000000000000000, 0.000000000000000000, 0.000000000000000000 ) ) ;
#251 = CC_DESIGN_PERSON_AND_ORGANIZATION_ASSIGNMENT ( #308, #50, ( #122 ) ) ;
#252 = UNCERTAINTY_MEASURE_WITH_UNIT (LENGTH_MEASURE( 1.000000000000000082E-05 ), #341, 'distance_accuracy_value', 'NONE');
#253 = DIRECTION ( 'NONE',  ( -0.000000000000000000, -0.000000000000000000, -1.000000000000000000 ) ) ;
#254 = CIRCLE ( 'NONE', #150, 4.500000000000000888 ) ;
#255 = DIRECTION ( 'NONE',  ( 1.000000000000000000, 0.000000000000000000, 0.000000000000000000 ) ) ;
#256 = ADVANCED_FACE ( 'NONE', ( #174, #359 ), #295, .T. ) ;
#257 = CARTESIAN_POINT ( 'NONE',  ( -4.500000000000000888, 5.510910596163089556E-16, 5.499999999999949374 ) ) ;
#258 = CARTESIAN_POINT ( 'NONE',  ( 2.100000000000000089, 2.571758278209441957E-16, 705.0000000000000000 ) ) ;
#259 = EDGE_LOOP ( 'NONE', ( #20, #28, #215, #342 ) ) ;
#260 = AXIS2_PLACEMENT_3D ( 'NONE', #88, #199, #290 ) ;
#261 = DIRECTION ( 'NONE',  ( 0.000000000000000000, 0.000000000000000000, 1.000000000000000000 ) ) ;
#262 = ORIENTED_EDGE ( 'NONE', *, *, #192, .F. ) ;
#263 = APPROVAL ( #4, 'NEURÈENÝ' ) ;
#264 = DIRECTION ( 'NONE',  ( 1.000000000000000000, 0.000000000000000000, -0.000000000000000000 ) ) ;
#265 = FACE_OUTER_BOUND ( 'NONE', #293, .T. ) ;
#266 = ORIENTED_EDGE ( 'NONE', *, *, #271, .F. ) ;
#267 = CIRCLE ( 'NONE', #260, 4.500000000000000888 ) ;
#268 = FACE_OUTER_BOUND ( 'NONE', #307, .T. ) ;
#269 = ORIENTED_EDGE ( 'NONE', *, *, #107, .F. ) ;
#270 = PERSON_AND_ORGANIZATION ( #131, #91 ) ;
#271 = EDGE_CURVE ( 'NONE', #360, #374, #152, .T. ) ;
#272 = CARTESIAN_POINT ( 'NONE',  ( 7.000000000000000000, 8.572527594031473190E-16, 5.000000000000000000 ) ) ;
#273 = CLOSED_SHELL ( 'NONE', ( #6, #82, #303, #338, #333, #256, #146, #350, #292, #12, #277 ) ) ;
#274 = APPROVAL_ROLE ( '' ) ;
#275 = CARTESIAN_POINT ( 'NONE',  ( 4.000000000000000000, 4.898587196589412829E-16, 5.499999999999949374 ) ) ;
#276 = AXIS2_PLACEMENT_3D ( 'NONE', #17, #361, #206 ) ;
#277 = ADVANCED_FACE ( 'NONE', ( #175 ), #40, .F. ) ;
#278 = APPLICATION_PROTOCOL_DEFINITION ( 'international standard', 'config_control_design', 1994, #241 ) ;
#279 = VERTEX_POINT ( 'NONE', #145 ) ;
#280 = CALENDAR_DATE ( 2022, 8, 7 ) ;
#281 = VECTOR ( 'NONE', #248, 1000.000000000000000 ) ;
#282 = ORIENTED_EDGE ( 'NONE', *, *, #246, .F. ) ;
#283 = EDGE_CURVE ( 'NONE', #81, #249, #68, .T. ) ;
#284 = DIRECTION ( 'NONE',  ( 0.000000000000000000, 0.000000000000000000, -1.000000000000000000 ) ) ;
#285 = CIRCLE ( 'NONE', #141, 0.5000000000000004441 ) ;
#286 = SHAPE_DEFINITION_REPRESENTATION ( #375, #379 ) ;
#287 = CARTESIAN_POINT ( 'NONE',  ( -4.000000000000000000, 0.000000000000000000, 705.0000000000000000 ) ) ;
#288 = AXIS2_PLACEMENT_3D ( 'NONE', #168, #167, #55 ) ;
#289 = DIRECTION ( 'NONE',  ( 0.000000000000000000, 0.000000000000000000, 1.000000000000000000 ) ) ;
#290 = DIRECTION ( 'NONE',  ( 1.000000000000000000, 0.000000000000000000, 0.000000000000000000 ) ) ;
#291 = PLANE ( 'NONE',  #344 ) ;
#292 = ADVANCED_FACE ( 'NONE', ( #153, #10 ), #291, .T. ) ;
#293 = EDGE_LOOP ( 'NONE', ( #315, #282, #332, #134 ) ) ;
#294 = CIRCLE ( 'NONE', #229, 2.100000000000000089 ) ;
#295 = PLANE ( 'NONE',  #105 ) ;
#296 = ORIENTED_EDGE ( 'NONE', *, *, #66, .T. ) ;
#297 = DIRECTION ( 'NONE',  ( -1.000000000000000000, 0.000000000000000000, 0.000000000000000000 ) ) ;
#298 = ORIENTED_EDGE ( 'NONE', *, *, #235, .F. ) ;
#299 = CIRCLE ( 'NONE', #309, 7.000000000000000000 ) ;
#300 = DIRECTION ( 'NONE',  ( 1.000000000000000000, 0.000000000000000000, 0.000000000000000000 ) ) ;
#301 = CIRCLE ( 'NONE', #33, 4.000000000000000000 ) ;
#302 = CIRCLE ( 'NONE', #276, 4.000000000000000000 ) ;
#303 = ADVANCED_FACE ( 'NONE', ( #268 ), #121, .T. ) ;
#304 = PERSON_AND_ORGANIZATION ( #131, #91 ) ;
#305 = ORIENTED_EDGE ( 'NONE', *, *, #200, .T. ) ;
#306 = DATE_AND_TIME ( #184, #54 ) ;
#307 = EDGE_LOOP ( 'NONE', ( #378, #335, #18, #269 ) ) ;
#308 = PERSON_AND_ORGANIZATION ( #131, #91 ) ;
#309 = AXIS2_PLACEMENT_3D ( 'NONE', #110, #32, #170 ) ;
#310 = EDGE_CURVE ( 'NONE', #156, #249, #24, .T. ) ;
#311 = CIRCLE ( 'NONE', #348, 2.100000000000000089 ) ;
#312 = CIRCLE ( 'NONE', #355, 4.000000000000000000 ) ;
#313 = ORIENTED_EDGE ( 'NONE', *, *, #76, .F. ) ;
#314 = DIRECTION ( 'NONE',  ( -0.000000000000000000, -0.000000000000000000, -1.000000000000000000 ) ) ;
#315 = ORIENTED_EDGE ( 'NONE', *, *, #364, .F. ) ;
#316 = DIRECTION ( 'NONE',  ( -0.000000000000000000, -0.000000000000000000, -1.000000000000000000 ) ) ;
#317 = EDGE_CURVE ( 'NONE', #279, #15, #312, .T. ) ;
#318 = DIRECTION ( 'NONE',  ( 0.000000000000000000, 0.000000000000000000, 1.000000000000000000 ) ) ;
#319 = AXIS2_PLACEMENT_3D ( 'NONE', #325, #116, #236 ) ;
#320 = CARTESIAN_POINT ( 'NONE',  ( 0.000000000000000000, 0.000000000000000000, 0.000000000000000000 ) ) ;
#321 = APPROVAL_DATE_TIME ( #135, #263 ) ;
#322 = TOROIDAL_SURFACE ( 'NONE', #165, 4.500000000000000888, 0.5000000000000000000 ) ;
#323 = EDGE_CURVE ( 'NONE', #209, #173, #302, .T. ) ;
#324 = CARTESIAN_POINT ( 'NONE',  ( -2.100000000000000089, 0.000000000000000000, 0.000000000000000000 ) ) ;
#325 = CARTESIAN_POINT ( 'NONE',  ( 0.000000000000000000, 0.000000000000000000, 0.000000000000000000 ) ) ;
#326 = EDGE_CURVE ( 'NONE', #15, #176, #285, .T. ) ;
#327 = DIRECTION ( 'NONE',  ( -1.000000000000000000, 0.000000000000000000, 0.000000000000000000 ) ) ;
#328 = FACE_OUTER_BOUND ( 'NONE', #23, .T. ) ;
#329 = ORIENTED_EDGE ( 'NONE', *, *, #16, .T. ) ;
#330 = ORIENTED_EDGE ( 'NONE', *, *, #1, .F. ) ;
#331 = DIRECTION ( 'NONE',  ( 0.000000000000000000, 0.000000000000000000, 1.000000000000000000 ) ) ;
#332 = ORIENTED_EDGE ( 'NONE', *, *, #107, .T. ) ;
#333 = ADVANCED_FACE ( 'NONE', ( #93 ), #148, .T. ) ;
#334 = PERSON_AND_ORGANIZATION_ROLE ( 'creator' ) ;
#335 = ORIENTED_EDGE ( 'NONE', *, *, #364, .T. ) ;
#336 = CALENDAR_DATE ( 2022, 8, 7 ) ;
#337 = VERTEX_POINT ( 'NONE', #203 ) ;
#338 = ADVANCED_FACE ( 'NONE', ( #328 ), #227, .T. ) ;
#339 = COORDINATED_UNIVERSAL_TIME_OFFSET ( 1, 0, .AHEAD. ) ;
#340 = DIRECTION ( 'NONE',  ( 1.000000000000000000, 0.000000000000000000, 0.000000000000000000 ) ) ;
#341 =( LENGTH_UNIT ( ) NAMED_UNIT ( * ) SI_UNIT ( .MILLI., .METRE. ) );
#342 = ORIENTED_EDGE ( 'NONE', *, *, #310, .T. ) ;
#343 = PERSON_AND_ORGANIZATION_ROLE ( 'design_supplier' ) ;
#344 = AXIS2_PLACEMENT_3D ( 'NONE', #97, #13, #264 ) ;
#345 = ORIENTED_EDGE ( 'NONE', *, *, #31, .T. ) ;
#346 = CARTESIAN_POINT ( 'NONE',  ( -2.100000000000000089, 0.000000000000000000, 705.0000000000000000 ) ) ;
#347 = CARTESIAN_POINT ( 'NONE',  ( 4.000000000000000000, 4.898587196589412829E-16, 705.0000000000000000 ) ) ;
#348 = AXIS2_PLACEMENT_3D ( 'NONE', #250, #3, #349 ) ;
#349 = DIRECTION ( 'NONE',  ( 1.000000000000000000, 0.000000000000000000, 0.000000000000000000 ) ) ;
#350 = ADVANCED_FACE ( 'NONE', ( #265 ), #92, .T. ) ;
#351 = LINE ( 'NONE', #287, #144 ) ;
#352 = DIRECTION ( 'NONE',  ( 0.000000000000000000, 0.000000000000000000, 1.000000000000000000 ) ) ;
#353 = DIRECTION ( 'NONE',  ( -0.000000000000000000, -0.000000000000000000, -1.000000000000000000 ) ) ;
#354 = VECTOR ( 'NONE', #208, 1000.000000000000000 ) ;
#355 = AXIS2_PLACEMENT_3D ( 'NONE', #233, #70, #38 ) ;
#356 = CC_DESIGN_PERSON_AND_ORGANIZATION_ASSIGNMENT ( #304, #124, ( #217 ) ) ;
#357 = DIRECTION ( 'NONE',  ( 0.000000000000000000, -1.000000000000000000, 0.000000000000000000 ) ) ;
#358 = ORIENTED_EDGE ( 'NONE', *, *, #16, .F. ) ;
#359 = FACE_OUTER_BOUND ( 'NONE', #96, .T. ) ;
#360 = VERTEX_POINT ( 'NONE', #100 ) ;
#361 = DIRECTION ( 'NONE',  ( 0.000000000000000000, 0.000000000000000000, 1.000000000000000000 ) ) ;
#362 = APPROVAL_PERSON_ORGANIZATION ( #103, #138, #126 ) ;
#363 = DIRECTION ( 'NONE',  ( -0.000000000000000000, -0.000000000000000000, -1.000000000000000000 ) ) ;
#364 = EDGE_CURVE ( 'NONE', #209, #15, #84, .T. ) ;
#365 = ORIENTED_EDGE ( 'NONE', *, *, #31, .F. ) ;
#366 = DATE_TIME_ROLE ( 'creation_date' ) ;
#367 = COORDINATED_UNIVERSAL_TIME_OFFSET ( 1, 0, .AHEAD. ) ;
#368 = EDGE_LOOP ( 'NONE', ( #74, #69 ) ) ;
#369 = AXIS2_PLACEMENT_3D ( 'NONE', #119, #43, #300 ) ;
#370 = AXIS2_PLACEMENT_3D ( 'NONE', #371, #164, #163 ) ;
#371 = CARTESIAN_POINT ( 'NONE',  ( 0.000000000000000000, 0.000000000000000000, 0.000000000000000000 ) ) ;
#372 = CARTESIAN_POINT ( 'NONE',  ( 0.000000000000000000, 0.000000000000000000, 5.499999999999949374 ) ) ;
#373 = DATE_AND_TIME ( #132, #182 ) ;
#374 = VERTEX_POINT ( 'NONE', #22 ) ;
#375 = PRODUCT_DEFINITION_SHAPE ( 'NONE', 'NONE',  #130 ) ;
#376 = TOROIDAL_SURFACE ( 'NONE', #160, 4.500000000000000888, 0.5000000000000000000 ) ;
#377 = APPROVAL_DATE_TIME ( #306, #87 ) ;
#378 = ORIENTED_EDGE ( 'NONE', *, *, #323, .F. ) ;
#379 = ADVANCED_BREP_SHAPE_REPRESENTATION ( '994c', ( #101, #370 ), #155 ) ;
#380 = LOCAL_TIME ( 17, 25, 49.00000000000000000, #157 ) ;
#381 = APPROVAL_PERSON_ORGANIZATION ( #222, #263, #2 ) ;
ENDSEC;
END-ISO-10303-21;
