ISO-10303-21;
HEADER;
FILE_DESCRIPTION (( 'STEP AP203' ),
    '1' );
FILE_NAME ('6213.STEP',
    '2022-07-08T15:22:39',
    ( '' ),
    ( '' ),
    'SwSTEP 2.0',
    'SolidWorks 2019',
    '' );
FILE_SCHEMA (( 'CONFIG_CONTROL_DESIGN' ));
ENDSEC;

DATA;
#1 = FACE_BOUND ( 'NONE', #58, .T. ) ;
#2 = DIRECTION ( 'NONE',  ( -1.000000000000000000, 0.000000000000000000, 0.000000000000000000 ) ) ;
#3 = AXIS2_PLACEMENT_3D ( 'NONE', #219, #272, #186 ) ;
#4 = LINE ( 'NONE', #98, #339 ) ;
#5 = AXIS2_PLACEMENT_3D ( 'NONE', #252, #220, #16 ) ;
#6 = LINE ( 'NONE', #60, #247 ) ;
#7 = CARTESIAN_POINT ( 'NONE',  ( 0.000000000000000000, 0.000000000000000000, 555.0000000000000000 ) ) ;
#8 = AXIS2_PLACEMENT_3D ( 'NONE', #138, #43, #250 ) ;
#9 = EDGE_CURVE ( 'NONE', #335, #263, #115, .T. ) ;
#10 = CARTESIAN_POINT ( 'NONE',  ( 0.000000000000000000, 0.000000000000000000, 5.499999999999949374 ) ) ;
#11 = DIRECTION ( 'NONE',  ( 0.000000000000000000, 0.000000000000000000, 1.000000000000000000 ) ) ;
#12 = DESIGN_CONTEXT ( 'detailed design', #150, 'design' ) ;
#13 = AXIS2_PLACEMENT_3D ( 'NONE', #125, #353, #70 ) ;
#14 = AXIS2_PLACEMENT_3D ( 'NONE', #10, #277, #71 ) ;
#15 = AXIS2_PLACEMENT_3D ( 'NONE', #78, #137, #366 ) ;
#16 = DIRECTION ( 'NONE',  ( 1.000000000000000000, 0.000000000000000000, -0.000000000000000000 ) ) ;
#17 = EDGE_LOOP ( 'NONE', ( #80, #203 ) ) ;
#18 = ADVANCED_FACE ( 'NONE', ( #346 ), #86, .T. ) ;
#19 = VERTEX_POINT ( 'NONE', #146 ) ;
#20 = ORGANIZATION ( 'NEURÈENÝ', 'NEURÈENÝ', '' ) ;
#21 = ORIENTED_EDGE ( 'NONE', *, *, #35, .F. ) ;
#22 = DIRECTION ( 'NONE',  ( 1.000000000000000000, 0.000000000000000000, -0.000000000000000000 ) ) ;
#23 = DIRECTION ( 'NONE',  ( -1.000000000000000000, 0.000000000000000000, 0.000000000000000000 ) ) ;
#24 = ORIENTED_EDGE ( 'NONE', *, *, #367, .T. ) ;
#25 = ORIENTED_EDGE ( 'NONE', *, *, #340, .T. ) ;
#26 = EDGE_CURVE ( 'NONE', #343, #255, #169, .T. ) ;
#27 = DIRECTION ( 'NONE',  ( -0.000000000000000000, -0.000000000000000000, -1.000000000000000000 ) ) ;
#28 = APPROVAL_DATE_TIME ( #31, #291 ) ;
#29 = CYLINDRICAL_SURFACE ( 'NONE', #49, 2.250000000000000000 ) ;
#30 = PRODUCT_DEFINITION ( 'NEZNÁMÝ', '', #112, #12 ) ;
#31 = DATE_AND_TIME ( #66, #94 ) ;
#32 = LINE ( 'NONE', #101, #287 ) ;
#33 = CIRCLE ( 'NONE', #162, 4.000000000000000000 ) ;
#34 = CARTESIAN_POINT ( 'NONE',  ( 0.000000000000000000, 0.000000000000000000, 0.000000000000000000 ) ) ;
#35 = EDGE_CURVE ( 'NONE', #238, #374, #4, .T. ) ;
#36 = DIRECTION ( 'NONE',  ( 0.000000000000000000, 0.000000000000000000, 1.000000000000000000 ) ) ;
#37 = CARTESIAN_POINT ( 'NONE',  ( 0.000000000000000000, 0.000000000000000000, 5.000000000000000000 ) ) ;
#38 = ORIENTED_EDGE ( 'NONE', *, *, #234, .T. ) ;
#39 = ADVANCED_FACE ( 'NONE', ( #324 ), #93, .T. ) ;
#40 = PLANE ( 'NONE',  #5 ) ;
#41 = EDGE_CURVE ( 'NONE', #19, #202, #302, .T. ) ;
#42 = CARTESIAN_POINT ( 'NONE',  ( -2.250000000000000000, 0.000000000000000000, 555.0000000000000000 ) ) ;
#43 = DIRECTION ( 'NONE',  ( 0.000000000000000000, 0.000000000000000000, 1.000000000000000000 ) ) ;
#44 = CIRCLE ( 'NONE', #8, 2.250000000000000000 ) ;
#45 = FACE_BOUND ( 'NONE', #17, .T. ) ;
#46 = EDGE_CURVE ( 'NONE', #343, #84, #57, .T. ) ;
#47 = ORIENTED_EDGE ( 'NONE', *, *, #9, .F. ) ;
#48 = COORDINATED_UNIVERSAL_TIME_OFFSET ( 1, 0, .AHEAD. ) ;
#49 = AXIS2_PLACEMENT_3D ( 'NONE', #7, #215, #2 ) ;
#50 = ORIENTED_EDGE ( 'NONE', *, *, #132, .F. ) ;
#51 = CIRCLE ( 'NONE', #373, 7.000000000000000000 ) ;
#52 = DATE_AND_TIME ( #198, #309 ) ;
#53 = ORIENTED_EDGE ( 'NONE', *, *, #26, .T. ) ;
#54 = CARTESIAN_POINT ( 'NONE',  ( 0.000000000000000000, 0.000000000000000000, 555.0000000000000000 ) ) ;
#55 = ORIENTED_EDGE ( 'NONE', *, *, #46, .F. ) ;
#56 = CALENDAR_DATE ( 2022, 8, 7 ) ;
#57 = CIRCLE ( 'NONE', #142, 4.000000000000000000 ) ;
#58 = EDGE_LOOP ( 'NONE', ( #77, #140 ) ) ;
#59 = DATE_AND_TIME ( #56, #314 ) ;
#60 = CARTESIAN_POINT ( 'NONE',  ( 2.250000000000000000, 2.755455298081544285E-16, 555.0000000000000000 ) ) ;
#61 = APPROVAL_ROLE ( '' ) ;
#62 = DIRECTION ( 'NONE',  ( -0.000000000000000000, -0.000000000000000000, -1.000000000000000000 ) ) ;
#63 = APPROVAL_DATE_TIME ( #214, #201 ) ;
#64 = CARTESIAN_POINT ( 'NONE',  ( 0.000000000000000000, 0.000000000000000000, 555.0000000000000000 ) ) ;
#65 = VECTOR ( 'NONE', #341, 1000.000000000000000 ) ;
#66 = CALENDAR_DATE ( 2022, 8, 7 ) ;
#67 = APPROVAL_PERSON_ORGANIZATION ( #292, #165, #378 ) ;
#68 = CYLINDRICAL_SURFACE ( 'NONE', #3, 7.000000000000000000 ) ;
#69 = EDGE_CURVE ( 'NONE', #304, #84, #129, .T. ) ;
#70 = DIRECTION ( 'NONE',  ( 1.000000000000000000, 0.000000000000000000, 0.000000000000000000 ) ) ;
#71 = DIRECTION ( 'NONE',  ( 1.000000000000000000, 0.000000000000000000, 0.000000000000000000 ) ) ;
#72 = ORIENTED_EDGE ( 'NONE', *, *, #132, .T. ) ;
#73 = EDGE_CURVE ( 'NONE', #260, #343, #32, .T. ) ;
#74 = AXIS2_PLACEMENT_3D ( 'NONE', #127, #62, #183 ) ;
#75 = CARTESIAN_POINT ( 'NONE',  ( -4.000000000000000000, 0.000000000000000000, 555.0000000000000000 ) ) ;
#76 = AXIS2_PLACEMENT_3D ( 'NONE', #363, #133, #331 ) ;
#77 = ORIENTED_EDGE ( 'NONE', *, *, #323, .T. ) ;
#78 = CARTESIAN_POINT ( 'NONE',  ( 0.000000000000000000, 0.000000000000000000, 5.499999999999949374 ) ) ;
#79 = CARTESIAN_POINT ( 'NONE',  ( -7.000000000000000000, 0.000000000000000000, 0.000000000000000000 ) ) ;
#80 = ORIENTED_EDGE ( 'NONE', *, *, #155, .F. ) ;
#81 = DIRECTION ( 'NONE',  ( 0.000000000000000000, 0.000000000000000000, 1.000000000000000000 ) ) ;
#82 = DIRECTION ( 'NONE',  ( 0.000000000000000000, 0.000000000000000000, 1.000000000000000000 ) ) ;
#83 = ORIENTED_EDGE ( 'NONE', *, *, #172, .F. ) ;
#84 = VERTEX_POINT ( 'NONE', #96 ) ;
#85 = PERSON_AND_ORGANIZATION_ROLE ( 'design_owner' ) ;
#86 = CYLINDRICAL_SURFACE ( 'NONE', #279, 4.000000000000000000 ) ;
#87 = CC_DESIGN_APPROVAL ( #291, ( #119 ) ) ;
#88 = DIRECTION ( 'NONE',  ( 0.000000000000000000, 0.000000000000000000, -1.000000000000000000 ) ) ;
#89 = ORIENTED_EDGE ( 'NONE', *, *, #35, .T. ) ;
#90 = ADVANCED_FACE ( 'NONE', ( #298 ), #157, .T. ) ;
#91 = ORIENTED_EDGE ( 'NONE', *, *, #348, .F. ) ;
#92 = CALENDAR_DATE ( 2022, 8, 7 ) ;
#93 = CYLINDRICAL_SURFACE ( 'NONE', #74, 4.000000000000000000 ) ;
#94 = LOCAL_TIME ( 17, 22, 39.00000000000000000, #179 ) ;
#95 = CC_DESIGN_PERSON_AND_ORGANIZATION_ASSIGNMENT ( #262, #120, ( #30 ) ) ;
#96 = CARTESIAN_POINT ( 'NONE',  ( 4.000000000000000000, 4.898587196589412829E-16, 5.499999999999949374 ) ) ;
#97 = CARTESIAN_POINT ( 'NONE',  ( 0.000000000000000000, 0.000000000000000000, 5.000000000000000000 ) ) ;
#98 = CARTESIAN_POINT ( 'NONE',  ( -2.250000000000000000, 0.000000000000000000, 555.0000000000000000 ) ) ;
#99 = ADVANCED_FACE ( 'NONE', ( #240 ), #29, .F. ) ;
#100 = AXIS2_PLACEMENT_3D ( 'NONE', #170, #11, #336 ) ;
#101 = CARTESIAN_POINT ( 'NONE',  ( -4.000000000000000000, 0.000000000000000000, 555.0000000000000000 ) ) ;
#102 = DIRECTION ( 'NONE',  ( -0.000000000000000000, -0.000000000000000000, -1.000000000000000000 ) ) ;
#103 = CARTESIAN_POINT ( 'NONE',  ( 7.000000000000000000, 8.572527594031473190E-16, 0.000000000000000000 ) ) ;
#104 = FACE_OUTER_BOUND ( 'NONE', #381, .T. ) ;
#105 = APPROVAL_PERSON_ORGANIZATION ( #299, #201, #268 ) ;
#106 = EDGE_LOOP ( 'NONE', ( #55, #53, #175, #107 ) ) ;
#107 = ORIENTED_EDGE ( 'NONE', *, *, #340, .F. ) ;
#108 = CARTESIAN_POINT ( 'NONE',  ( 0.000000000000000000, 0.000000000000000000, 555.0000000000000000 ) ) ;
#109 = ORIENTED_EDGE ( 'NONE', *, *, #160, .T. ) ;
#110 =( NAMED_UNIT ( * ) SI_UNIT ( $, .STERADIAN. ) SOLID_ANGLE_UNIT ( ) );
#111 = ORIENTED_EDGE ( 'NONE', *, *, #69, .T. ) ;
#112 = PRODUCT_DEFINITION_FORMATION_WITH_SPECIFIED_SOURCE ( 'LIBOVOLNÝ', '', #267, .NOT_KNOWN. ) ;
#113 = ORIENTED_EDGE ( 'NONE', *, *, #362, .T. ) ;
#114 = EDGE_CURVE ( 'NONE', #180, #206, #6, .T. ) ;
#115 = LINE ( 'NONE', #233, #65 ) ;
#116 = PLANE ( 'NONE',  #322 ) ;
#117 = EDGE_LOOP ( 'NONE', ( #347, #109 ) ) ;
#118 = CIRCLE ( 'NONE', #327, 2.250000000000000000 ) ;
#119 = SECURITY_CLASSIFICATION ( '', '', #128 ) ;
#120 = PERSON_AND_ORGANIZATION_ROLE ( 'creator' ) ;
#121 = EDGE_LOOP ( 'NONE', ( #251, #285, #89, #313 ) ) ;
#122 = COORDINATED_UNIVERSAL_TIME_OFFSET ( 1, 0, .AHEAD. ) ;
#123 = CARTESIAN_POINT ( 'NONE',  ( 0.000000000000000000, 0.000000000000000000, 5.000000000000000000 ) ) ;
#124 = APPROVAL_STATUS ( 'not_yet_approved' ) ;
#125 = CARTESIAN_POINT ( 'NONE',  ( 0.000000000000000000, 0.000000000000000000, 0.000000000000000000 ) ) ;
#126 =( GEOMETRIC_REPRESENTATION_CONTEXT ( 3 ) GLOBAL_UNCERTAINTY_ASSIGNED_CONTEXT ( ( #235 ) ) GLOBAL_UNIT_ASSIGNED_CONTEXT ( ( #173, #312, #110 ) ) REPRESENTATION_CONTEXT ( 'NONE', 'WORKASPACE' ) );
#127 = CARTESIAN_POINT ( 'NONE',  ( 0.000000000000000000, 0.000000000000000000, 555.0000000000000000 ) ) ;
#128 = SECURITY_CLASSIFICATION_LEVEL ( 'unclassified' ) ;
#129 = LINE ( 'NONE', #300, #286 ) ;
#130 = CARTESIAN_POINT ( 'NONE',  ( 2.250000000000000000, 2.755455298081544285E-16, 555.0000000000000000 ) ) ;
#131 = CIRCLE ( 'NONE', #13, 7.000000000000000000 ) ;
#132 = EDGE_CURVE ( 'NONE', #202, #263, #131, .T. ) ;
#133 = DIRECTION ( 'NONE',  ( 0.000000000000000000, -1.000000000000000000, 0.000000000000000000 ) ) ;
#134 = EDGE_CURVE ( 'NONE', #255, #293, #320, .T. ) ;
#135 = CARTESIAN_POINT ( 'NONE',  ( 4.500000000000000888, 0.000000000000000000, 4.999999999999975131 ) ) ;
#136 = ORIENTED_EDGE ( 'NONE', *, *, #376, .T. ) ;
#137 = DIRECTION ( 'NONE',  ( 0.000000000000000000, 0.000000000000000000, 1.000000000000000000 ) ) ;
#138 = CARTESIAN_POINT ( 'NONE',  ( 0.000000000000000000, 0.000000000000000000, 555.0000000000000000 ) ) ;
#139 = CARTESIAN_POINT ( 'NONE',  ( 7.000000000000000000, 8.572527594031473190E-16, 5.000000000000000000 ) ) ;
#140 = ORIENTED_EDGE ( 'NONE', *, *, #134, .T. ) ;
#141 = APPLICATION_PROTOCOL_DEFINITION ( 'international standard', 'config_control_design', 1994, #150 ) ;
#142 = AXIS2_PLACEMENT_3D ( 'NONE', #248, #217, #321 ) ;
#143 = DIRECTION ( 'NONE',  ( 1.000000000000000000, 0.000000000000000000, 0.000000000000000000 ) ) ;
#144 = ORIENTED_EDGE ( 'NONE', *, *, #41, .F. ) ;
#145 = CC_DESIGN_PERSON_AND_ORGANIZATION_ASSIGNMENT ( #271, #318, ( #112 ) ) ;
#146 = CARTESIAN_POINT ( 'NONE',  ( -7.000000000000000000, 0.000000000000000000, 5.000000000000000000 ) ) ;
#147 = ORIENTED_EDGE ( 'NONE', *, *, #134, .F. ) ;
#148 = CIRCLE ( 'NONE', #358, 2.250000000000000000 ) ;
#149 = AXIS2_PLACEMENT_3D ( 'NONE', #308, #102, #249 ) ;
#150 = APPLICATION_CONTEXT ( 'configuration controlled 3d designs of mechanical parts and assemblies' ) ;
#151 = DIRECTION ( 'NONE',  ( -0.000000000000000000, -0.000000000000000000, -1.000000000000000000 ) ) ;
#152 = PERSON_AND_ORGANIZATION_ROLE ( 'classification_officer' ) ;
#153 = CARTESIAN_POINT ( 'NONE',  ( -7.000000000000000000, 0.000000000000000000, 5.000000000000000000 ) ) ;
#154 = DIRECTION ( 'NONE',  ( 1.000000000000000000, 0.000000000000000000, 0.000000000000000000 ) ) ;
#155 = EDGE_CURVE ( 'NONE', #238, #180, #118, .T. ) ;
#156 = CARTESIAN_POINT ( 'NONE',  ( 0.000000000000000000, 0.000000000000000000, 5.000000000000000000 ) ) ;
#157 = CYLINDRICAL_SURFACE ( 'NONE', #184, 7.000000000000000000 ) ;
#158 = DIRECTION ( 'NONE',  ( 1.000000000000000000, 0.000000000000000000, 0.000000000000000000 ) ) ;
#159 = CLOSED_SHELL ( 'NONE', ( #379, #276, #18, #90, #177, #185, #332, #39, #380, #361, #99 ) ) ;
#160 = EDGE_CURVE ( 'NONE', #304, #260, #242, .T. ) ;
#161 = AXIS2_PLACEMENT_3D ( 'NONE', #34, #296, #241 ) ;
#162 = AXIS2_PLACEMENT_3D ( 'NONE', #108, #163, #225 ) ;
#163 = DIRECTION ( 'NONE',  ( 0.000000000000000000, 0.000000000000000000, 1.000000000000000000 ) ) ;
#164 = ORIENTED_EDGE ( 'NONE', *, *, #362, .F. ) ;
#165 = APPROVAL ( #228, 'NEURÈENÝ' ) ;
#166 = PERSON ( 'NEURÈENÝ', 'NEURÈENÝ', 'NEURÈENÝ', ('NEURÈENÝ'), ('NEURÈENÝ'), ('NEURÈENÝ') ) ;
#167 = CARTESIAN_POINT ( 'NONE',  ( -2.250000000000000000, 0.000000000000000000, 0.000000000000000000 ) ) ;
#168 = CARTESIAN_POINT ( 'NONE',  ( 4.000000000000000000, 4.898587196589412829E-16, 555.0000000000000000 ) ) ;
#169 = CIRCLE ( 'NONE', #216, 0.5000000000000004441 ) ;
#170 = CARTESIAN_POINT ( 'NONE',  ( 0.000000000000000000, 0.000000000000000000, 5.000000000000000000 ) ) ;
#171 = CC_DESIGN_SECURITY_CLASSIFICATION ( #119, ( #112 ) ) ;
#172 = EDGE_CURVE ( 'NONE', #374, #206, #212, .T. ) ;
#173 =( LENGTH_UNIT ( ) NAMED_UNIT ( * ) SI_UNIT ( .MILLI., .METRE. ) );
#174 = ORIENTED_EDGE ( 'NONE', *, *, #46, .T. ) ;
#175 = ORIENTED_EDGE ( 'NONE', *, *, #323, .F. ) ;
#176 = EDGE_LOOP ( 'NONE', ( #47, #178, #317, #72 ) ) ;
#177 = ADVANCED_FACE ( 'NONE', ( #269 ), #68, .T. ) ;
#178 = ORIENTED_EDGE ( 'NONE', *, *, #367, .F. ) ;
#179 = COORDINATED_UNIVERSAL_TIME_OFFSET ( 1, 0, .AHEAD. ) ;
#180 = VERTEX_POINT ( 'NONE', #130 ) ;
#181 = DIRECTION ( 'NONE',  ( 0.000000000000000000, 0.000000000000000000, 1.000000000000000000 ) ) ;
#182 = DIRECTION ( 'NONE',  ( -0.000000000000000000, -0.000000000000000000, -1.000000000000000000 ) ) ;
#183 = DIRECTION ( 'NONE',  ( -1.000000000000000000, 0.000000000000000000, 0.000000000000000000 ) ) ;
#184 = AXIS2_PLACEMENT_3D ( 'NONE', #156, #27, #270 ) ;
#185 = ADVANCED_FACE ( 'NONE', ( #1, #330 ), #187, .T. ) ;
#186 = DIRECTION ( 'NONE',  ( -1.000000000000000000, 0.000000000000000000, 0.000000000000000000 ) ) ;
#187 = PLANE ( 'NONE',  #218 ) ;
#188 = CARTESIAN_POINT ( 'NONE',  ( 0.000000000000000000, 0.000000000000000000, 0.000000000000000000 ) ) ;
#189 = DIRECTION ( 'NONE',  ( 1.000000000000000000, 0.000000000000000000, 0.000000000000000000 ) ) ;
#190 = ORIENTED_EDGE ( 'NONE', *, *, #376, .F. ) ;
#191 = EDGE_CURVE ( 'NONE', #180, #238, #44, .T. ) ;
#192 = CARTESIAN_POINT ( 'NONE',  ( 0.000000000000000000, 0.000000000000000000, 555.0000000000000000 ) ) ;
#193 = DIRECTION ( 'NONE',  ( -0.000000000000000000, -0.000000000000000000, -1.000000000000000000 ) ) ;
#194 = TOROIDAL_SURFACE ( 'NONE', #227, 4.500000000000000888, 0.5000000000000000000 ) ;
#195 = FACE_OUTER_BOUND ( 'NONE', #311, .T. ) ;
#196 = LOCAL_TIME ( 17, 22, 39.00000000000000000, #310 ) ;
#197 = EDGE_LOOP ( 'NONE', ( #371, #283, #113, #144 ) ) ;
#198 = CALENDAR_DATE ( 2022, 8, 7 ) ;
#199 = ORIENTED_EDGE ( 'NONE', *, *, #114, .T. ) ;
#200 = FACE_OUTER_BOUND ( 'NONE', #117, .T. ) ;
#201 = APPROVAL ( #244, 'NEURÈENÝ' ) ;
#202 = VERTEX_POINT ( 'NONE', #79 ) ;
#203 = ORIENTED_EDGE ( 'NONE', *, *, #191, .F. ) ;
#204 = ADVANCED_BREP_SHAPE_REPRESENTATION ( '6213', ( #306, #258 ), #126 ) ;
#205 = PERSON_AND_ORGANIZATION ( #166, #20 ) ;
#206 = VERTEX_POINT ( 'NONE', #278 ) ;
#207 = COORDINATED_UNIVERSAL_TIME_OFFSET ( 1, 0, .AHEAD. ) ;
#208 = EDGE_LOOP ( 'NONE', ( #83, #375 ) ) ;
#209 = APPLICATION_CONTEXT ( 'configuration controlled 3d designs of mechanical parts and assemblies' ) ;
#210 = PERSON_AND_ORGANIZATION_ROLE ( 'creator' ) ;
#211 = DIRECTION ( 'NONE',  ( 1.000000000000000000, 0.000000000000000000, 0.000000000000000000 ) ) ;
#212 = CIRCLE ( 'NONE', #161, 2.250000000000000000 ) ;
#213 = DIRECTION ( 'NONE',  ( -1.000000000000000000, 1.224646799147351482E-16, 0.000000000000000000 ) ) ;
#214 = DATE_AND_TIME ( #92, #273 ) ;
#215 = DIRECTION ( 'NONE',  ( 0.000000000000000000, 0.000000000000000000, -1.000000000000000000 ) ) ;
#216 = AXIS2_PLACEMENT_3D ( 'NONE', #274, #357, #213 ) ;
#217 = DIRECTION ( 'NONE',  ( 0.000000000000000000, 0.000000000000000000, 1.000000000000000000 ) ) ;
#218 = AXIS2_PLACEMENT_3D ( 'NONE', #123, #81, #224 ) ;
#219 = CARTESIAN_POINT ( 'NONE',  ( 0.000000000000000000, 0.000000000000000000, 5.000000000000000000 ) ) ;
#220 = DIRECTION ( 'NONE',  ( 0.000000000000000000, 0.000000000000000000, 1.000000000000000000 ) ) ;
#221 = DIRECTION ( 'NONE',  ( 1.000000000000000000, 0.000000000000000000, 0.000000000000000000 ) ) ;
#222 = TOROIDAL_SURFACE ( 'NONE', #14, 4.500000000000000888, 0.5000000000000000000 ) ;
#223 = CYLINDRICAL_SURFACE ( 'NONE', #328, 2.250000000000000000 ) ;
#224 = DIRECTION ( 'NONE',  ( 1.000000000000000000, 0.000000000000000000, -0.000000000000000000 ) ) ;
#225 = DIRECTION ( 'NONE',  ( 1.000000000000000000, 0.000000000000000000, 0.000000000000000000 ) ) ;
#226 = VECTOR ( 'NONE', #151, 1000.000000000000000 ) ;
#227 = AXIS2_PLACEMENT_3D ( 'NONE', #282, #305, #221 ) ;
#228 = APPROVAL_STATUS ( 'not_yet_approved' ) ;
#229 = ORIENTED_EDGE ( 'NONE', *, *, #160, .F. ) ;
#230 = DATE_AND_TIME ( #257, #196 ) ;
#231 = ORIENTED_EDGE ( 'NONE', *, *, #73, .T. ) ;
#232 = DIRECTION ( 'NONE',  ( 0.000000000000000000, 0.000000000000000000, 1.000000000000000000 ) ) ;
#233 = CARTESIAN_POINT ( 'NONE',  ( 7.000000000000000000, 8.572527594031473190E-16, 5.000000000000000000 ) ) ;
#234 = EDGE_CURVE ( 'NONE', #335, #19, #265, .T. ) ;
#235 = UNCERTAINTY_MEASURE_WITH_UNIT (LENGTH_MEASURE( 1.000000000000000082E-05 ), #173, 'distance_accuracy_value', 'NONE');
#236 = EDGE_LOOP ( 'NONE', ( #229, #111, #136, #377 ) ) ;
#237 = CIRCLE ( 'NONE', #15, 4.000000000000000000 ) ;
#238 = VERTEX_POINT ( 'NONE', #42 ) ;
#239 = EDGE_CURVE ( 'NONE', #206, #374, #148, .T. ) ;
#240 = FACE_OUTER_BOUND ( 'NONE', #121, .T. ) ;
#241 = DIRECTION ( 'NONE',  ( 1.000000000000000000, 0.000000000000000000, 0.000000000000000000 ) ) ;
#242 = CIRCLE ( 'NONE', #288, 4.000000000000000000 ) ;
#243 = CC_DESIGN_APPROVAL ( #201, ( #112 ) ) ;
#244 = APPROVAL_STATUS ( 'not_yet_approved' ) ;
#245 = DIRECTION ( 'NONE',  ( 0.000000000000000000, 0.000000000000000000, -1.000000000000000000 ) ) ;
#246 = DIRECTION ( 'NONE',  ( 0.000000000000000000, 0.000000000000000000, -1.000000000000000000 ) ) ;
#247 = VECTOR ( 'NONE', #245, 1000.000000000000000 ) ;
#248 = CARTESIAN_POINT ( 'NONE',  ( 0.000000000000000000, 0.000000000000000000, 5.499999999999949374 ) ) ;
#249 = DIRECTION ( 'NONE',  ( 1.000000000000000000, 0.000000000000000000, 0.000000000000000000 ) ) ;
#250 = DIRECTION ( 'NONE',  ( 1.000000000000000000, 0.000000000000000000, 0.000000000000000000 ) ) ;
#251 = ORIENTED_EDGE ( 'NONE', *, *, #114, .F. ) ;
#252 = CARTESIAN_POINT ( 'NONE',  ( 0.000000000000000000, 0.000000000000000000, 0.000000000000000000 ) ) ;
#253 = FACE_OUTER_BOUND ( 'NONE', #106, .T. ) ;
#254 = ORIENTED_EDGE ( 'NONE', *, *, #155, .T. ) ;
#255 = VERTEX_POINT ( 'NONE', #307 ) ;
#256 = CIRCLE ( 'NONE', #149, 4.500000000000000888 ) ;
#257 = CALENDAR_DATE ( 2022, 8, 7 ) ;
#258 = AXIS2_PLACEMENT_3D ( 'NONE', #284, #82, #143 ) ;
#259 = ORIENTED_EDGE ( 'NONE', *, *, #26, .F. ) ;
#260 = VERTEX_POINT ( 'NONE', #75 ) ;
#261 = PRODUCT_DEFINITION_SHAPE ( 'NONE', 'NONE',  #30 ) ;
#262 = PERSON_AND_ORGANIZATION ( #166, #20 ) ;
#263 = VERTEX_POINT ( 'NONE', #103 ) ;
#264 = MECHANICAL_CONTEXT ( 'NONE', #209, 'mechanical' ) ;
#265 = CIRCLE ( 'NONE', #100, 7.000000000000000000 ) ;
#266 = EDGE_LOOP ( 'NONE', ( #294, #91, #231, #174 ) ) ;
#267 = PRODUCT ( '6213', '6213', '', ( #264 ) ) ;
#268 = APPROVAL_ROLE ( '' ) ;
#269 = FACE_OUTER_BOUND ( 'NONE', #176, .T. ) ;
#270 = DIRECTION ( 'NONE',  ( -1.000000000000000000, 0.000000000000000000, 0.000000000000000000 ) ) ;
#271 = PERSON_AND_ORGANIZATION ( #166, #20 ) ;
#272 = DIRECTION ( 'NONE',  ( -0.000000000000000000, -0.000000000000000000, -1.000000000000000000 ) ) ;
#273 = LOCAL_TIME ( 17, 22, 39.00000000000000000, #122 ) ;
#274 = CARTESIAN_POINT ( 'NONE',  ( -4.500000000000000888, 5.510910596163089556E-16, 5.499999999999949374 ) ) ;
#275 = DIRECTION ( 'NONE',  ( -0.000000000000000000, -0.000000000000000000, -1.000000000000000000 ) ) ;
#276 = ADVANCED_FACE ( 'NONE', ( #253 ), #194, .F. ) ;
#277 = DIRECTION ( 'NONE',  ( 0.000000000000000000, 0.000000000000000000, 1.000000000000000000 ) ) ;
#278 = CARTESIAN_POINT ( 'NONE',  ( 2.250000000000000000, 2.755455298081544285E-16, 0.000000000000000000 ) ) ;
#279 = AXIS2_PLACEMENT_3D ( 'NONE', #315, #290, #23 ) ;
#280 = AXIS2_PLACEMENT_3D ( 'NONE', #97, #275, #351 ) ;
#281 = CC_DESIGN_APPROVAL ( #165, ( #30 ) ) ;
#282 = CARTESIAN_POINT ( 'NONE',  ( 0.000000000000000000, 0.000000000000000000, 5.499999999999949374 ) ) ;
#283 = ORIENTED_EDGE ( 'NONE', *, *, #9, .T. ) ;
#284 = CARTESIAN_POINT ( 'NONE',  ( 0.000000000000000000, 0.000000000000000000, 0.000000000000000000 ) ) ;
#285 = ORIENTED_EDGE ( 'NONE', *, *, #191, .T. ) ;
#286 = VECTOR ( 'NONE', #301, 1000.000000000000000 ) ;
#287 = VECTOR ( 'NONE', #182, 1000.000000000000000 ) ;
#288 = AXIS2_PLACEMENT_3D ( 'NONE', #326, #355, #211 ) ;
#289 = AXIS2_PLACEMENT_3D ( 'NONE', #37, #334, #189 ) ;
#290 = DIRECTION ( 'NONE',  ( -0.000000000000000000, -0.000000000000000000, -1.000000000000000000 ) ) ;
#291 = APPROVAL ( #124, 'NEURÈENÝ' ) ;
#292 = PERSON_AND_ORGANIZATION ( #166, #20 ) ;
#293 = VERTEX_POINT ( 'NONE', #135 ) ;
#294 = ORIENTED_EDGE ( 'NONE', *, *, #69, .F. ) ;
#295 = PERSON_AND_ORGANIZATION ( #166, #20 ) ;
#296 = DIRECTION ( 'NONE',  ( -0.000000000000000000, -0.000000000000000000, -1.000000000000000000 ) ) ;
#297 = SHAPE_DEFINITION_REPRESENTATION ( #261, #204 ) ;
#298 = FACE_OUTER_BOUND ( 'NONE', #197, .T. ) ;
#299 = PERSON_AND_ORGANIZATION ( #166, #20 ) ;
#300 = CARTESIAN_POINT ( 'NONE',  ( 4.000000000000000000, 4.898587196589412829E-16, 555.0000000000000000 ) ) ;
#301 = DIRECTION ( 'NONE',  ( -0.000000000000000000, -0.000000000000000000, -1.000000000000000000 ) ) ;
#302 = LINE ( 'NONE', #153, #226 ) ;
#303 = DIRECTION ( 'NONE',  ( 1.000000000000000000, 0.000000000000000000, 0.000000000000000000 ) ) ;
#304 = VERTEX_POINT ( 'NONE', #168 ) ;
#305 = DIRECTION ( 'NONE',  ( 0.000000000000000000, 0.000000000000000000, 1.000000000000000000 ) ) ;
#306 = MANIFOLD_SOLID_BREP ( 'Odebrat vysunutím3', #159 ) ;
#307 = CARTESIAN_POINT ( 'NONE',  ( -4.500000000000000888, 5.510910596163088569E-16, 4.999999999999975131 ) ) ;
#308 = CARTESIAN_POINT ( 'NONE',  ( 0.000000000000000000, 0.000000000000000000, 5.000000000000000000 ) ) ;
#309 = LOCAL_TIME ( 17, 22, 39.00000000000000000, #48 ) ;
#310 = COORDINATED_UNIVERSAL_TIME_OFFSET ( 1, 0, .AHEAD. ) ;
#311 = EDGE_LOOP ( 'NONE', ( #259, #190, #25, #147 ) ) ;
#312 =( NAMED_UNIT ( * ) PLANE_ANGLE_UNIT ( ) SI_UNIT ( $, .RADIAN. ) );
#313 = ORIENTED_EDGE ( 'NONE', *, *, #172, .T. ) ;
#314 = LOCAL_TIME ( 17, 22, 39.00000000000000000, #207 ) ;
#315 = CARTESIAN_POINT ( 'NONE',  ( 0.000000000000000000, 0.000000000000000000, 555.0000000000000000 ) ) ;
#316 = APPROVAL_DATE_TIME ( #52, #165 ) ;
#317 = ORIENTED_EDGE ( 'NONE', *, *, #41, .T. ) ;
#318 = PERSON_AND_ORGANIZATION_ROLE ( 'design_supplier' ) ;
#319 = PERSON_AND_ORGANIZATION ( #166, #20 ) ;
#320 = CIRCLE ( 'NONE', #280, 4.500000000000000888 ) ;
#321 = DIRECTION ( 'NONE',  ( 1.000000000000000000, 0.000000000000000000, 0.000000000000000000 ) ) ;
#322 = AXIS2_PLACEMENT_3D ( 'NONE', #54, #232, #22 ) ;
#323 = EDGE_CURVE ( 'NONE', #293, #255, #256, .T. ) ;
#324 = FACE_OUTER_BOUND ( 'NONE', #266, .T. ) ;
#325 = DATE_TIME_ROLE ( 'classification_date' ) ;
#326 = CARTESIAN_POINT ( 'NONE',  ( 0.000000000000000000, 0.000000000000000000, 555.0000000000000000 ) ) ;
#327 = AXIS2_PLACEMENT_3D ( 'NONE', #64, #181, #154 ) ;
#328 = AXIS2_PLACEMENT_3D ( 'NONE', #192, #88, #372 ) ;
#329 = CC_DESIGN_DATE_AND_TIME_ASSIGNMENT ( #230, #342, ( #30 ) ) ;
#330 = FACE_OUTER_BOUND ( 'NONE', #333, .T. ) ;
#331 = DIRECTION ( 'NONE',  ( 0.000000000000000000, 0.000000000000000000, -1.000000000000000000 ) ) ;
#332 = ADVANCED_FACE ( 'NONE', ( #369, #338 ), #40, .F. ) ;
#333 = EDGE_LOOP ( 'NONE', ( #24, #38 ) ) ;
#334 = DIRECTION ( 'NONE',  ( 0.000000000000000000, 0.000000000000000000, 1.000000000000000000 ) ) ;
#335 = VERTEX_POINT ( 'NONE', #139 ) ;
#336 = DIRECTION ( 'NONE',  ( 1.000000000000000000, 0.000000000000000000, 0.000000000000000000 ) ) ;
#337 = CC_DESIGN_PERSON_AND_ORGANIZATION_ASSIGNMENT ( #319, #152, ( #119 ) ) ;
#338 = FACE_OUTER_BOUND ( 'NONE', #349, .T. ) ;
#339 = VECTOR ( 'NONE', #246, 1000.000000000000000 ) ;
#340 = EDGE_CURVE ( 'NONE', #84, #293, #352, .T. ) ;
#341 = DIRECTION ( 'NONE',  ( -0.000000000000000000, -0.000000000000000000, -1.000000000000000000 ) ) ;
#342 = DATE_TIME_ROLE ( 'creation_date' ) ;
#343 = VERTEX_POINT ( 'NONE', #370 ) ;
#344 = APPLICATION_PROTOCOL_DEFINITION ( 'international standard', 'config_control_design', 1994, #209 ) ;
#345 = CC_DESIGN_DATE_AND_TIME_ASSIGNMENT ( #59, #325, ( #119 ) ) ;
#346 = FACE_OUTER_BOUND ( 'NONE', #236, .T. ) ;
#347 = ORIENTED_EDGE ( 'NONE', *, *, #348, .T. ) ;
#348 = EDGE_CURVE ( 'NONE', #260, #304, #33, .T. ) ;
#349 = EDGE_LOOP ( 'NONE', ( #50, #164 ) ) ;
#350 = CC_DESIGN_PERSON_AND_ORGANIZATION_ASSIGNMENT ( #205, #85, ( #267 ) ) ;
#351 = DIRECTION ( 'NONE',  ( 1.000000000000000000, 0.000000000000000000, 0.000000000000000000 ) ) ;
#352 = CIRCLE ( 'NONE', #76, 0.5000000000000004441 ) ;
#353 = DIRECTION ( 'NONE',  ( 0.000000000000000000, 0.000000000000000000, 1.000000000000000000 ) ) ;
#354 = PERSON_AND_ORGANIZATION ( #166, #20 ) ;
#355 = DIRECTION ( 'NONE',  ( 0.000000000000000000, 0.000000000000000000, 1.000000000000000000 ) ) ;
#356 = CC_DESIGN_PERSON_AND_ORGANIZATION_ASSIGNMENT ( #295, #210, ( #112 ) ) ;
#357 = DIRECTION ( 'NONE',  ( 1.224646799147353207E-16, 1.000000000000000000, -0.000000000000000000 ) ) ;
#358 = AXIS2_PLACEMENT_3D ( 'NONE', #364, #193, #303 ) ;
#359 = CIRCLE ( 'NONE', #289, 7.000000000000000000 ) ;
#360 = PRODUCT_RELATED_PRODUCT_CATEGORY ( 'detail', '', ( #267 ) ) ;
#361 = ADVANCED_FACE ( 'NONE', ( #195 ), #222, .F. ) ;
#362 = EDGE_CURVE ( 'NONE', #263, #202, #51, .T. ) ;
#363 = CARTESIAN_POINT ( 'NONE',  ( 4.500000000000000888, 0.000000000000000000, 5.499999999999949374 ) ) ;
#364 = CARTESIAN_POINT ( 'NONE',  ( 0.000000000000000000, 0.000000000000000000, 0.000000000000000000 ) ) ;
#365 = ORIENTED_EDGE ( 'NONE', *, *, #239, .T. ) ;
#366 = DIRECTION ( 'NONE',  ( 1.000000000000000000, 0.000000000000000000, 0.000000000000000000 ) ) ;
#367 = EDGE_CURVE ( 'NONE', #19, #335, #359, .T. ) ;
#368 = APPROVAL_PERSON_ORGANIZATION ( #354, #291, #61 ) ;
#369 = FACE_BOUND ( 'NONE', #208, .T. ) ;
#370 = CARTESIAN_POINT ( 'NONE',  ( -4.000000000000000000, 0.000000000000000000, 5.499999999999949374 ) ) ;
#371 = ORIENTED_EDGE ( 'NONE', *, *, #234, .F. ) ;
#372 = DIRECTION ( 'NONE',  ( -1.000000000000000000, 0.000000000000000000, 0.000000000000000000 ) ) ;
#373 = AXIS2_PLACEMENT_3D ( 'NONE', #188, #36, #158 ) ;
#374 = VERTEX_POINT ( 'NONE', #167 ) ;
#375 = ORIENTED_EDGE ( 'NONE', *, *, #239, .F. ) ;
#376 = EDGE_CURVE ( 'NONE', #84, #343, #237, .T. ) ;
#377 = ORIENTED_EDGE ( 'NONE', *, *, #73, .F. ) ;
#378 = APPROVAL_ROLE ( '' ) ;
#379 = ADVANCED_FACE ( 'NONE', ( #104 ), #223, .F. ) ;
#380 = ADVANCED_FACE ( 'NONE', ( #45, #200 ), #116, .T. ) ;
#381 = EDGE_LOOP ( 'NONE', ( #254, #199, #365, #21 ) ) ;
ENDSEC;
END-ISO-10303-21;
