ISO-10303-21;
HEADER;
FILE_DESCRIPTION (( 'STEP AP203' ),
    '1' );
FILE_NAME ('25c0.STEP',
    '2022-07-08T14:42:41',
    ( '' ),
    ( '' ),
    'SwSTEP 2.0',
    'SolidWorks 2019',
    '' );
FILE_SCHEMA (( 'CONFIG_CONTROL_DESIGN' ));
ENDSEC;

DATA;
#1 = EDGE_LOOP ( 'NONE', ( #15, #95 ) ) ;
#2 = ADVANCED_FACE ( 'NONE', ( #34 ), #8, .F. ) ;
#3 = APPROVAL_DATE_TIME ( #381, #183 ) ;
#4 = PERSON_AND_ORGANIZATION ( #351, #359 ) ;
#5 = VERTEX_POINT ( 'NONE', #275 ) ;
#6 = LOCAL_TIME ( 16, 42, 41.00000000000000000, #26 ) ;
#7 = EDGE_CURVE ( 'NONE', #38, #219, #132, .T. ) ;
#8 = CYLINDRICAL_SURFACE ( 'NONE', #48, 3.250000000000000444 ) ;
#9 = DIRECTION ( 'NONE',  ( 1.000000000000000000, 0.000000000000000000, 0.000000000000000000 ) ) ;
#10 = CYLINDRICAL_SURFACE ( 'NONE', #94, 6.000000000000000888 ) ;
#11 = DIRECTION ( 'NONE',  ( 1.000000000000000000, 0.000000000000000000, 0.000000000000000000 ) ) ;
#12 = CARTESIAN_POINT ( 'NONE',  ( 3.250000000000000444, 3.980102097228897245E-16, 207.0000000000000284 ) ) ;
#13 = DIRECTION ( 'NONE',  ( -0.000000000000000000, -0.000000000000000000, -1.000000000000000000 ) ) ;
#14 = AXIS2_PLACEMENT_3D ( 'NONE', #254, #283, #177 ) ;
#15 = ORIENTED_EDGE ( 'NONE', *, *, #256, .F. ) ;
#16 = CARTESIAN_POINT ( 'NONE',  ( 0.000000000000000000, 0.000000000000000000, 207.0000000000000284 ) ) ;
#17 = DIRECTION ( 'NONE',  ( -0.000000000000000000, -0.000000000000000000, -1.000000000000000000 ) ) ;
#18 = CARTESIAN_POINT ( 'NONE',  ( 0.000000000000000000, 0.000000000000000000, 207.0000000000000284 ) ) ;
#19 = AXIS2_PLACEMENT_3D ( 'NONE', #376, #141, #312 ) ;
#20 = CARTESIAN_POINT ( 'NONE',  ( -10.00000000000000000, 0.000000000000000000, 7.000000000000000000 ) ) ;
#21 = PLANE ( 'NONE',  #19 ) ;
#22 = ADVANCED_FACE ( 'NONE', ( #134 ), #217, .F. ) ;
#23 = ADVANCED_FACE ( 'NONE', ( #220 ), #10, .T. ) ;
#24 = PERSON_AND_ORGANIZATION ( #351, #359 ) ;
#25 = AXIS2_PLACEMENT_3D ( 'NONE', #16, #347, #344 ) ;
#26 = COORDINATED_UNIVERSAL_TIME_OFFSET ( 1, 0, .AHEAD. ) ;
#27 = ORIENTED_EDGE ( 'NONE', *, *, #321, .T. ) ;
#28 = ORIENTED_EDGE ( 'NONE', *, *, #118, .F. ) ;
#29 = ORIENTED_EDGE ( 'NONE', *, *, #118, .T. ) ;
#30 = CIRCLE ( 'NONE', #322, 6.500000000000000888 ) ;
#31 = PERSON_AND_ORGANIZATION ( #351, #359 ) ;
#32 = ORIENTED_EDGE ( 'NONE', *, *, #330, .F. ) ;
#33 = VERTEX_POINT ( 'NONE', #199 ) ;
#34 = FACE_OUTER_BOUND ( 'NONE', #130, .T. ) ;
#35 = CIRCLE ( 'NONE', #258, 6.000000000000000888 ) ;
#36 = DIRECTION ( 'NONE',  ( 1.000000000000000000, 0.000000000000000000, 0.000000000000000000 ) ) ;
#37 = CC_DESIGN_DATE_AND_TIME_ASSIGNMENT ( #375, #115, ( #366 ) ) ;
#38 = VERTEX_POINT ( 'NONE', #189 ) ;
#39 = CARTESIAN_POINT ( 'NONE',  ( 0.000000000000000000, 0.000000000000000000, 7.500000000000007105 ) ) ;
#40 = EDGE_CURVE ( 'NONE', #185, #124, #308, .T. ) ;
#41 = DIRECTION ( 'NONE',  ( 0.000000000000000000, 0.000000000000000000, -1.000000000000000000 ) ) ;
#42 = CARTESIAN_POINT ( 'NONE',  ( -10.00000000000000000, 0.000000000000000000, 7.000000000000000000 ) ) ;
#43 = AXIS2_PLACEMENT_3D ( 'NONE', #39, #131, #101 ) ;
#44 = DIRECTION ( 'NONE',  ( 0.000000000000000000, 0.000000000000000000, 1.000000000000000000 ) ) ;
#45 = UNCERTAINTY_MEASURE_WITH_UNIT (LENGTH_MEASURE( 1.000000000000000082E-05 ), #313, 'distance_accuracy_value', 'NONE');
#46 = CARTESIAN_POINT ( 'NONE',  ( 10.00000000000000000, 1.224646799147353256E-15, 0.000000000000000000 ) ) ;
#47 = CARTESIAN_POINT ( 'NONE',  ( 0.000000000000000000, 0.000000000000000000, 207.0000000000000284 ) ) ;
#48 = AXIS2_PLACEMENT_3D ( 'NONE', #329, #41, #158 ) ;
#49 = APPROVAL_PERSON_ORGANIZATION ( #51, #64, #236 ) ;
#50 = CARTESIAN_POINT ( 'NONE',  ( 0.000000000000000000, 0.000000000000000000, 207.0000000000000284 ) ) ;
#51 = PERSON_AND_ORGANIZATION ( #351, #359 ) ;
#52 = DIRECTION ( 'NONE',  ( 0.000000000000000000, 0.000000000000000000, 1.000000000000000000 ) ) ;
#53 = ADVANCED_FACE ( 'NONE', ( #365 ), #197, .T. ) ;
#54 = COORDINATED_UNIVERSAL_TIME_OFFSET ( 1, 0, .AHEAD. ) ;
#55 = SECURITY_CLASSIFICATION ( '', '', #184 ) ;
#56 = ORIENTED_EDGE ( 'NONE', *, *, #318, .T. ) ;
#57 = EDGE_CURVE ( 'NONE', #33, #161, #127, .T. ) ;
#58 = EDGE_LOOP ( 'NONE', ( #271, #150, #243, #27 ) ) ;
#59 = ORIENTED_EDGE ( 'NONE', *, *, #69, .T. ) ;
#60 = VECTOR ( 'NONE', #311, 1000.000000000000000 ) ;
#61 = ADVANCED_FACE ( 'NONE', ( #73 ), #163, .F. ) ;
#62 = APPROVAL_STATUS ( 'not_yet_approved' ) ;
#63 = CARTESIAN_POINT ( 'NONE',  ( 0.000000000000000000, 0.000000000000000000, 207.0000000000000284 ) ) ;
#64 = APPROVAL ( #62, 'NEURÈENÝ' ) ;
#65 = CARTESIAN_POINT ( 'NONE',  ( -3.250000000000000444, 0.000000000000000000, 207.0000000000000284 ) ) ;
#66 = EDGE_LOOP ( 'NONE', ( #90, #352 ) ) ;
#67 = CIRCLE ( 'NONE', #380, 6.500000000000000888 ) ;
#68 = CIRCLE ( 'NONE', #119, 0.5000000000000004441 ) ;
#69 = EDGE_CURVE ( 'NONE', #270, #219, #263, .T. ) ;
#70 = FACE_OUTER_BOUND ( 'NONE', #182, .T. ) ;
#71 = DIRECTION ( 'NONE',  ( 0.000000000000000000, 0.000000000000000000, 1.000000000000000000 ) ) ;
#72 = MANIFOLD_SOLID_BREP ( 'Odebrat vysunutím3', #175 ) ;
#73 = FACE_OUTER_BOUND ( 'NONE', #215, .T. ) ;
#74 = CARTESIAN_POINT ( 'NONE',  ( -6.000000000000000888, 0.000000000000000000, 207.0000000000000284 ) ) ;
#75 = ORIENTED_EDGE ( 'NONE', *, *, #328, .T. ) ;
#76 = PRODUCT_RELATED_PRODUCT_CATEGORY ( 'detail', '', ( #293 ) ) ;
#77 = CARTESIAN_POINT ( 'NONE',  ( -3.250000000000000444, 0.000000000000000000, 0.000000000000000000 ) ) ;
#78 = VECTOR ( 'NONE', #137, 1000.000000000000000 ) ;
#79 = MECHANICAL_CONTEXT ( 'NONE', #343, 'mechanical' ) ;
#80 = CARTESIAN_POINT ( 'NONE',  ( 0.000000000000000000, 0.000000000000000000, 7.000000000000000000 ) ) ;
#81 =( NAMED_UNIT ( * ) SI_UNIT ( $, .STERADIAN. ) SOLID_ANGLE_UNIT ( ) );
#82 = CARTESIAN_POINT ( 'NONE',  ( -3.250000000000000444, 0.000000000000000000, 207.0000000000000284 ) ) ;
#83 = PERSON_AND_ORGANIZATION ( #351, #359 ) ;
#84 = AXIS2_PLACEMENT_3D ( 'NONE', #261, #341, #173 ) ;
#85 = DIRECTION ( 'NONE',  ( 1.000000000000000000, 0.000000000000000000, 0.000000000000000000 ) ) ;
#86 = PERSON_AND_ORGANIZATION ( #351, #359 ) ;
#87 = ORIENTED_EDGE ( 'NONE', *, *, #349, .F. ) ;
#88 =( GEOMETRIC_REPRESENTATION_CONTEXT ( 3 ) GLOBAL_UNCERTAINTY_ASSIGNED_CONTEXT ( ( #45 ) ) GLOBAL_UNIT_ASSIGNED_CONTEXT ( ( #313, #203, #81 ) ) REPRESENTATION_CONTEXT ( 'NONE', 'WORKASPACE' ) );
#89 = EDGE_LOOP ( 'NONE', ( #128, #75, #299, #32 ) ) ;
#90 = ORIENTED_EDGE ( 'NONE', *, *, #349, .T. ) ;
#91 = PERSON_AND_ORGANIZATION_ROLE ( 'design_supplier' ) ;
#92 = VERTEX_POINT ( 'NONE', #46 ) ;
#93 = ADVANCED_FACE ( 'NONE', ( #285, #259 ), #21, .F. ) ;
#94 = AXIS2_PLACEMENT_3D ( 'NONE', #63, #99, #273 ) ;
#95 = ORIENTED_EDGE ( 'NONE', *, *, #378, .F. ) ;
#96 = TOROIDAL_SURFACE ( 'NONE', #121, 6.500000000000000888, 0.5000000000000000000 ) ;
#97 = CALENDAR_DATE ( 2022, 8, 7 ) ;
#98 = ORIENTED_EDGE ( 'NONE', *, *, #57, .F. ) ;
#99 = DIRECTION ( 'NONE',  ( -0.000000000000000000, -0.000000000000000000, -1.000000000000000000 ) ) ;
#100 = EDGE_CURVE ( 'NONE', #219, #270, #200, .T. ) ;
#101 = DIRECTION ( 'NONE',  ( 1.000000000000000000, 0.000000000000000000, 0.000000000000000000 ) ) ;
#102 = CARTESIAN_POINT ( 'NONE',  ( 0.000000000000000000, 0.000000000000000000, 7.000000000000000000 ) ) ;
#103 = CIRCLE ( 'NONE', #142, 6.000000000000000888 ) ;
#104 = CARTESIAN_POINT ( 'NONE',  ( 3.250000000000000444, 3.980102097228897245E-16, 0.000000000000000000 ) ) ;
#105 = CARTESIAN_POINT ( 'NONE',  ( 0.000000000000000000, 0.000000000000000000, 207.0000000000000284 ) ) ;
#106 = CARTESIAN_POINT ( 'NONE',  ( 6.000000000000000888, 7.347880794884120722E-16, 7.500000000000007105 ) ) ;
#107 = EDGE_CURVE ( 'NONE', #33, #92, #114, .T. ) ;
#108 = ORIENTED_EDGE ( 'NONE', *, *, #241, .T. ) ;
#109 = DIRECTION ( 'NONE',  ( 0.000000000000000000, 0.000000000000000000, 1.000000000000000000 ) ) ;
#110 = FACE_OUTER_BOUND ( 'NONE', #369, .T. ) ;
#111 = DIRECTION ( 'NONE',  ( 0.000000000000000000, 0.000000000000000000, 1.000000000000000000 ) ) ;
#112 = CIRCLE ( 'NONE', #84, 10.00000000000000000 ) ;
#113 = FACE_BOUND ( 'NONE', #66, .T. ) ;
#114 = LINE ( 'NONE', #316, #249 ) ;
#115 = DATE_TIME_ROLE ( 'creation_date' ) ;
#116 = DIRECTION ( 'NONE',  ( 1.000000000000000000, 0.000000000000000000, 0.000000000000000000 ) ) ;
#117 = DIRECTION ( 'NONE',  ( 0.000000000000000000, 0.000000000000000000, 1.000000000000000000 ) ) ;
#118 = EDGE_CURVE ( 'NONE', #38, #187, #345, .T. ) ;
#119 = AXIS2_PLACEMENT_3D ( 'NONE', #367, #304, #334 ) ;
#120 = PERSON_AND_ORGANIZATION_ROLE ( 'classification_officer' ) ;
#121 = AXIS2_PLACEMENT_3D ( 'NONE', #364, #165, #370 ) ;
#122 = ORIENTED_EDGE ( 'NONE', *, *, #100, .F. ) ;
#123 = CC_DESIGN_PERSON_AND_ORGANIZATION_ASSIGNMENT ( #31, #91, ( #222 ) ) ;
#124 = VERTEX_POINT ( 'NONE', #202 ) ;
#125 = ORIENTED_EDGE ( 'NONE', *, *, #107, .F. ) ;
#126 = CC_DESIGN_PERSON_AND_ORGANIZATION_ASSIGNMENT ( #83, #260, ( #366 ) ) ;
#127 = CIRCLE ( 'NONE', #152, 10.00000000000000000 ) ;
#128 = ORIENTED_EDGE ( 'NONE', *, *, #194, .F. ) ;
#129 = APPROVAL_PERSON_ORGANIZATION ( #24, #360, #147 ) ;
#130 = EDGE_LOOP ( 'NONE', ( #108, #320, #171, #235 ) ) ;
#131 = DIRECTION ( 'NONE',  ( 0.000000000000000000, 0.000000000000000000, 1.000000000000000000 ) ) ;
#132 = LINE ( 'NONE', #12, #377 ) ;
#133 = CARTESIAN_POINT ( 'NONE',  ( 6.500000000000000888, 0.000000000000000000, 7.000000000000002665 ) ) ;
#134 = FACE_OUTER_BOUND ( 'NONE', #191, .T. ) ;
#135 = AXIS2_PLACEMENT_3D ( 'NONE', #205, #340, #374 ) ;
#136 = DIRECTION ( 'NONE',  ( 0.000000000000000000, 0.000000000000000000, 1.000000000000000000 ) ) ;
#137 = DIRECTION ( 'NONE',  ( -0.000000000000000000, -0.000000000000000000, -1.000000000000000000 ) ) ;
#138 = EDGE_CURVE ( 'NONE', #161, #33, #112, .T. ) ;
#139 = FACE_BOUND ( 'NONE', #298, .T. ) ;
#140 = DIRECTION ( 'NONE',  ( -0.000000000000000000, -0.000000000000000000, -1.000000000000000000 ) ) ;
#141 = DIRECTION ( 'NONE',  ( 0.000000000000000000, 0.000000000000000000, 1.000000000000000000 ) ) ;
#142 = AXIS2_PLACEMENT_3D ( 'NONE', #47, #143, #176 ) ;
#143 = DIRECTION ( 'NONE',  ( 0.000000000000000000, 0.000000000000000000, 1.000000000000000000 ) ) ;
#144 = APPROVAL_DATE_TIME ( #291, #360 ) ;
#145 = ADVANCED_FACE ( 'NONE', ( #139, #257 ), #209, .T. ) ;
#146 = CARTESIAN_POINT ( 'NONE',  ( 0.000000000000000000, 0.000000000000000000, 0.000000000000000000 ) ) ;
#147 = APPROVAL_ROLE ( '' ) ;
#148 = EDGE_LOOP ( 'NONE', ( #252, #307 ) ) ;
#149 = APPROVAL_DATE_TIME ( #267, #64 ) ;
#150 = ORIENTED_EDGE ( 'NONE', *, *, #168, .F. ) ;
#151 = COORDINATED_UNIVERSAL_TIME_OFFSET ( 1, 0, .AHEAD. ) ;
#152 = AXIS2_PLACEMENT_3D ( 'NONE', #195, #305, #368 ) ;
#153 = COORDINATED_UNIVERSAL_TIME_OFFSET ( 1, 0, .AHEAD. ) ;
#154 = ORIENTED_EDGE ( 'NONE', *, *, #40, .T. ) ;
#155 = ADVANCED_FACE ( 'NONE', ( #113, #110 ), #288, .T. ) ;
#156 = PERSON_AND_ORGANIZATION ( #351, #359 ) ;
#157 = ORIENTED_EDGE ( 'NONE', *, *, #7, .F. ) ;
#158 = DIRECTION ( 'NONE',  ( -1.000000000000000000, 0.000000000000000000, 0.000000000000000000 ) ) ;
#159 = CIRCLE ( 'NONE', #43, 6.000000000000000888 ) ;
#160 = DIRECTION ( 'NONE',  ( 0.000000000000000000, 0.000000000000000000, 1.000000000000000000 ) ) ;
#161 = VERTEX_POINT ( 'NONE', #20 ) ;
#162 = CARTESIAN_POINT ( 'NONE',  ( -10.00000000000000000, 0.000000000000000000, 0.000000000000000000 ) ) ;
#163 = CYLINDRICAL_SURFACE ( 'NONE', #212, 3.250000000000000444 ) ;
#164 = CC_DESIGN_DATE_AND_TIME_ASSIGNMENT ( #327, #324, ( #55 ) ) ;
#165 = DIRECTION ( 'NONE',  ( 0.000000000000000000, 0.000000000000000000, 1.000000000000000000 ) ) ;
#166 = ORIENTED_EDGE ( 'NONE', *, *, #40, .F. ) ;
#167 = DESIGN_CONTEXT ( 'detailed design', #372, 'design' ) ;
#168 = EDGE_CURVE ( 'NONE', #5, #186, #103, .T. ) ;
#169 = CIRCLE ( 'NONE', #242, 10.00000000000000000 ) ;
#170 = DIRECTION ( 'NONE',  ( 1.000000000000000000, 0.000000000000000000, 0.000000000000000000 ) ) ;
#171 = ORIENTED_EDGE ( 'NONE', *, *, #100, .T. ) ;
#172 = ADVANCED_BREP_SHAPE_REPRESENTATION ( '25c0', ( #72, #309 ), #88 ) ;
#173 = DIRECTION ( 'NONE',  ( 1.000000000000000000, 0.000000000000000000, 0.000000000000000000 ) ) ;
#174 = DIRECTION ( 'NONE',  ( 1.000000000000000000, 0.000000000000000000, 0.000000000000000000 ) ) ;
#175 = CLOSED_SHELL ( 'NONE', ( #2, #210, #371, #53, #226, #155, #93, #23, #145, #22, #61 ) ) ;
#176 = DIRECTION ( 'NONE',  ( 1.000000000000000000, 0.000000000000000000, 0.000000000000000000 ) ) ;
#177 = DIRECTION ( 'NONE',  ( 1.000000000000000000, 0.000000000000000000, -0.000000000000000000 ) ) ;
#178 = PERSON_AND_ORGANIZATION_ROLE ( 'design_owner' ) ;
#179 = CALENDAR_DATE ( 2022, 8, 7 ) ;
#180 = CC_DESIGN_APPROVAL ( #360, ( #366 ) ) ;
#181 = CC_DESIGN_APPROVAL ( #183, ( #55 ) ) ;
#182 = EDGE_LOOP ( 'NONE', ( #125, #292, #282, #323 ) ) ;
#183 = APPROVAL ( #350, 'NEURÈENÝ' ) ;
#184 = SECURITY_CLASSIFICATION_LEVEL ( 'unclassified' ) ;
#185 = VERTEX_POINT ( 'NONE', #231 ) ;
#186 = VERTEX_POINT ( 'NONE', #342 ) ;
#187 = VERTEX_POINT ( 'NONE', #82 ) ;
#188 = PERSON_AND_ORGANIZATION_ROLE ( 'creator' ) ;
#189 = CARTESIAN_POINT ( 'NONE',  ( 3.250000000000000444, 3.980102097228897245E-16, 207.0000000000000284 ) ) ;
#190 = DIRECTION ( 'NONE',  ( 0.000000000000000000, 0.000000000000000000, -1.000000000000000000 ) ) ;
#191 = EDGE_LOOP ( 'NONE', ( #166, #269, #303, #213 ) ) ;
#192 = AXIS2_PLACEMENT_3D ( 'NONE', #50, #109, #170 ) ;
#193 = CARTESIAN_POINT ( 'NONE',  ( 0.000000000000000000, 0.000000000000000000, 7.000000000000000000 ) ) ;
#194 = EDGE_CURVE ( 'NONE', #186, #5, #279, .T. ) ;
#195 = CARTESIAN_POINT ( 'NONE',  ( 0.000000000000000000, 0.000000000000000000, 7.000000000000000000 ) ) ;
#196 = CARTESIAN_POINT ( 'NONE',  ( 0.000000000000000000, 0.000000000000000000, 7.500000000000007105 ) ) ;
#197 = CYLINDRICAL_SURFACE ( 'NONE', #272, 10.00000000000000000 ) ;
#198 = CYLINDRICAL_SURFACE ( 'NONE', #25, 6.000000000000000888 ) ;
#199 = CARTESIAN_POINT ( 'NONE',  ( 10.00000000000000000, 1.224646799147353256E-15, 7.000000000000000000 ) ) ;
#200 = CIRCLE ( 'NONE', #135, 3.250000000000000444 ) ;
#201 = LINE ( 'NONE', #42, #60 ) ;
#202 = CARTESIAN_POINT ( 'NONE',  ( -6.500000000000000888, 7.960204194457796463E-16, 7.000000000000002665 ) ) ;
#203 =( NAMED_UNIT ( * ) PLANE_ANGLE_UNIT ( ) SI_UNIT ( $, .RADIAN. ) );
#204 = DIRECTION ( 'NONE',  ( 0.000000000000000000, 0.000000000000000000, 1.000000000000000000 ) ) ;
#205 = CARTESIAN_POINT ( 'NONE',  ( 0.000000000000000000, 0.000000000000000000, 0.000000000000000000 ) ) ;
#206 = AXIS2_PLACEMENT_3D ( 'NONE', #250, #247, #363 ) ;
#207 = AXIS2_PLACEMENT_3D ( 'NONE', #80, #204, #314 ) ;
#208 = LOCAL_TIME ( 16, 42, 41.00000000000000000, #153 ) ;
#209 = PLANE ( 'NONE',  #14 ) ;
#210 = ADVANCED_FACE ( 'NONE', ( #331 ), #96, .F. ) ;
#211 = APPROVAL_STATUS ( 'not_yet_approved' ) ;
#212 = AXIS2_PLACEMENT_3D ( 'NONE', #105, #335, #287 ) ;
#213 = ORIENTED_EDGE ( 'NONE', *, *, #230, .F. ) ;
#214 = EDGE_CURVE ( 'NONE', #355, #325, #68, .T. ) ;
#215 = EDGE_LOOP ( 'NONE', ( #157, #29, #56, #59 ) ) ;
#216 = ORIENTED_EDGE ( 'NONE', *, *, #107, .T. ) ;
#217 = TOROIDAL_SURFACE ( 'NONE', #266, 6.500000000000000888, 0.5000000000000000000 ) ;
#218 = CC_DESIGN_SECURITY_CLASSIFICATION ( #55, ( #222 ) ) ;
#219 = VERTEX_POINT ( 'NONE', #104 ) ;
#220 = FACE_OUTER_BOUND ( 'NONE', #58, .T. ) ;
#221 = LINE ( 'NONE', #65, #290 ) ;
#222 = PRODUCT_DEFINITION_FORMATION_WITH_SPECIFIED_SOURCE ( 'LIBOVOLNÝ', '', #293, .NOT_KNOWN. ) ;
#223 = DIRECTION ( 'NONE',  ( -0.000000000000000000, -0.000000000000000000, -1.000000000000000000 ) ) ;
#224 = CARTESIAN_POINT ( 'NONE',  ( 0.000000000000000000, 0.000000000000000000, 7.000000000000000000 ) ) ;
#225 = FACE_OUTER_BOUND ( 'NONE', #89, .T. ) ;
#226 = ADVANCED_FACE ( 'NONE', ( #70 ), #276, .T. ) ;
#227 = ORIENTED_EDGE ( 'NONE', *, *, #214, .F. ) ;
#228 = LOCAL_TIME ( 16, 42, 41.00000000000000000, #151 ) ;
#229 = CARTESIAN_POINT ( 'NONE',  ( 0.000000000000000000, 0.000000000000000000, 207.0000000000000284 ) ) ;
#230 = EDGE_CURVE ( 'NONE', #124, #325, #30, .T. ) ;
#231 = CARTESIAN_POINT ( 'NONE',  ( -6.000000000000000888, 0.000000000000000000, 7.500000000000007105 ) ) ;
#232 = DIRECTION ( 'NONE',  ( -0.000000000000000000, -0.000000000000000000, -1.000000000000000000 ) ) ;
#233 = AXIS2_PLACEMENT_3D ( 'NONE', #146, #232, #116 ) ;
#234 = CC_DESIGN_PERSON_AND_ORGANIZATION_ASSIGNMENT ( #4, #120, ( #55 ) ) ;
#235 = ORIENTED_EDGE ( 'NONE', *, *, #318, .F. ) ;
#236 = APPROVAL_ROLE ( '' ) ;
#237 = AXIS2_PLACEMENT_3D ( 'NONE', #224, #140, #278 ) ;
#238 = APPROVAL_PERSON_ORGANIZATION ( #264, #183, #354 ) ;
#239 = ORIENTED_EDGE ( 'NONE', *, *, #315, .F. ) ;
#240 = ORIENTED_EDGE ( 'NONE', *, *, #57, .T. ) ;
#241 = EDGE_CURVE ( 'NONE', #187, #38, #317, .T. ) ;
#242 = AXIS2_PLACEMENT_3D ( 'NONE', #319, #117, #174 ) ;
#243 = ORIENTED_EDGE ( 'NONE', *, *, #330, .T. ) ;
#244 = DIRECTION ( 'NONE',  ( 0.000000000000000000, 0.000000000000000000, -1.000000000000000000 ) ) ;
#245 = CC_DESIGN_PERSON_AND_ORGANIZATION_ASSIGNMENT ( #156, #188, ( #222 ) ) ;
#246 = DIRECTION ( 'NONE',  ( -0.000000000000000000, -0.000000000000000000, -1.000000000000000000 ) ) ;
#247 = DIRECTION ( 'NONE',  ( 1.224646799147353207E-16, 1.000000000000000000, -0.000000000000000000 ) ) ;
#248 = EDGE_CURVE ( 'NONE', #355, #185, #159, .T. ) ;
#249 = VECTOR ( 'NONE', #17, 1000.000000000000000 ) ;
#250 = CARTESIAN_POINT ( 'NONE',  ( -6.500000000000000888, 7.960204194457796463E-16, 7.500000000000007105 ) ) ;
#251 = LINE ( 'NONE', #281, #78 ) ;
#252 = ORIENTED_EDGE ( 'NONE', *, *, #168, .T. ) ;
#253 = DIRECTION ( 'NONE',  ( -0.000000000000000000, -0.000000000000000000, -1.000000000000000000 ) ) ;
#254 = CARTESIAN_POINT ( 'NONE',  ( 0.000000000000000000, 0.000000000000000000, 207.0000000000000284 ) ) ;
#255 = CARTESIAN_POINT ( 'NONE',  ( 0.000000000000000000, 0.000000000000000000, 0.000000000000000000 ) ) ;
#256 = EDGE_CURVE ( 'NONE', #310, #92, #297, .T. ) ;
#257 = FACE_OUTER_BOUND ( 'NONE', #148, .T. ) ;
#258 = AXIS2_PLACEMENT_3D ( 'NONE', #196, #160, #11 ) ;
#259 = FACE_OUTER_BOUND ( 'NONE', #1, .T. ) ;
#260 = PERSON_AND_ORGANIZATION_ROLE ( 'creator' ) ;
#261 = CARTESIAN_POINT ( 'NONE',  ( 0.000000000000000000, 0.000000000000000000, 7.000000000000000000 ) ) ;
#262 = APPLICATION_PROTOCOL_DEFINITION ( 'international standard', 'config_control_design', 1994, #343 ) ;
#263 = CIRCLE ( 'NONE', #233, 3.250000000000000444 ) ;
#264 = PERSON_AND_ORGANIZATION ( #351, #359 ) ;
#265 = ORIENTED_EDGE ( 'NONE', *, *, #138, .T. ) ;
#266 = AXIS2_PLACEMENT_3D ( 'NONE', #280, #44, #361 ) ;
#267 = DATE_AND_TIME ( #356, #228 ) ;
#268 = CC_DESIGN_APPROVAL ( #64, ( #222 ) ) ;
#269 = ORIENTED_EDGE ( 'NONE', *, *, #248, .F. ) ;
#270 = VERTEX_POINT ( 'NONE', #77 ) ;
#271 = ORIENTED_EDGE ( 'NONE', *, *, #328, .F. ) ;
#272 = AXIS2_PLACEMENT_3D ( 'NONE', #102, #223, #333 ) ;
#273 = DIRECTION ( 'NONE',  ( -1.000000000000000000, 0.000000000000000000, 0.000000000000000000 ) ) ;
#274 = DIRECTION ( 'NONE',  ( 1.000000000000000000, 0.000000000000000000, 0.000000000000000000 ) ) ;
#275 = CARTESIAN_POINT ( 'NONE',  ( -6.000000000000000888, 0.000000000000000000, 207.0000000000000284 ) ) ;
#276 = CYLINDRICAL_SURFACE ( 'NONE', #237, 10.00000000000000000 ) ;
#277 = EDGE_LOOP ( 'NONE', ( #98, #216, #295, #239 ) ) ;
#278 = DIRECTION ( 'NONE',  ( -1.000000000000000000, 0.000000000000000000, 0.000000000000000000 ) ) ;
#279 = CIRCLE ( 'NONE', #192, 6.000000000000000888 ) ;
#280 = CARTESIAN_POINT ( 'NONE',  ( 0.000000000000000000, 0.000000000000000000, 7.500000000000007105 ) ) ;
#281 = CARTESIAN_POINT ( 'NONE',  ( 6.000000000000000888, 7.347880794884120722E-16, 207.0000000000000284 ) ) ;
#282 = ORIENTED_EDGE ( 'NONE', *, *, #315, .T. ) ;
#283 = DIRECTION ( 'NONE',  ( 0.000000000000000000, 0.000000000000000000, 1.000000000000000000 ) ) ;
#284 = CALENDAR_DATE ( 2022, 8, 7 ) ;
#285 = FACE_BOUND ( 'NONE', #326, .T. ) ;
#286 = VECTOR ( 'NONE', #246, 1000.000000000000000 ) ;
#287 = DIRECTION ( 'NONE',  ( -1.000000000000000000, 0.000000000000000000, 0.000000000000000000 ) ) ;
#288 = PLANE ( 'NONE',  #207 ) ;
#289 = APPLICATION_PROTOCOL_DEFINITION ( 'international standard', 'config_control_design', 1994, #372 ) ;
#290 = VECTOR ( 'NONE', #190, 1000.000000000000000 ) ;
#291 = DATE_AND_TIME ( #179, #339 ) ;
#292 = ORIENTED_EDGE ( 'NONE', *, *, #138, .F. ) ;
#293 = PRODUCT ( '25c0', '25c0', '', ( #79 ) ) ;
#294 = SHAPE_DEFINITION_REPRESENTATION ( #338, #172 ) ;
#295 = ORIENTED_EDGE ( 'NONE', *, *, #378, .T. ) ;
#296 = COORDINATED_UNIVERSAL_TIME_OFFSET ( 1, 0, .AHEAD. ) ;
#297 = CIRCLE ( 'NONE', #332, 10.00000000000000000 ) ;
#298 = EDGE_LOOP ( 'NONE', ( #336, #28 ) ) ;
#299 = ORIENTED_EDGE ( 'NONE', *, *, #248, .T. ) ;
#300 = CC_DESIGN_PERSON_AND_ORGANIZATION_ASSIGNMENT ( #86, #178, ( #293 ) ) ;
#301 = CARTESIAN_POINT ( 'NONE',  ( 0.000000000000000000, 0.000000000000000000, 7.000000000000000000 ) ) ;
#302 = LOCAL_TIME ( 16, 42, 41.00000000000000000, #296 ) ;
#303 = ORIENTED_EDGE ( 'NONE', *, *, #214, .T. ) ;
#304 = DIRECTION ( 'NONE',  ( 0.000000000000000000, -1.000000000000000000, 0.000000000000000000 ) ) ;
#305 = DIRECTION ( 'NONE',  ( 0.000000000000000000, 0.000000000000000000, 1.000000000000000000 ) ) ;
#306 = LINE ( 'NONE', #74, #286 ) ;
#307 = ORIENTED_EDGE ( 'NONE', *, *, #194, .T. ) ;
#308 = CIRCLE ( 'NONE', #206, 0.5000000000000004441 ) ;
#309 = AXIS2_PLACEMENT_3D ( 'NONE', #255, #111, #346 ) ;
#310 = VERTEX_POINT ( 'NONE', #162 ) ;
#311 = DIRECTION ( 'NONE',  ( -0.000000000000000000, -0.000000000000000000, -1.000000000000000000 ) ) ;
#312 = DIRECTION ( 'NONE',  ( 1.000000000000000000, 0.000000000000000000, -0.000000000000000000 ) ) ;
#313 =( LENGTH_UNIT ( ) NAMED_UNIT ( * ) SI_UNIT ( .MILLI., .METRE. ) );
#314 = DIRECTION ( 'NONE',  ( 1.000000000000000000, 0.000000000000000000, -0.000000000000000000 ) ) ;
#315 = EDGE_CURVE ( 'NONE', #161, #310, #201, .T. ) ;
#316 = CARTESIAN_POINT ( 'NONE',  ( 10.00000000000000000, 1.224646799147353256E-15, 7.000000000000000000 ) ) ;
#317 = CIRCLE ( 'NONE', #353, 3.250000000000000444 ) ;
#318 = EDGE_CURVE ( 'NONE', #187, #270, #221, .T. ) ;
#319 = CARTESIAN_POINT ( 'NONE',  ( 0.000000000000000000, 0.000000000000000000, 0.000000000000000000 ) ) ;
#320 = ORIENTED_EDGE ( 'NONE', *, *, #7, .T. ) ;
#321 = EDGE_CURVE ( 'NONE', #185, #355, #35, .T. ) ;
#322 = AXIS2_PLACEMENT_3D ( 'NONE', #193, #13, #9 ) ;
#323 = ORIENTED_EDGE ( 'NONE', *, *, #256, .T. ) ;
#324 = DATE_TIME_ROLE ( 'classification_date' ) ;
#325 = VERTEX_POINT ( 'NONE', #133 ) ;
#326 = EDGE_LOOP ( 'NONE', ( #379, #122 ) ) ;
#327 = DATE_AND_TIME ( #97, #302 ) ;
#328 = EDGE_CURVE ( 'NONE', #186, #355, #251, .T. ) ;
#329 = CARTESIAN_POINT ( 'NONE',  ( 0.000000000000000000, 0.000000000000000000, 207.0000000000000284 ) ) ;
#330 = EDGE_CURVE ( 'NONE', #5, #185, #306, .T. ) ;
#331 = FACE_OUTER_BOUND ( 'NONE', #357, .T. ) ;
#332 = AXIS2_PLACEMENT_3D ( 'NONE', #337, #71, #362 ) ;
#333 = DIRECTION ( 'NONE',  ( -1.000000000000000000, 0.000000000000000000, 0.000000000000000000 ) ) ;
#334 = DIRECTION ( 'NONE',  ( 0.000000000000000000, 0.000000000000000000, -1.000000000000000000 ) ) ;
#335 = DIRECTION ( 'NONE',  ( 0.000000000000000000, 0.000000000000000000, -1.000000000000000000 ) ) ;
#336 = ORIENTED_EDGE ( 'NONE', *, *, #241, .F. ) ;
#337 = CARTESIAN_POINT ( 'NONE',  ( 0.000000000000000000, 0.000000000000000000, 0.000000000000000000 ) ) ;
#338 = PRODUCT_DEFINITION_SHAPE ( 'NONE', 'NONE',  #366 ) ;
#339 = LOCAL_TIME ( 16, 42, 41.00000000000000000, #54 ) ;
#340 = DIRECTION ( 'NONE',  ( -0.000000000000000000, -0.000000000000000000, -1.000000000000000000 ) ) ;
#341 = DIRECTION ( 'NONE',  ( 0.000000000000000000, 0.000000000000000000, 1.000000000000000000 ) ) ;
#342 = CARTESIAN_POINT ( 'NONE',  ( 6.000000000000000888, 7.347880794884120722E-16, 207.0000000000000284 ) ) ;
#343 = APPLICATION_CONTEXT ( 'configuration controlled 3d designs of mechanical parts and assemblies' ) ;
#344 = DIRECTION ( 'NONE',  ( -1.000000000000000000, 0.000000000000000000, 0.000000000000000000 ) ) ;
#345 = CIRCLE ( 'NONE', #373, 3.250000000000000444 ) ;
#346 = DIRECTION ( 'NONE',  ( 1.000000000000000000, 0.000000000000000000, 0.000000000000000000 ) ) ;
#347 = DIRECTION ( 'NONE',  ( -0.000000000000000000, -0.000000000000000000, -1.000000000000000000 ) ) ;
#348 = ORIENTED_EDGE ( 'NONE', *, *, #321, .F. ) ;
#349 = EDGE_CURVE ( 'NONE', #325, #124, #67, .T. ) ;
#350 = APPROVAL_STATUS ( 'not_yet_approved' ) ;
#351 = PERSON ( 'NEURÈENÝ', 'NEURÈENÝ', 'NEURÈENÝ', ('NEURÈENÝ'), ('NEURÈENÝ'), ('NEURÈENÝ') ) ;
#352 = ORIENTED_EDGE ( 'NONE', *, *, #230, .T. ) ;
#353 = AXIS2_PLACEMENT_3D ( 'NONE', #18, #136, #36 ) ;
#354 = APPROVAL_ROLE ( '' ) ;
#355 = VERTEX_POINT ( 'NONE', #106 ) ;
#356 = CALENDAR_DATE ( 2022, 8, 7 ) ;
#357 = EDGE_LOOP ( 'NONE', ( #348, #154, #87, #227 ) ) ;
#358 = CALENDAR_DATE ( 2022, 8, 7 ) ;
#359 = ORGANIZATION ( 'NEURÈENÝ', 'NEURÈENÝ', '' ) ;
#360 = APPROVAL ( #211, 'NEURÈENÝ' ) ;
#361 = DIRECTION ( 'NONE',  ( 1.000000000000000000, 0.000000000000000000, 0.000000000000000000 ) ) ;
#362 = DIRECTION ( 'NONE',  ( 1.000000000000000000, 0.000000000000000000, 0.000000000000000000 ) ) ;
#363 = DIRECTION ( 'NONE',  ( -1.000000000000000000, 1.224646799147351482E-16, 0.000000000000000000 ) ) ;
#364 = CARTESIAN_POINT ( 'NONE',  ( 0.000000000000000000, 0.000000000000000000, 7.500000000000007105 ) ) ;
#365 = FACE_OUTER_BOUND ( 'NONE', #277, .T. ) ;
#366 = PRODUCT_DEFINITION ( 'NEZNÁMÝ', '', #222, #167 ) ;
#367 = CARTESIAN_POINT ( 'NONE',  ( 6.500000000000000888, 0.000000000000000000, 7.500000000000007105 ) ) ;
#368 = DIRECTION ( 'NONE',  ( 1.000000000000000000, 0.000000000000000000, 0.000000000000000000 ) ) ;
#369 = EDGE_LOOP ( 'NONE', ( #265, #240 ) ) ;
#370 = DIRECTION ( 'NONE',  ( 1.000000000000000000, 0.000000000000000000, 0.000000000000000000 ) ) ;
#371 = ADVANCED_FACE ( 'NONE', ( #225 ), #198, .T. ) ;
#372 = APPLICATION_CONTEXT ( 'configuration controlled 3d designs of mechanical parts and assemblies' ) ;
#373 = AXIS2_PLACEMENT_3D ( 'NONE', #229, #52, #85 ) ;
#374 = DIRECTION ( 'NONE',  ( 1.000000000000000000, 0.000000000000000000, 0.000000000000000000 ) ) ;
#375 = DATE_AND_TIME ( #284, #6 ) ;
#376 = CARTESIAN_POINT ( 'NONE',  ( 0.000000000000000000, 0.000000000000000000, 0.000000000000000000 ) ) ;
#377 = VECTOR ( 'NONE', #244, 1000.000000000000000 ) ;
#378 = EDGE_CURVE ( 'NONE', #92, #310, #169, .T. ) ;
#379 = ORIENTED_EDGE ( 'NONE', *, *, #69, .F. ) ;
#380 = AXIS2_PLACEMENT_3D ( 'NONE', #301, #253, #274 ) ;
#381 = DATE_AND_TIME ( #358, #208 ) ;
ENDSEC;
END-ISO-10303-21;
