ISO-10303-21;
HEADER;
FILE_DESCRIPTION (( 'STEP AP203' ),
    '1' );
FILE_NAME ('13c2.STEP',
    '2022-07-08T15:18:34',
    ( '' ),
    ( '' ),
    'SwSTEP 2.0',
    'SolidWorks 2019',
    '' );
FILE_SCHEMA (( 'CONFIG_CONTROL_DESIGN' ));
ENDSEC;

DATA;
#1 = AXIS2_PLACEMENT_3D ( 'NONE', #103, #326, #49 ) ;
#2 = DIRECTION ( 'NONE',  ( 0.000000000000000000, -1.000000000000000000, 0.000000000000000000 ) ) ;
#3 = LINE ( 'NONE', #243, #278 ) ;
#4 = EDGE_LOOP ( 'NONE', ( #222, #74 ) ) ;
#5 = FACE_OUTER_BOUND ( 'NONE', #150, .T. ) ;
#6 = CIRCLE ( 'NONE', #14, 2.500000000000000000 ) ;
#7 = LOCAL_TIME ( 17, 18, 34.00000000000000000, #262 ) ;
#8 = EDGE_CURVE ( 'NONE', #147, #275, #13, .T. ) ;
#9 = DIRECTION ( 'NONE',  ( 1.000000000000000000, 0.000000000000000000, 0.000000000000000000 ) ) ;
#10 = DIRECTION ( 'NONE',  ( 0.000000000000000000, 0.000000000000000000, -1.000000000000000000 ) ) ;
#11 = DIRECTION ( 'NONE',  ( 1.000000000000000000, 0.000000000000000000, 0.000000000000000000 ) ) ;
#12 = ORIENTED_EDGE ( 'NONE', *, *, #98, .F. ) ;
#13 = CIRCLE ( 'NONE', #330, 2.500000000000000000 ) ;
#14 = AXIS2_PLACEMENT_3D ( 'NONE', #223, #160, #366 ) ;
#15 = PLANE ( 'NONE',  #38 ) ;
#16 = CC_DESIGN_PERSON_AND_ORGANIZATION_ASSIGNMENT ( #118, #374, ( #349 ) ) ;
#17 = DIRECTION ( 'NONE',  ( 1.000000000000000000, 0.000000000000000000, -0.000000000000000000 ) ) ;
#18 = ORIENTED_EDGE ( 'NONE', *, *, #27, .T. ) ;
#19 = DIRECTION ( 'NONE',  ( -0.000000000000000000, -0.000000000000000000, -1.000000000000000000 ) ) ;
#20 = PERSON ( 'NEURÈENÝ', 'NEURÈENÝ', 'NEURÈENÝ', ('NEURÈENÝ'), ('NEURÈENÝ'), ('NEURÈENÝ') ) ;
#21 = VERTEX_POINT ( 'NONE', #263 ) ;
#22 = AXIS2_PLACEMENT_3D ( 'NONE', #249, #192, #11 ) ;
#23 = CARTESIAN_POINT ( 'NONE',  ( 0.000000000000000000, 0.000000000000000000, 0.000000000000000000 ) ) ;
#24 = EDGE_LOOP ( 'NONE', ( #258, #138, #279, #197 ) ) ;
#25 = APPROVAL_DATE_TIME ( #89, #115 ) ;
#26 = ORIENTED_EDGE ( 'NONE', *, *, #100, .T. ) ;
#27 = EDGE_CURVE ( 'NONE', #53, #184, #178, .T. ) ;
#28 = APPLICATION_CONTEXT ( 'configuration controlled 3d designs of mechanical parts and assemblies' ) ;
#29 = ORIENTED_EDGE ( 'NONE', *, *, #176, .T. ) ;
#30 = COORDINATED_UNIVERSAL_TIME_OFFSET ( 1, 0, .AHEAD. ) ;
#31 = AXIS2_PLACEMENT_3D ( 'NONE', #281, #327, #331 ) ;
#32 = ORIENTED_EDGE ( 'NONE', *, *, #8, .T. ) ;
#33 = LOCAL_TIME ( 17, 18, 34.00000000000000000, #93 ) ;
#34 = COORDINATED_UNIVERSAL_TIME_OFFSET ( 1, 0, .AHEAD. ) ;
#35 = ORIENTED_EDGE ( 'NONE', *, *, #148, .T. ) ;
#36 = DIRECTION ( 'NONE',  ( -1.000000000000000000, 0.000000000000000000, 0.000000000000000000 ) ) ;
#37 = ORIENTED_EDGE ( 'NONE', *, *, #131, .T. ) ;
#38 = AXIS2_PLACEMENT_3D ( 'NONE', #247, #303, #364 ) ;
#39 = CARTESIAN_POINT ( 'NONE',  ( -4.000000000000000000, 0.000000000000000000, 655.0000000000000000 ) ) ;
#40 = DIRECTION ( 'NONE',  ( -1.000000000000000000, 0.000000000000000000, 0.000000000000000000 ) ) ;
#41 = EDGE_CURVE ( 'NONE', #228, #141, #276, .T. ) ;
#42 = FACE_OUTER_BOUND ( 'NONE', #170, .T. ) ;
#43 = ORGANIZATION ( 'NEURÈENÝ', 'NEURÈENÝ', '' ) ;
#44 = DIRECTION ( 'NONE',  ( 0.000000000000000000, 0.000000000000000000, 1.000000000000000000 ) ) ;
#45 = CARTESIAN_POINT ( 'NONE',  ( -4.500000000000000888, 5.510910596163089556E-16, 5.499999999999949374 ) ) ;
#46 = CARTESIAN_POINT ( 'NONE',  ( -7.000000000000000000, 0.000000000000000000, 5.000000000000000000 ) ) ;
#47 = ORIENTED_EDGE ( 'NONE', *, *, #168, .T. ) ;
#48 = TOROIDAL_SURFACE ( 'NONE', #217, 4.500000000000000888, 0.5000000000000000000 ) ;
#49 = DIRECTION ( 'NONE',  ( 1.000000000000000000, 0.000000000000000000, 0.000000000000000000 ) ) ;
#50 = ADVANCED_FACE ( 'NONE', ( #317 ), #290, .T. ) ;
#51 = CARTESIAN_POINT ( 'NONE',  ( 7.000000000000000000, 8.572527594031473190E-16, 5.000000000000000000 ) ) ;
#52 = DIRECTION ( 'NONE',  ( -0.000000000000000000, -0.000000000000000000, -1.000000000000000000 ) ) ;
#53 = VERTEX_POINT ( 'NONE', #207 ) ;
#54 = AXIS2_PLACEMENT_3D ( 'NONE', #266, #44, #213 ) ;
#55 = CALENDAR_DATE ( 2022, 8, 7 ) ;
#56 = PRODUCT_DEFINITION_SHAPE ( 'NONE', 'NONE',  #246 ) ;
#57 = PERSON_AND_ORGANIZATION ( #20, #43 ) ;
#58 = DIRECTION ( 'NONE',  ( 0.000000000000000000, 0.000000000000000000, -1.000000000000000000 ) ) ;
#59 = PERSON_AND_ORGANIZATION ( #20, #43 ) ;
#60 = DIRECTION ( 'NONE',  ( 1.000000000000000000, 0.000000000000000000, 0.000000000000000000 ) ) ;
#61 =( GEOMETRIC_REPRESENTATION_CONTEXT ( 3 ) GLOBAL_UNCERTAINTY_ASSIGNED_CONTEXT ( ( #354 ) ) GLOBAL_UNIT_ASSIGNED_CONTEXT ( ( #111, #315, #120 ) ) REPRESENTATION_CONTEXT ( 'NONE', 'WORKASPACE' ) );
#62 = CALENDAR_DATE ( 2022, 8, 7 ) ;
#63 = ORIENTED_EDGE ( 'NONE', *, *, #168, .F. ) ;
#64 = CARTESIAN_POINT ( 'NONE',  ( 0.000000000000000000, 0.000000000000000000, 0.000000000000000000 ) ) ;
#65 = DIRECTION ( 'NONE',  ( 0.000000000000000000, 0.000000000000000000, -1.000000000000000000 ) ) ;
#66 = PRODUCT_DEFINITION_FORMATION_WITH_SPECIFIED_SOURCE ( 'LIBOVOLNÝ', '', #85, .NOT_KNOWN. ) ;
#67 = CARTESIAN_POINT ( 'NONE',  ( 4.000000000000000000, 4.898587196589412829E-16, 655.0000000000000000 ) ) ;
#68 = ADVANCED_FACE ( 'NONE', ( #319 ), #291, .F. ) ;
#69 = CYLINDRICAL_SURFACE ( 'NONE', #302, 4.000000000000000000 ) ;
#70 = DIRECTION ( 'NONE',  ( -0.000000000000000000, -0.000000000000000000, -1.000000000000000000 ) ) ;
#71 = CC_DESIGN_APPROVAL ( #313, ( #349 ) ) ;
#72 = AXIS2_PLACEMENT_3D ( 'NONE', #211, #65, #40 ) ;
#73 = DIRECTION ( 'NONE',  ( 0.000000000000000000, 0.000000000000000000, 1.000000000000000000 ) ) ;
#74 = ORIENTED_EDGE ( 'NONE', *, *, #274, .T. ) ;
#75 = CARTESIAN_POINT ( 'NONE',  ( 4.000000000000000000, 4.898587196589412829E-16, 5.499999999999949374 ) ) ;
#76 = ORIENTED_EDGE ( 'NONE', *, *, #271, .F. ) ;
#77 = FACE_OUTER_BOUND ( 'NONE', #4, .T. ) ;
#78 = ORIENTED_EDGE ( 'NONE', *, *, #100, .F. ) ;
#79 = CIRCLE ( 'NONE', #238, 4.000000000000000000 ) ;
#80 = CARTESIAN_POINT ( 'NONE',  ( -2.500000000000000000, 0.000000000000000000, 0.000000000000000000 ) ) ;
#81 = ORIENTED_EDGE ( 'NONE', *, *, #201, .T. ) ;
#82 = ADVANCED_FACE ( 'NONE', ( #175, #5 ), #298, .F. ) ;
#83 = CARTESIAN_POINT ( 'NONE',  ( 0.000000000000000000, 0.000000000000000000, 5.000000000000000000 ) ) ;
#84 = ORIENTED_EDGE ( 'NONE', *, *, #8, .F. ) ;
#85 = PRODUCT ( '13c2', '13c2', '', ( #343 ) ) ;
#86 = APPLICATION_PROTOCOL_DEFINITION ( 'international standard', 'config_control_design', 1994, #360 ) ;
#87 = CARTESIAN_POINT ( 'NONE',  ( 0.000000000000000000, 0.000000000000000000, 5.499999999999949374 ) ) ;
#88 = AXIS2_PLACEMENT_3D ( 'NONE', #64, #355, #353 ) ;
#89 = DATE_AND_TIME ( #55, #133 ) ;
#90 = DIRECTION ( 'NONE',  ( -1.000000000000000000, 0.000000000000000000, 0.000000000000000000 ) ) ;
#91 = PERSON_AND_ORGANIZATION_ROLE ( 'creator' ) ;
#92 = EDGE_LOOP ( 'NONE', ( #81, #333 ) ) ;
#93 = COORDINATED_UNIVERSAL_TIME_OFFSET ( 1, 0, .AHEAD. ) ;
#94 = CARTESIAN_POINT ( 'NONE',  ( 0.000000000000000000, 0.000000000000000000, 5.000000000000000000 ) ) ;
#95 = CIRCLE ( 'NONE', #182, 7.000000000000000000 ) ;
#96 = DIRECTION ( 'NONE',  ( -1.000000000000000000, 0.000000000000000000, 0.000000000000000000 ) ) ;
#97 = DIRECTION ( 'NONE',  ( 0.000000000000000000, 0.000000000000000000, 1.000000000000000000 ) ) ;
#98 = EDGE_CURVE ( 'NONE', #344, #245, #179, .T. ) ;
#99 = DIRECTION ( 'NONE',  ( 0.000000000000000000, 0.000000000000000000, -1.000000000000000000 ) ) ;
#100 = EDGE_CURVE ( 'NONE', #141, #184, #3, .T. ) ;
#101 = CYLINDRICAL_SURFACE ( 'NONE', #72, 2.500000000000000000 ) ;
#102 = ADVANCED_FACE ( 'NONE', ( #352 ), #69, .T. ) ;
#103 = CARTESIAN_POINT ( 'NONE',  ( 0.000000000000000000, 0.000000000000000000, 5.000000000000000000 ) ) ;
#104 = CIRCLE ( 'NONE', #351, 2.500000000000000000 ) ;
#105 = FACE_BOUND ( 'NONE', #126, .T. ) ;
#106 = ADVANCED_FACE ( 'NONE', ( #185 ), #48, .F. ) ;
#107 = ORIENTED_EDGE ( 'NONE', *, *, #164, .T. ) ;
#108 = CARTESIAN_POINT ( 'NONE',  ( 0.000000000000000000, 0.000000000000000000, 655.0000000000000000 ) ) ;
#109 = VECTOR ( 'NONE', #99, 1000.000000000000000 ) ;
#110 = DIRECTION ( 'NONE',  ( 1.224646799147353207E-16, 1.000000000000000000, -0.000000000000000000 ) ) ;
#111 =( LENGTH_UNIT ( ) NAMED_UNIT ( * ) SI_UNIT ( .MILLI., .METRE. ) );
#112 = ADVANCED_FACE ( 'NONE', ( #42 ), #270, .T. ) ;
#113 = PERSON_AND_ORGANIZATION_ROLE ( 'creator' ) ;
#114 = ORIENTED_EDGE ( 'NONE', *, *, #172, .T. ) ;
#115 = APPROVAL ( #255, 'NEURÈENÝ' ) ;
#116 = VECTOR ( 'NONE', #195, 1000.000000000000000 ) ;
#117 = EDGE_LOOP ( 'NONE', ( #329, #370, #12, #301 ) ) ;
#118 = PERSON_AND_ORGANIZATION ( #20, #43 ) ;
#119 = ORIENTED_EDGE ( 'NONE', *, *, #172, .F. ) ;
#120 =( NAMED_UNIT ( * ) SI_UNIT ( $, .STERADIAN. ) SOLID_ANGLE_UNIT ( ) );
#121 = CIRCLE ( 'NONE', #1, 4.500000000000000888 ) ;
#122 = EDGE_CURVE ( 'NONE', #162, #231, #95, .T. ) ;
#123 = CARTESIAN_POINT ( 'NONE',  ( -2.500000000000000000, 0.000000000000000000, 655.0000000000000000 ) ) ;
#124 = APPROVAL ( #371, 'NEURÈENÝ' ) ;
#125 = DIRECTION ( 'NONE',  ( -0.000000000000000000, -0.000000000000000000, -1.000000000000000000 ) ) ;
#126 = EDGE_LOOP ( 'NONE', ( #295, #154 ) ) ;
#127 = APPROVAL_PERSON_ORGANIZATION ( #59, #313, #149 ) ;
#128 = VECTOR ( 'NONE', #294, 1000.000000000000000 ) ;
#129 = LINE ( 'NONE', #358, #128 ) ;
#130 = CARTESIAN_POINT ( 'NONE',  ( -7.000000000000000000, 0.000000000000000000, 5.000000000000000000 ) ) ;
#131 = EDGE_CURVE ( 'NONE', #184, #53, #166, .T. ) ;
#132 = DIRECTION ( 'NONE',  ( 1.000000000000000000, 0.000000000000000000, 0.000000000000000000 ) ) ;
#133 = LOCAL_TIME ( 17, 18, 34.00000000000000000, #30 ) ;
#134 = EDGE_CURVE ( 'NONE', #184, #344, #377, .T. ) ;
#135 = CARTESIAN_POINT ( 'NONE',  ( 0.000000000000000000, 0.000000000000000000, 5.000000000000000000 ) ) ;
#136 = ADVANCED_BREP_SHAPE_REPRESENTATION ( '13c2', ( #304, #367 ), #61 ) ;
#137 = DIRECTION ( 'NONE',  ( 1.000000000000000000, 0.000000000000000000, 0.000000000000000000 ) ) ;
#138 = ORIENTED_EDGE ( 'NONE', *, *, #131, .F. ) ;
#139 = CC_DESIGN_DATE_AND_TIME_ASSIGNMENT ( #316, #203, ( #349 ) ) ;
#140 = FACE_OUTER_BOUND ( 'NONE', #341, .T. ) ;
#141 = VERTEX_POINT ( 'NONE', #67 ) ;
#142 = SHAPE_DEFINITION_REPRESENTATION ( #56, #136 ) ;
#143 = EDGE_LOOP ( 'NONE', ( #29, #47, #32, #307 ) ) ;
#144 = PERSON_AND_ORGANIZATION_ROLE ( 'design_supplier' ) ;
#145 = AXIS2_PLACEMENT_3D ( 'NONE', #323, #2, #10 ) ;
#146 = PERSON_AND_ORGANIZATION ( #20, #43 ) ;
#147 = VERTEX_POINT ( 'NONE', #242 ) ;
#148 = EDGE_CURVE ( 'NONE', #177, #275, #183, .T. ) ;
#149 = APPROVAL_ROLE ( '' ) ;
#150 = EDGE_LOOP ( 'NONE', ( #76, #288 ) ) ;
#151 = DIRECTION ( 'NONE',  ( 0.000000000000000000, 0.000000000000000000, 1.000000000000000000 ) ) ;
#152 = AXIS2_PLACEMENT_3D ( 'NONE', #45, #110, #361 ) ;
#153 = DIRECTION ( 'NONE',  ( -1.000000000000000000, 0.000000000000000000, 0.000000000000000000 ) ) ;
#154 = ORIENTED_EDGE ( 'NONE', *, *, #369, .T. ) ;
#155 = DIRECTION ( 'NONE',  ( 1.000000000000000000, 0.000000000000000000, 0.000000000000000000 ) ) ;
#156 = ORIENTED_EDGE ( 'NONE', *, *, #208, .F. ) ;
#157 = CARTESIAN_POINT ( 'NONE',  ( 0.000000000000000000, 0.000000000000000000, 5.000000000000000000 ) ) ;
#158 = AXIS2_PLACEMENT_3D ( 'NONE', #264, #58, #90 ) ;
#159 = FACE_OUTER_BOUND ( 'NONE', #286, .T. ) ;
#160 = DIRECTION ( 'NONE',  ( 0.000000000000000000, 0.000000000000000000, 1.000000000000000000 ) ) ;
#161 = ADVANCED_FACE ( 'NONE', ( #159 ), #101, .F. ) ;
#162 = VERTEX_POINT ( 'NONE', #272 ) ;
#163 = DIRECTION ( 'NONE',  ( 0.000000000000000000, 0.000000000000000000, 1.000000000000000000 ) ) ;
#164 = EDGE_CURVE ( 'NONE', #202, #177, #104, .T. ) ;
#165 = APPROVAL_PERSON_ORGANIZATION ( #378, #124, #180 ) ;
#166 = CIRCLE ( 'NONE', #54, 4.000000000000000000 ) ;
#167 = CARTESIAN_POINT ( 'NONE',  ( -4.000000000000000000, 0.000000000000000000, 655.0000000000000000 ) ) ;
#168 = EDGE_CURVE ( 'NONE', #202, #147, #129, .T. ) ;
#169 = PLANE ( 'NONE',  #260 ) ;
#170 = EDGE_LOOP ( 'NONE', ( #372, #26, #37, #119 ) ) ;
#171 = CIRCLE ( 'NONE', #22, 7.000000000000000000 ) ;
#172 = EDGE_CURVE ( 'NONE', #228, #53, #215, .T. ) ;
#173 = APPLICATION_PROTOCOL_DEFINITION ( 'international standard', 'config_control_design', 1994, #28 ) ;
#174 = DIRECTION ( 'NONE',  ( 1.000000000000000000, 0.000000000000000000, 0.000000000000000000 ) ) ;
#175 = FACE_BOUND ( 'NONE', #190, .T. ) ;
#176 = EDGE_CURVE ( 'NONE', #177, #202, #6, .T. ) ;
#177 = VERTEX_POINT ( 'NONE', #227 ) ;
#178 = CIRCLE ( 'NONE', #233, 4.000000000000000000 ) ;
#179 = CIRCLE ( 'NONE', #269, 4.500000000000000888 ) ;
#180 = APPROVAL_ROLE ( '' ) ;
#181 = DATE_AND_TIME ( #62, #7 ) ;
#182 = AXIS2_PLACEMENT_3D ( 'NONE', #188, #97, #320 ) ;
#183 = LINE ( 'NONE', #123, #109 ) ;
#184 = VERTEX_POINT ( 'NONE', #75 ) ;
#185 = FACE_OUTER_BOUND ( 'NONE', #24, .T. ) ;
#186 = CARTESIAN_POINT ( 'NONE',  ( 0.000000000000000000, 0.000000000000000000, 5.499999999999949374 ) ) ;
#187 = CC_DESIGN_PERSON_AND_ORGANIZATION_ASSIGNMENT ( #146, #113, ( #246 ) ) ;
#188 = CARTESIAN_POINT ( 'NONE',  ( 0.000000000000000000, 0.000000000000000000, 0.000000000000000000 ) ) ;
#189 = AXIS2_PLACEMENT_3D ( 'NONE', #191, #196, #283 ) ;
#190 = EDGE_LOOP ( 'NONE', ( #338, #84 ) ) ;
#191 = CARTESIAN_POINT ( 'NONE',  ( 0.000000000000000000, 0.000000000000000000, 0.000000000000000000 ) ) ;
#192 = DIRECTION ( 'NONE',  ( 0.000000000000000000, 0.000000000000000000, 1.000000000000000000 ) ) ;
#193 = AXIS2_PLACEMENT_3D ( 'NONE', #94, #350, #96 ) ;
#194 = ORIENTED_EDGE ( 'NONE', *, *, #201, .F. ) ;
#195 = DIRECTION ( 'NONE',  ( -0.000000000000000000, -0.000000000000000000, -1.000000000000000000 ) ) ;
#196 = DIRECTION ( 'NONE',  ( -0.000000000000000000, -0.000000000000000000, -1.000000000000000000 ) ) ;
#197 = ORIENTED_EDGE ( 'NONE', *, *, #369, .F. ) ;
#198 = ADVANCED_FACE ( 'NONE', ( #251 ), #265, .F. ) ;
#199 = AXIS2_PLACEMENT_3D ( 'NONE', #135, #334, #273 ) ;
#200 = DIRECTION ( 'NONE',  ( 0.000000000000000000, 0.000000000000000000, 1.000000000000000000 ) ) ;
#201 = EDGE_CURVE ( 'NONE', #248, #21, #241, .T. ) ;
#202 = VERTEX_POINT ( 'NONE', #328 ) ;
#203 = DATE_TIME_ROLE ( 'classification_date' ) ;
#204 = CALENDAR_DATE ( 2022, 8, 7 ) ;
#205 = CC_DESIGN_PERSON_AND_ORGANIZATION_ASSIGNMENT ( #312, #144, ( #66 ) ) ;
#206 = CALENDAR_DATE ( 2022, 8, 7 ) ;
#207 = CARTESIAN_POINT ( 'NONE',  ( -4.000000000000000000, 0.000000000000000000, 5.499999999999949374 ) ) ;
#208 = EDGE_CURVE ( 'NONE', #21, #248, #225, .T. ) ;
#209 = DIRECTION ( 'NONE',  ( -0.000000000000000000, -0.000000000000000000, -1.000000000000000000 ) ) ;
#210 = ADVANCED_FACE ( 'NONE', ( #216, #77 ), #169, .T. ) ;
#211 = CARTESIAN_POINT ( 'NONE',  ( 0.000000000000000000, 0.000000000000000000, 655.0000000000000000 ) ) ;
#212 = CC_DESIGN_APPROVAL ( #124, ( #66 ) ) ;
#213 = DIRECTION ( 'NONE',  ( 1.000000000000000000, 0.000000000000000000, 0.000000000000000000 ) ) ;
#214 = CARTESIAN_POINT ( 'NONE',  ( 0.000000000000000000, 0.000000000000000000, 655.0000000000000000 ) ) ;
#215 = LINE ( 'NONE', #39, #325 ) ;
#216 = FACE_BOUND ( 'NONE', #250, .T. ) ;
#217 = AXIS2_PLACEMENT_3D ( 'NONE', #186, #324, #240 ) ;
#218 = ADVANCED_FACE ( 'NONE', ( #140 ), #219, .T. ) ;
#219 = CYLINDRICAL_SURFACE ( 'NONE', #285, 7.000000000000000000 ) ;
#220 = ORIENTED_EDGE ( 'NONE', *, *, #296, .T. ) ;
#221 = DIRECTION ( 'NONE',  ( -1.000000000000000000, 0.000000000000000000, 0.000000000000000000 ) ) ;
#222 = ORIENTED_EDGE ( 'NONE', *, *, #41, .T. ) ;
#223 = CARTESIAN_POINT ( 'NONE',  ( 0.000000000000000000, 0.000000000000000000, 655.0000000000000000 ) ) ;
#224 = EDGE_CURVE ( 'NONE', #275, #147, #297, .T. ) ;
#225 = CIRCLE ( 'NONE', #356, 7.000000000000000000 ) ;
#226 = CC_DESIGN_SECURITY_CLASSIFICATION ( #349, ( #66 ) ) ;
#227 = CARTESIAN_POINT ( 'NONE',  ( -2.500000000000000000, 0.000000000000000000, 655.0000000000000000 ) ) ;
#228 = VERTEX_POINT ( 'NONE', #167 ) ;
#229 = CC_DESIGN_PERSON_AND_ORGANIZATION_ASSIGNMENT ( #57, #91, ( #66 ) ) ;
#230 = APPROVAL_DATE_TIME ( #181, #313 ) ;
#231 = VERTEX_POINT ( 'NONE', #359 ) ;
#232 = ORIENTED_EDGE ( 'NONE', *, *, #164, .F. ) ;
#233 = AXIS2_PLACEMENT_3D ( 'NONE', #87, #151, #174 ) ;
#234 = VECTOR ( 'NONE', #19, 1000.000000000000000 ) ;
#235 = APPROVAL_DATE_TIME ( #345, #124 ) ;
#236 = CALENDAR_DATE ( 2022, 8, 7 ) ;
#237 = CARTESIAN_POINT ( 'NONE',  ( 0.000000000000000000, 0.000000000000000000, 655.0000000000000000 ) ) ;
#238 = AXIS2_PLACEMENT_3D ( 'NONE', #280, #299, #132 ) ;
#239 = DIRECTION ( 'NONE',  ( -0.000000000000000000, -0.000000000000000000, -1.000000000000000000 ) ) ;
#240 = DIRECTION ( 'NONE',  ( 1.000000000000000000, 0.000000000000000000, 0.000000000000000000 ) ) ;
#241 = CIRCLE ( 'NONE', #199, 7.000000000000000000 ) ;
#242 = CARTESIAN_POINT ( 'NONE',  ( 2.500000000000000000, 3.061616997868383141E-16, 0.000000000000000000 ) ) ;
#243 = CARTESIAN_POINT ( 'NONE',  ( 4.000000000000000000, 4.898587196589412829E-16, 655.0000000000000000 ) ) ;
#244 = CARTESIAN_POINT ( 'NONE',  ( 4.500000000000000888, 0.000000000000000000, 4.999999999999975131 ) ) ;
#245 = VERTEX_POINT ( 'NONE', #308 ) ;
#246 = PRODUCT_DEFINITION ( 'NEZNÁMÝ', '', #66, #347 ) ;
#247 = CARTESIAN_POINT ( 'NONE',  ( 0.000000000000000000, 0.000000000000000000, 5.000000000000000000 ) ) ;
#248 = VERTEX_POINT ( 'NONE', #130 ) ;
#249 = CARTESIAN_POINT ( 'NONE',  ( 0.000000000000000000, 0.000000000000000000, 0.000000000000000000 ) ) ;
#250 = EDGE_LOOP ( 'NONE', ( #381, #232 ) ) ;
#251 = FACE_OUTER_BOUND ( 'NONE', #117, .T. ) ;
#252 = ORIENTED_EDGE ( 'NONE', *, *, #336, .T. ) ;
#253 = LOCAL_TIME ( 17, 18, 34.00000000000000000, #34 ) ;
#254 = APPROVAL_STATUS ( 'not_yet_approved' ) ;
#255 = APPROVAL_STATUS ( 'not_yet_approved' ) ;
#256 = CC_DESIGN_DATE_AND_TIME_ASSIGNMENT ( #287, #289, ( #246 ) ) ;
#257 = PERSON_AND_ORGANIZATION ( #20, #43 ) ;
#258 = ORIENTED_EDGE ( 'NONE', *, *, #363, .F. ) ;
#259 = AXIS2_PLACEMENT_3D ( 'NONE', #237, #346, #310 ) ;
#260 = AXIS2_PLACEMENT_3D ( 'NONE', #108, #73, #17 ) ;
#261 = DIRECTION ( 'NONE',  ( -0.000000000000000000, -0.000000000000000000, -1.000000000000000000 ) ) ;
#262 = COORDINATED_UNIVERSAL_TIME_OFFSET ( 1, 0, .AHEAD. ) ;
#263 = CARTESIAN_POINT ( 'NONE',  ( 7.000000000000000000, 8.572527594031473190E-16, 5.000000000000000000 ) ) ;
#264 = CARTESIAN_POINT ( 'NONE',  ( 0.000000000000000000, 0.000000000000000000, 655.0000000000000000 ) ) ;
#265 = TOROIDAL_SURFACE ( 'NONE', #31, 4.500000000000000888, 0.5000000000000000000 ) ;
#266 = CARTESIAN_POINT ( 'NONE',  ( 0.000000000000000000, 0.000000000000000000, 5.499999999999949374 ) ) ;
#267 = DIRECTION ( 'NONE',  ( 0.000000000000000000, 0.000000000000000000, 1.000000000000000000 ) ) ;
#268 = EDGE_LOOP ( 'NONE', ( #314, #194, #220, #362 ) ) ;
#269 = AXIS2_PLACEMENT_3D ( 'NONE', #157, #239, #155 ) ;
#270 = CYLINDRICAL_SURFACE ( 'NONE', #322, 4.000000000000000000 ) ;
#271 = EDGE_CURVE ( 'NONE', #231, #162, #171, .T. ) ;
#272 = CARTESIAN_POINT ( 'NONE',  ( 7.000000000000000000, 8.572527594031473190E-16, 0.000000000000000000 ) ) ;
#273 = DIRECTION ( 'NONE',  ( 1.000000000000000000, 0.000000000000000000, 0.000000000000000000 ) ) ;
#274 = EDGE_CURVE ( 'NONE', #141, #228, #79, .T. ) ;
#275 = VERTEX_POINT ( 'NONE', #80 ) ;
#276 = CIRCLE ( 'NONE', #259, 4.000000000000000000 ) ;
#277 = FACE_OUTER_BOUND ( 'NONE', #92, .T. ) ;
#278 = VECTOR ( 'NONE', #125, 1000.000000000000000 ) ;
#279 = ORIENTED_EDGE ( 'NONE', *, *, #134, .T. ) ;
#280 = CARTESIAN_POINT ( 'NONE',  ( 0.000000000000000000, 0.000000000000000000, 655.0000000000000000 ) ) ;
#281 = CARTESIAN_POINT ( 'NONE',  ( 0.000000000000000000, 0.000000000000000000, 5.499999999999949374 ) ) ;
#282 = ORIENTED_EDGE ( 'NONE', *, *, #122, .T. ) ;
#283 = DIRECTION ( 'NONE',  ( 1.000000000000000000, 0.000000000000000000, 0.000000000000000000 ) ) ;
#284 = EDGE_LOOP ( 'NONE', ( #78, #335, #114, #18 ) ) ;
#285 = AXIS2_PLACEMENT_3D ( 'NONE', #83, #52, #221 ) ;
#286 = EDGE_LOOP ( 'NONE', ( #63, #107, #35, #365 ) ) ;
#287 = DATE_AND_TIME ( #206, #253 ) ;
#288 = ORIENTED_EDGE ( 'NONE', *, *, #122, .F. ) ;
#289 = DATE_TIME_ROLE ( 'creation_date' ) ;
#290 = CYLINDRICAL_SURFACE ( 'NONE', #193, 7.000000000000000000 ) ;
#291 = CYLINDRICAL_SURFACE ( 'NONE', #158, 2.500000000000000000 ) ;
#292 = CARTESIAN_POINT ( 'NONE',  ( 0.000000000000000000, 0.000000000000000000, 655.0000000000000000 ) ) ;
#293 = APPROVAL_PERSON_ORGANIZATION ( #257, #115, #309 ) ;
#294 = DIRECTION ( 'NONE',  ( 0.000000000000000000, 0.000000000000000000, -1.000000000000000000 ) ) ;
#295 = ORIENTED_EDGE ( 'NONE', *, *, #98, .T. ) ;
#296 = EDGE_CURVE ( 'NONE', #248, #231, #300, .T. ) ;
#297 = CIRCLE ( 'NONE', #189, 2.500000000000000000 ) ;
#298 = PLANE ( 'NONE',  #88 ) ;
#299 = DIRECTION ( 'NONE',  ( 0.000000000000000000, 0.000000000000000000, 1.000000000000000000 ) ) ;
#300 = LINE ( 'NONE', #46, #116 ) ;
#301 = ORIENTED_EDGE ( 'NONE', *, *, #134, .F. ) ;
#302 = AXIS2_PLACEMENT_3D ( 'NONE', #321, #209, #153 ) ;
#303 = DIRECTION ( 'NONE',  ( 0.000000000000000000, 0.000000000000000000, 1.000000000000000000 ) ) ;
#304 = MANIFOLD_SOLID_BREP ( 'Odebrat vysunutím3', #340 ) ;
#305 = ORIENTED_EDGE ( 'NONE', *, *, #296, .F. ) ;
#306 = LINE ( 'NONE', #51, #234 ) ;
#307 = ORIENTED_EDGE ( 'NONE', *, *, #148, .F. ) ;
#308 = CARTESIAN_POINT ( 'NONE',  ( -4.500000000000000888, 5.510910596163088569E-16, 4.999999999999975131 ) ) ;
#309 = APPROVAL_ROLE ( '' ) ;
#310 = DIRECTION ( 'NONE',  ( 1.000000000000000000, 0.000000000000000000, 0.000000000000000000 ) ) ;
#311 = CIRCLE ( 'NONE', #152, 0.5000000000000004441 ) ;
#312 = PERSON_AND_ORGANIZATION ( #20, #43 ) ;
#313 = APPROVAL ( #254, 'NEURÈENÝ' ) ;
#314 = ORIENTED_EDGE ( 'NONE', *, *, #336, .F. ) ;
#315 =( NAMED_UNIT ( * ) PLANE_ANGLE_UNIT ( ) SI_UNIT ( $, .RADIAN. ) );
#316 = DATE_AND_TIME ( #204, #33 ) ;
#317 = FACE_OUTER_BOUND ( 'NONE', #268, .T. ) ;
#318 = CC_DESIGN_PERSON_AND_ORGANIZATION_ASSIGNMENT ( #380, #348, ( #85 ) ) ;
#319 = FACE_OUTER_BOUND ( 'NONE', #143, .T. ) ;
#320 = DIRECTION ( 'NONE',  ( 1.000000000000000000, 0.000000000000000000, 0.000000000000000000 ) ) ;
#321 = CARTESIAN_POINT ( 'NONE',  ( 0.000000000000000000, 0.000000000000000000, 655.0000000000000000 ) ) ;
#322 = AXIS2_PLACEMENT_3D ( 'NONE', #292, #357, #36 ) ;
#323 = CARTESIAN_POINT ( 'NONE',  ( 4.500000000000000888, 0.000000000000000000, 5.499999999999949374 ) ) ;
#324 = DIRECTION ( 'NONE',  ( 0.000000000000000000, 0.000000000000000000, 1.000000000000000000 ) ) ;
#325 = VECTOR ( 'NONE', #70, 1000.000000000000000 ) ;
#326 = DIRECTION ( 'NONE',  ( -0.000000000000000000, -0.000000000000000000, -1.000000000000000000 ) ) ;
#327 = DIRECTION ( 'NONE',  ( 0.000000000000000000, 0.000000000000000000, 1.000000000000000000 ) ) ;
#328 = CARTESIAN_POINT ( 'NONE',  ( 2.500000000000000000, 3.061616997868383141E-16, 655.0000000000000000 ) ) ;
#329 = ORIENTED_EDGE ( 'NONE', *, *, #27, .F. ) ;
#330 = AXIS2_PLACEMENT_3D ( 'NONE', #376, #261, #379 ) ;
#331 = DIRECTION ( 'NONE',  ( 1.000000000000000000, 0.000000000000000000, 0.000000000000000000 ) ) ;
#332 = PRODUCT_RELATED_PRODUCT_CATEGORY ( 'detail', '', ( #85 ) ) ;
#333 = ORIENTED_EDGE ( 'NONE', *, *, #208, .T. ) ;
#334 = DIRECTION ( 'NONE',  ( 0.000000000000000000, 0.000000000000000000, 1.000000000000000000 ) ) ;
#335 = ORIENTED_EDGE ( 'NONE', *, *, #41, .F. ) ;
#336 = EDGE_CURVE ( 'NONE', #21, #162, #306, .T. ) ;
#337 = SECURITY_CLASSIFICATION_LEVEL ( 'unclassified' ) ;
#338 = ORIENTED_EDGE ( 'NONE', *, *, #224, .F. ) ;
#339 = COORDINATED_UNIVERSAL_TIME_OFFSET ( 1, 0, .AHEAD. ) ;
#340 = CLOSED_SHELL ( 'NONE', ( #68, #198, #112, #218, #50, #373, #82, #102, #210, #106, #161 ) ) ;
#341 = EDGE_LOOP ( 'NONE', ( #156, #252, #282, #305 ) ) ;
#342 = CC_DESIGN_APPROVAL ( #115, ( #246 ) ) ;
#343 = MECHANICAL_CONTEXT ( 'NONE', #360, 'mechanical' ) ;
#344 = VERTEX_POINT ( 'NONE', #244 ) ;
#345 = DATE_AND_TIME ( #236, #375 ) ;
#346 = DIRECTION ( 'NONE',  ( 0.000000000000000000, 0.000000000000000000, 1.000000000000000000 ) ) ;
#347 = DESIGN_CONTEXT ( 'detailed design', #28, 'design' ) ;
#348 = PERSON_AND_ORGANIZATION_ROLE ( 'design_owner' ) ;
#349 = SECURITY_CLASSIFICATION ( '', '', #337 ) ;
#350 = DIRECTION ( 'NONE',  ( -0.000000000000000000, -0.000000000000000000, -1.000000000000000000 ) ) ;
#351 = AXIS2_PLACEMENT_3D ( 'NONE', #214, #267, #9 ) ;
#352 = FACE_OUTER_BOUND ( 'NONE', #284, .T. ) ;
#353 = DIRECTION ( 'NONE',  ( 1.000000000000000000, 0.000000000000000000, -0.000000000000000000 ) ) ;
#354 = UNCERTAINTY_MEASURE_WITH_UNIT (LENGTH_MEASURE( 1.000000000000000082E-05 ), #111, 'distance_accuracy_value', 'NONE');
#355 = DIRECTION ( 'NONE',  ( 0.000000000000000000, 0.000000000000000000, 1.000000000000000000 ) ) ;
#356 = AXIS2_PLACEMENT_3D ( 'NONE', #368, #163, #137 ) ;
#357 = DIRECTION ( 'NONE',  ( -0.000000000000000000, -0.000000000000000000, -1.000000000000000000 ) ) ;
#358 = CARTESIAN_POINT ( 'NONE',  ( 2.500000000000000000, 3.061616997868383141E-16, 655.0000000000000000 ) ) ;
#359 = CARTESIAN_POINT ( 'NONE',  ( -7.000000000000000000, 0.000000000000000000, 0.000000000000000000 ) ) ;
#360 = APPLICATION_CONTEXT ( 'configuration controlled 3d designs of mechanical parts and assemblies' ) ;
#361 = DIRECTION ( 'NONE',  ( -1.000000000000000000, 1.224646799147351482E-16, 0.000000000000000000 ) ) ;
#362 = ORIENTED_EDGE ( 'NONE', *, *, #271, .T. ) ;
#363 = EDGE_CURVE ( 'NONE', #53, #245, #311, .T. ) ;
#364 = DIRECTION ( 'NONE',  ( 1.000000000000000000, 0.000000000000000000, -0.000000000000000000 ) ) ;
#365 = ORIENTED_EDGE ( 'NONE', *, *, #224, .T. ) ;
#366 = DIRECTION ( 'NONE',  ( 1.000000000000000000, 0.000000000000000000, 0.000000000000000000 ) ) ;
#367 = AXIS2_PLACEMENT_3D ( 'NONE', #23, #200, #60 ) ;
#368 = CARTESIAN_POINT ( 'NONE',  ( 0.000000000000000000, 0.000000000000000000, 5.000000000000000000 ) ) ;
#369 = EDGE_CURVE ( 'NONE', #245, #344, #121, .T. ) ;
#370 = ORIENTED_EDGE ( 'NONE', *, *, #363, .T. ) ;
#371 = APPROVAL_STATUS ( 'not_yet_approved' ) ;
#372 = ORIENTED_EDGE ( 'NONE', *, *, #274, .F. ) ;
#373 = ADVANCED_FACE ( 'NONE', ( #105, #277 ), #15, .T. ) ;
#374 = PERSON_AND_ORGANIZATION_ROLE ( 'classification_officer' ) ;
#375 = LOCAL_TIME ( 17, 18, 34.00000000000000000, #339 ) ;
#376 = CARTESIAN_POINT ( 'NONE',  ( 0.000000000000000000, 0.000000000000000000, 0.000000000000000000 ) ) ;
#377 = CIRCLE ( 'NONE', #145, 0.5000000000000004441 ) ;
#378 = PERSON_AND_ORGANIZATION ( #20, #43 ) ;
#379 = DIRECTION ( 'NONE',  ( 1.000000000000000000, 0.000000000000000000, 0.000000000000000000 ) ) ;
#380 = PERSON_AND_ORGANIZATION ( #20, #43 ) ;
#381 = ORIENTED_EDGE ( 'NONE', *, *, #176, .F. ) ;
ENDSEC;
END-ISO-10303-21;
