ISO-10303-21;
HEADER;
FILE_DESCRIPTION (( 'STEP AP203' ),
    '1' );
FILE_NAME ('f11c.STEP',
    '2022-07-08T14:27:28',
    ( '' ),
    ( '' ),
    'SwSTEP 2.0',
    'SolidWorks 2019',
    '' );
FILE_SCHEMA (( 'CONFIG_CONTROL_DESIGN' ));
ENDSEC;

DATA;
#1 = DIRECTION ( 'NONE',  ( 0.000000000000000000, 0.000000000000000000, 1.000000000000000000 ) ) ;
#2 = CIRCLE ( 'NONE', #40, 6.000000000000000888 ) ;
#3 = DIRECTION ( 'NONE',  ( 1.000000000000000000, 0.000000000000000000, -0.000000000000000000 ) ) ;
#4 = PRODUCT_RELATED_PRODUCT_CATEGORY ( 'detail', '', ( #221 ) ) ;
#5 = ADVANCED_FACE ( 'NONE', ( #140, #279 ), #23, .T. ) ;
#6 = DIRECTION ( 'NONE',  ( -0.000000000000000000, -0.000000000000000000, -1.000000000000000000 ) ) ;
#7 = CC_DESIGN_DATE_AND_TIME_ASSIGNMENT ( #139, #236, ( #198 ) ) ;
#8 = DIRECTION ( 'NONE',  ( -0.000000000000000000, -0.000000000000000000, -1.000000000000000000 ) ) ;
#9 = ORIENTED_EDGE ( 'NONE', *, *, #360, .T. ) ;
#10 = AXIS2_PLACEMENT_3D ( 'NONE', #338, #24, #50 ) ;
#11 = CIRCLE ( 'NONE', #367, 0.7000000000000000666 ) ;
#12 = DIRECTION ( 'NONE',  ( -1.000000000000000000, 0.000000000000000000, 0.000000000000000000 ) ) ;
#13 = CARTESIAN_POINT ( 'NONE',  ( 0.000000000000000000, 0.000000000000000000, 7.000000000000000000 ) ) ;
#14 = ORIENTED_EDGE ( 'NONE', *, *, #257, .F. ) ;
#15 = CIRCLE ( 'NONE', #143, 6.000000000000000888 ) ;
#16 = ORIENTED_EDGE ( 'NONE', *, *, #342, .F. ) ;
#17 = ADVANCED_FACE ( 'NONE', ( #20 ), #226, .T. ) ;
#18 = CIRCLE ( 'NONE', #274, 10.00000000000000000 ) ;
#19 = AXIS2_PLACEMENT_3D ( 'NONE', #244, #324, #212 ) ;
#20 = FACE_OUTER_BOUND ( 'NONE', #243, .T. ) ;
#21 = ADVANCED_FACE ( 'NONE', ( #223 ), #278, .F. ) ;
#22 = CARTESIAN_POINT ( 'NONE',  ( 0.000000000000000000, 0.000000000000000000, 0.000000000000000000 ) ) ;
#23 = PLANE ( 'NONE',  #269 ) ;
#24 = DIRECTION ( 'NONE',  ( 0.000000000000000000, 0.000000000000000000, 1.000000000000000000 ) ) ;
#25 = APPROVAL_ROLE ( '' ) ;
#26 =( GEOMETRIC_REPRESENTATION_CONTEXT ( 3 ) GLOBAL_UNCERTAINTY_ASSIGNED_CONTEXT ( ( #57 ) ) GLOBAL_UNIT_ASSIGNED_CONTEXT ( ( #364, #192, #188 ) ) REPRESENTATION_CONTEXT ( 'NONE', 'WORKASPACE' ) );
#27 = PERSON_AND_ORGANIZATION ( #127, #225 ) ;
#28 = FACE_OUTER_BOUND ( 'NONE', #187, .T. ) ;
#29 = EDGE_CURVE ( 'NONE', #272, #291, #18, .T. ) ;
#30 = CARTESIAN_POINT ( 'NONE',  ( -10.00000000000000000, 0.000000000000000000, 7.000000000000000000 ) ) ;
#31 = ORIENTED_EDGE ( 'NONE', *, *, #118, .F. ) ;
#32 = AXIS2_PLACEMENT_3D ( 'NONE', #195, #59, #167 ) ;
#33 = VECTOR ( 'NONE', #284, 1000.000000000000000 ) ;
#34 = COORDINATED_UNIVERSAL_TIME_OFFSET ( 1, 0, .AHEAD. ) ;
#35 = CARTESIAN_POINT ( 'NONE',  ( -10.00000000000000000, 0.000000000000000000, 0.000000000000000000 ) ) ;
#36 = ORIENTED_EDGE ( 'NONE', *, *, #177, .T. ) ;
#37 = LINE ( 'NONE', #171, #204 ) ;
#38 = EDGE_CURVE ( 'NONE', #153, #145, #111, .T. ) ;
#39 = ORIENTED_EDGE ( 'NONE', *, *, #281, .F. ) ;
#40 = AXIS2_PLACEMENT_3D ( 'NONE', #144, #296, #350 ) ;
#41 = CYLINDRICAL_SURFACE ( 'NONE', #242, 6.000000000000000888 ) ;
#42 = ORIENTED_EDGE ( 'NONE', *, *, #371, .T. ) ;
#43 = CARTESIAN_POINT ( 'NONE',  ( 0.000000000000000000, 0.000000000000000000, 0.000000000000000000 ) ) ;
#44 = CARTESIAN_POINT ( 'NONE',  ( -6.700000000000001066, 8.205133554287267548E-16, 7.700000000000012612 ) ) ;
#45 = CARTESIAN_POINT ( 'NONE',  ( 0.000000000000000000, 0.000000000000000000, 207.0000000000000284 ) ) ;
#46 = ORIENTED_EDGE ( 'NONE', *, *, #89, .F. ) ;
#47 = CARTESIAN_POINT ( 'NONE',  ( -10.00000000000000000, 0.000000000000000000, 7.000000000000000000 ) ) ;
#48 = EDGE_LOOP ( 'NONE', ( #84, #120 ) ) ;
#49 = EDGE_CURVE ( 'NONE', #99, #328, #219, .T. ) ;
#50 = DIRECTION ( 'NONE',  ( 1.000000000000000000, 0.000000000000000000, 0.000000000000000000 ) ) ;
#51 = VECTOR ( 'NONE', #259, 1000.000000000000000 ) ;
#52 = CYLINDRICAL_SURFACE ( 'NONE', #224, 10.00000000000000000 ) ;
#53 = VERTEX_POINT ( 'NONE', #287 ) ;
#54 = APPROVAL_STATUS ( 'not_yet_approved' ) ;
#55 = DIRECTION ( 'NONE',  ( 1.000000000000000000, 0.000000000000000000, 0.000000000000000000 ) ) ;
#56 = CARTESIAN_POINT ( 'NONE',  ( 0.000000000000000000, 0.000000000000000000, 7.700000000000012612 ) ) ;
#57 = UNCERTAINTY_MEASURE_WITH_UNIT (LENGTH_MEASURE( 1.000000000000000082E-05 ), #364, 'distance_accuracy_value', 'NONE');
#58 = CIRCLE ( 'NONE', #179, 10.00000000000000000 ) ;
#59 = DIRECTION ( 'NONE',  ( 0.000000000000000000, 0.000000000000000000, 1.000000000000000000 ) ) ;
#60 = CALENDAR_DATE ( 2022, 8, 7 ) ;
#61 = ORIENTED_EDGE ( 'NONE', *, *, #281, .T. ) ;
#62 = APPROVAL_DATE_TIME ( #263, #276 ) ;
#63 = PLANE ( 'NONE',  #229 ) ;
#64 = ADVANCED_BREP_SHAPE_REPRESENTATION ( 'f11c', ( #317, #280 ), #26 ) ;
#65 = APPROVAL_DATE_TIME ( #319, #119 ) ;
#66 = DIRECTION ( 'NONE',  ( 0.000000000000000000, -1.000000000000000000, 0.000000000000000000 ) ) ;
#67 = CC_DESIGN_APPROVAL ( #276, ( #198 ) ) ;
#68 = ADVANCED_FACE ( 'NONE', ( #28 ), #189, .F. ) ;
#69 = DIRECTION ( 'NONE',  ( 1.000000000000000000, 0.000000000000000000, 0.000000000000000000 ) ) ;
#70 = CC_DESIGN_PERSON_AND_ORGANIZATION_ASSIGNMENT ( #142, #262, ( #160 ) ) ;
#71 = CARTESIAN_POINT ( 'NONE',  ( 0.000000000000000000, 0.000000000000000000, 207.0000000000000284 ) ) ;
#72 = CC_DESIGN_PERSON_AND_ORGANIZATION_ASSIGNMENT ( #314, #202, ( #198 ) ) ;
#73 = CARTESIAN_POINT ( 'NONE',  ( 0.000000000000000000, 0.000000000000000000, 7.000000000000000000 ) ) ;
#74 = CC_DESIGN_PERSON_AND_ORGANIZATION_ASSIGNMENT ( #27, #170, ( #361 ) ) ;
#75 = CARTESIAN_POINT ( 'NONE',  ( 10.00000000000000000, 1.224646799147353256E-15, 7.000000000000000000 ) ) ;
#76 = DIRECTION ( 'NONE',  ( -0.000000000000000000, -0.000000000000000000, -1.000000000000000000 ) ) ;
#77 = ORIENTED_EDGE ( 'NONE', *, *, #49, .T. ) ;
#78 = CARTESIAN_POINT ( 'NONE',  ( 0.000000000000000000, 0.000000000000000000, 7.700000000000012612 ) ) ;
#79 = EDGE_LOOP ( 'NONE', ( #14, #355, #156, #77 ) ) ;
#80 = ADVANCED_FACE ( 'NONE', ( #132 ), #52, .T. ) ;
#81 = ORIENTED_EDGE ( 'NONE', *, *, #49, .F. ) ;
#82 = VECTOR ( 'NONE', #101, 1000.000000000000000 ) ;
#83 = LINE ( 'NONE', #130, #33 ) ;
#84 = ORIENTED_EDGE ( 'NONE', *, *, #327, .T. ) ;
#85 = MECHANICAL_CONTEXT ( 'NONE', #137, 'mechanical' ) ;
#86 = COORDINATED_UNIVERSAL_TIME_OFFSET ( 1, 0, .AHEAD. ) ;
#87 = CIRCLE ( 'NONE', #113, 0.7000000000000000666 ) ;
#88 = DIRECTION ( 'NONE',  ( 0.000000000000000000, 0.000000000000000000, -1.000000000000000000 ) ) ;
#89 = EDGE_CURVE ( 'NONE', #358, #91, #11, .T. ) ;
#90 = CARTESIAN_POINT ( 'NONE',  ( -6.700000000000001066, 8.205133554287267548E-16, 7.000000000000006217 ) ) ;
#91 = VERTEX_POINT ( 'NONE', #206 ) ;
#92 = CALENDAR_DATE ( 2022, 8, 7 ) ;
#93 = DIRECTION ( 'NONE',  ( 1.000000000000000000, 0.000000000000000000, 0.000000000000000000 ) ) ;
#94 = CARTESIAN_POINT ( 'NONE',  ( 4.500000000000000000, 5.510910596163087583E-16, 0.000000000000000000 ) ) ;
#95 = ORIENTED_EDGE ( 'NONE', *, *, #207, .F. ) ;
#96 = AXIS2_PLACEMENT_3D ( 'NONE', #73, #329, #12 ) ;
#97 = FACE_OUTER_BOUND ( 'NONE', #79, .T. ) ;
#98 = VERTEX_POINT ( 'NONE', #379 ) ;
#99 = VERTEX_POINT ( 'NONE', #35 ) ;
#100 = LOCAL_TIME ( 16, 27, 28.00000000000000000, #222 ) ;
#101 = DIRECTION ( 'NONE',  ( -0.000000000000000000, -0.000000000000000000, -1.000000000000000000 ) ) ;
#102 = DIRECTION ( 'NONE',  ( 1.000000000000000000, 0.000000000000000000, -0.000000000000000000 ) ) ;
#103 = EDGE_LOOP ( 'NONE', ( #359, #217 ) ) ;
#104 = AXIS2_PLACEMENT_3D ( 'NONE', #334, #340, #336 ) ;
#105 = CIRCLE ( 'NONE', #303, 4.500000000000000000 ) ;
#106 = ORIENTED_EDGE ( 'NONE', *, *, #252, .F. ) ;
#107 = EDGE_CURVE ( 'NONE', #98, #240, #37, .T. ) ;
#108 = ORIENTED_EDGE ( 'NONE', *, *, #342, .T. ) ;
#109 = EDGE_CURVE ( 'NONE', #53, #145, #290, .T. ) ;
#110 = CARTESIAN_POINT ( 'NONE',  ( -4.500000000000000000, 0.000000000000000000, 207.0000000000000284 ) ) ;
#111 = CIRCLE ( 'NONE', #104, 4.500000000000000000 ) ;
#112 = AXIS2_PLACEMENT_3D ( 'NONE', #282, #307, #255 ) ;
#113 = AXIS2_PLACEMENT_3D ( 'NONE', #44, #273, #354 ) ;
#114 = DIRECTION ( 'NONE',  ( 0.000000000000000000, 0.000000000000000000, 1.000000000000000000 ) ) ;
#115 = PERSON_AND_ORGANIZATION ( #127, #225 ) ;
#116 = DIRECTION ( 'NONE',  ( 0.000000000000000000, 0.000000000000000000, -1.000000000000000000 ) ) ;
#117 = APPROVAL_ROLE ( '' ) ;
#118 = EDGE_CURVE ( 'NONE', #181, #98, #15, .T. ) ;
#119 = APPROVAL ( #232, 'NEURÈENÝ' ) ;
#120 = ORIENTED_EDGE ( 'NONE', *, *, #180, .T. ) ;
#121 = FACE_OUTER_BOUND ( 'NONE', #228, .T. ) ;
#122 = DIRECTION ( 'NONE',  ( 1.000000000000000000, 0.000000000000000000, 0.000000000000000000 ) ) ;
#123 = ORIENTED_EDGE ( 'NONE', *, *, #107, .T. ) ;
#124 = DIRECTION ( 'NONE',  ( 1.000000000000000000, 0.000000000000000000, 0.000000000000000000 ) ) ;
#125 = VERTEX_POINT ( 'NONE', #90 ) ;
#126 = AXIS2_PLACEMENT_3D ( 'NONE', #45, #209, #128 ) ;
#127 = PERSON ( 'NEURÈENÝ', 'NEURÈENÝ', 'NEURÈENÝ', ('NEURÈENÝ'), ('NEURÈENÝ'), ('NEURÈENÝ') ) ;
#128 = DIRECTION ( 'NONE',  ( 1.000000000000000000, 0.000000000000000000, -0.000000000000000000 ) ) ;
#129 = ORIENTED_EDGE ( 'NONE', *, *, #245, .F. ) ;
#130 = CARTESIAN_POINT ( 'NONE',  ( 4.500000000000000000, 5.510910596163087583E-16, 207.0000000000000284 ) ) ;
#131 = AXIS2_PLACEMENT_3D ( 'NONE', #214, #155, #122 ) ;
#132 = FACE_OUTER_BOUND ( 'NONE', #215, .T. ) ;
#133 = PERSON_AND_ORGANIZATION_ROLE ( 'design_owner' ) ;
#134 = CARTESIAN_POINT ( 'NONE',  ( 0.000000000000000000, 0.000000000000000000, 7.000000000000000000 ) ) ;
#135 = DIRECTION ( 'NONE',  ( 0.000000000000000000, 0.000000000000000000, 1.000000000000000000 ) ) ;
#136 = AXIS2_PLACEMENT_3D ( 'NONE', #78, #357, #301 ) ;
#137 = APPLICATION_CONTEXT ( 'configuration controlled 3d designs of mechanical parts and assemblies' ) ;
#138 = ORIENTED_EDGE ( 'NONE', *, *, #38, .T. ) ;
#139 = DATE_AND_TIME ( #200, #196 ) ;
#140 = FACE_BOUND ( 'NONE', #48, .T. ) ;
#141 = CALENDAR_DATE ( 2022, 8, 7 ) ;
#142 = PERSON_AND_ORGANIZATION ( #127, #225 ) ;
#143 = AXIS2_PLACEMENT_3D ( 'NONE', #343, #205, #69 ) ;
#144 = CARTESIAN_POINT ( 'NONE',  ( 0.000000000000000000, 0.000000000000000000, 207.0000000000000284 ) ) ;
#145 = VERTEX_POINT ( 'NONE', #233 ) ;
#146 = CARTESIAN_POINT ( 'NONE',  ( 0.000000000000000000, 0.000000000000000000, 207.0000000000000284 ) ) ;
#147 = CLOSED_SHELL ( 'NONE', ( #68, #21, #341, #80, #289, #5, #211, #17, #298, #305, #150 ) ) ;
#148 = CC_DESIGN_APPROVAL ( #208, ( #361 ) ) ;
#149 = CARTESIAN_POINT ( 'NONE',  ( 0.000000000000000000, 0.000000000000000000, 207.0000000000000284 ) ) ;
#150 = ADVANCED_FACE ( 'NONE', ( #121 ), #293, .F. ) ;
#151 = ORIENTED_EDGE ( 'NONE', *, *, #245, .T. ) ;
#152 = CARTESIAN_POINT ( 'NONE',  ( -6.000000000000000888, 0.000000000000000000, 7.700000000000012612 ) ) ;
#153 = VERTEX_POINT ( 'NONE', #94 ) ;
#154 = EDGE_CURVE ( 'NONE', #291, #272, #58, .T. ) ;
#155 = DIRECTION ( 'NONE',  ( 0.000000000000000000, 0.000000000000000000, 1.000000000000000000 ) ) ;
#156 = ORIENTED_EDGE ( 'NONE', *, *, #190, .T. ) ;
#157 = CC_DESIGN_SECURITY_CLASSIFICATION ( #160, ( #361 ) ) ;
#158 = DIRECTION ( 'NONE',  ( -1.000000000000000000, 0.000000000000000000, 0.000000000000000000 ) ) ;
#159 = VECTOR ( 'NONE', #380, 1000.000000000000000 ) ;
#160 = SECURITY_CLASSIFICATION ( '', '', #174 ) ;
#161 = DIRECTION ( 'NONE',  ( 0.000000000000000000, 0.000000000000000000, 1.000000000000000000 ) ) ;
#162 = CARTESIAN_POINT ( 'NONE',  ( 0.000000000000000000, 0.000000000000000000, 7.000000000000000000 ) ) ;
#163 = APPLICATION_PROTOCOL_DEFINITION ( 'international standard', 'config_control_design', 1994, #241 ) ;
#164 = ORIENTED_EDGE ( 'NONE', *, *, #109, .F. ) ;
#165 = VERTEX_POINT ( 'NONE', #299 ) ;
#166 = AXIS2_PLACEMENT_3D ( 'NONE', #146, #116, #349 ) ;
#167 = DIRECTION ( 'NONE',  ( 1.000000000000000000, 0.000000000000000000, 0.000000000000000000 ) ) ;
#168 = DATE_AND_TIME ( #60, #275 ) ;
#169 = DIRECTION ( 'NONE',  ( -0.000000000000000000, -0.000000000000000000, -1.000000000000000000 ) ) ;
#170 = PERSON_AND_ORGANIZATION_ROLE ( 'design_supplier' ) ;
#171 = CARTESIAN_POINT ( 'NONE',  ( -6.000000000000000888, 0.000000000000000000, 207.0000000000000284 ) ) ;
#172 = ORIENTED_EDGE ( 'NONE', *, *, #29, .F. ) ;
#173 = AXIS2_PLACEMENT_3D ( 'NONE', #256, #309, #158 ) ;
#174 = SECURITY_CLASSIFICATION_LEVEL ( 'unclassified' ) ;
#175 = AXIS2_PLACEMENT_3D ( 'NONE', #306, #308, #227 ) ;
#176 = CARTESIAN_POINT ( 'NONE',  ( 0.000000000000000000, 0.000000000000000000, 7.000000000000000000 ) ) ;
#177 = EDGE_CURVE ( 'NONE', #165, #53, #105, .T. ) ;
#178 = FACE_OUTER_BOUND ( 'NONE', #362, .T. ) ;
#179 = AXIS2_PLACEMENT_3D ( 'NONE', #199, #267, #375 ) ;
#180 = EDGE_CURVE ( 'NONE', #125, #91, #310, .T. ) ;
#181 = VERTEX_POINT ( 'NONE', #264 ) ;
#182 = CARTESIAN_POINT ( 'NONE',  ( 10.00000000000000000, 1.224646799147353256E-15, 7.000000000000000000 ) ) ;
#183 = CARTESIAN_POINT ( 'NONE',  ( 10.00000000000000000, 1.224646799147353256E-15, 0.000000000000000000 ) ) ;
#184 = EDGE_CURVE ( 'NONE', #98, #181, #2, .T. ) ;
#185 = CYLINDRICAL_SURFACE ( 'NONE', #96, 10.00000000000000000 ) ;
#186 = ORIENTED_EDGE ( 'NONE', *, *, #360, .F. ) ;
#187 = EDGE_LOOP ( 'NONE', ( #302, #213, #138, #164 ) ) ;
#188 =( NAMED_UNIT ( * ) SI_UNIT ( $, .STERADIAN. ) SOLID_ANGLE_UNIT ( ) );
#189 = CYLINDRICAL_SURFACE ( 'NONE', #173, 4.500000000000000000 ) ;
#190 = EDGE_CURVE ( 'NONE', #291, #99, #323, .T. ) ;
#191 = CIRCLE ( 'NONE', #351, 6.000000000000000888 ) ;
#192 =( NAMED_UNIT ( * ) PLANE_ANGLE_UNIT ( ) SI_UNIT ( $, .RADIAN. ) );
#193 = ORIENTED_EDGE ( 'NONE', *, *, #257, .T. ) ;
#194 = DIRECTION ( 'NONE',  ( 0.000000000000000000, 0.000000000000000000, 1.000000000000000000 ) ) ;
#195 = CARTESIAN_POINT ( 'NONE',  ( 0.000000000000000000, 0.000000000000000000, 0.000000000000000000 ) ) ;
#196 = LOCAL_TIME ( 16, 27, 28.00000000000000000, #197 ) ;
#197 = COORDINATED_UNIVERSAL_TIME_OFFSET ( 1, 0, .AHEAD. ) ;
#198 = PRODUCT_DEFINITION ( 'NEZNÁMÝ', '', #361, #315 ) ;
#199 = CARTESIAN_POINT ( 'NONE',  ( 0.000000000000000000, 0.000000000000000000, 7.000000000000000000 ) ) ;
#200 = CALENDAR_DATE ( 2022, 8, 7 ) ;
#201 = CARTESIAN_POINT ( 'NONE',  ( 6.700000000000001066, 0.000000000000000000, 7.700000000000012612 ) ) ;
#202 = PERSON_AND_ORGANIZATION_ROLE ( 'creator' ) ;
#203 = CARTESIAN_POINT ( 'NONE',  ( 0.000000000000000000, 0.000000000000000000, 0.000000000000000000 ) ) ;
#204 = VECTOR ( 'NONE', #271, 1000.000000000000000 ) ;
#205 = DIRECTION ( 'NONE',  ( 0.000000000000000000, 0.000000000000000000, 1.000000000000000000 ) ) ;
#206 = CARTESIAN_POINT ( 'NONE',  ( 6.700000000000001066, 0.000000000000000000, 7.000000000000006217 ) ) ;
#207 = EDGE_CURVE ( 'NONE', #328, #99, #251, .T. ) ;
#208 = APPROVAL ( #258, 'NEURÈENÝ' ) ;
#209 = DIRECTION ( 'NONE',  ( 0.000000000000000000, 0.000000000000000000, 1.000000000000000000 ) ) ;
#210 = ORIENTED_EDGE ( 'NONE', *, *, #371, .F. ) ;
#211 = ADVANCED_FACE ( 'NONE', ( #346, #318 ), #63, .F. ) ;
#212 = DIRECTION ( 'NONE',  ( 1.000000000000000000, 0.000000000000000000, 0.000000000000000000 ) ) ;
#213 = ORIENTED_EDGE ( 'NONE', *, *, #353, .T. ) ;
#214 = CARTESIAN_POINT ( 'NONE',  ( 0.000000000000000000, 0.000000000000000000, 207.0000000000000284 ) ) ;
#215 = EDGE_LOOP ( 'NONE', ( #172, #193, #331, #218 ) ) ;
#216 = DIRECTION ( 'NONE',  ( 0.000000000000000000, 0.000000000000000000, 1.000000000000000000 ) ) ;
#217 = ORIENTED_EDGE ( 'NONE', *, *, #29, .T. ) ;
#218 = ORIENTED_EDGE ( 'NONE', *, *, #190, .F. ) ;
#219 = CIRCLE ( 'NONE', #32, 10.00000000000000000 ) ;
#220 = CIRCLE ( 'NONE', #356, 6.700000000000001066 ) ;
#221 = PRODUCT ( 'f11c', 'f11c', '', ( #85 ) ) ;
#222 = COORDINATED_UNIVERSAL_TIME_OFFSET ( 1, 0, .AHEAD. ) ;
#223 = FACE_OUTER_BOUND ( 'NONE', #311, .T. ) ;
#224 = AXIS2_PLACEMENT_3D ( 'NONE', #162, #169, #322 ) ;
#225 = ORGANIZATION ( 'NEURÈENÝ', 'NEURÈENÝ', '' ) ;
#226 = CYLINDRICAL_SURFACE ( 'NONE', #112, 6.000000000000000888 ) ;
#227 = DIRECTION ( 'NONE',  ( 1.000000000000000000, 0.000000000000000000, 0.000000000000000000 ) ) ;
#228 = EDGE_LOOP ( 'NONE', ( #246, #36, #265, #9 ) ) ;
#229 = AXIS2_PLACEMENT_3D ( 'NONE', #43, #216, #3 ) ;
#230 = APPROVAL_DATE_TIME ( #234, #208 ) ;
#231 = DIRECTION ( 'NONE',  ( 1.000000000000000000, 0.000000000000000000, 0.000000000000000000 ) ) ;
#232 = APPROVAL_STATUS ( 'not_yet_approved' ) ;
#233 = CARTESIAN_POINT ( 'NONE',  ( -4.500000000000000000, 0.000000000000000000, 0.000000000000000000 ) ) ;
#234 = DATE_AND_TIME ( #92, #326 ) ;
#235 = EDGE_LOOP ( 'NONE', ( #129, #16, #268, #363 ) ) ;
#236 = DATE_TIME_ROLE ( 'creation_date' ) ;
#237 = DIRECTION ( 'NONE',  ( 1.000000000000000000, 0.000000000000000000, 0.000000000000000000 ) ) ;
#238 = FACE_OUTER_BOUND ( 'NONE', #277, .T. ) ;
#239 = DIRECTION ( 'NONE',  ( -1.000000000000000000, 0.000000000000000000, 0.000000000000000000 ) ) ;
#240 = VERTEX_POINT ( 'NONE', #152 ) ;
#241 = APPLICATION_CONTEXT ( 'configuration controlled 3d designs of mechanical parts and assemblies' ) ;
#242 = AXIS2_PLACEMENT_3D ( 'NONE', #149, #6, #239 ) ;
#243 = EDGE_LOOP ( 'NONE', ( #210, #347, #123, #61 ) ) ;
#244 = CARTESIAN_POINT ( 'NONE',  ( 0.000000000000000000, 0.000000000000000000, 7.700000000000012612 ) ) ;
#245 = EDGE_CURVE ( 'NONE', #240, #125, #87, .T. ) ;
#246 = ORIENTED_EDGE ( 'NONE', *, *, #353, .F. ) ;
#247 = PRODUCT_DEFINITION_SHAPE ( 'NONE', 'NONE',  #198 ) ;
#248 = FACE_BOUND ( 'NONE', #381, .T. ) ;
#249 = ORIENTED_EDGE ( 'NONE', *, *, #327, .F. ) ;
#250 = APPLICATION_PROTOCOL_DEFINITION ( 'international standard', 'config_control_design', 1994, #137 ) ;
#251 = CIRCLE ( 'NONE', #300, 10.00000000000000000 ) ;
#252 = EDGE_CURVE ( 'NONE', #53, #165, #270, .T. ) ;
#253 = LINE ( 'NONE', #366, #82 ) ;
#254 = PERSON_AND_ORGANIZATION ( #127, #225 ) ;
#255 = DIRECTION ( 'NONE',  ( -1.000000000000000000, 0.000000000000000000, 0.000000000000000000 ) ) ;
#256 = CARTESIAN_POINT ( 'NONE',  ( 0.000000000000000000, 0.000000000000000000, 207.0000000000000284 ) ) ;
#257 = EDGE_CURVE ( 'NONE', #272, #328, #330, .T. ) ;
#258 = APPROVAL_STATUS ( 'not_yet_approved' ) ;
#259 = DIRECTION ( 'NONE',  ( -0.000000000000000000, -0.000000000000000000, -1.000000000000000000 ) ) ;
#260 = ORIENTED_EDGE ( 'NONE', *, *, #107, .F. ) ;
#261 = VECTOR ( 'NONE', #76, 1000.000000000000000 ) ;
#262 = PERSON_AND_ORGANIZATION_ROLE ( 'classification_officer' ) ;
#263 = DATE_AND_TIME ( #141, #100 ) ;
#264 = CARTESIAN_POINT ( 'NONE',  ( 6.000000000000000888, 7.347880794884120722E-16, 207.0000000000000284 ) ) ;
#265 = ORIENTED_EDGE ( 'NONE', *, *, #109, .T. ) ;
#266 = CC_DESIGN_PERSON_AND_ORGANIZATION_ASSIGNMENT ( #345, #292, ( #361 ) ) ;
#267 = DIRECTION ( 'NONE',  ( 0.000000000000000000, 0.000000000000000000, 1.000000000000000000 ) ) ;
#268 = ORIENTED_EDGE ( 'NONE', *, *, #89, .T. ) ;
#269 = AXIS2_PLACEMENT_3D ( 'NONE', #134, #368, #102 ) ;
#270 = CIRCLE ( 'NONE', #131, 4.500000000000000000 ) ;
#271 = DIRECTION ( 'NONE',  ( -0.000000000000000000, -0.000000000000000000, -1.000000000000000000 ) ) ;
#272 = VERTEX_POINT ( 'NONE', #182 ) ;
#273 = DIRECTION ( 'NONE',  ( 1.224646799147353207E-16, 1.000000000000000000, -0.000000000000000000 ) ) ;
#274 = AXIS2_PLACEMENT_3D ( 'NONE', #283, #194, #55 ) ;
#275 = LOCAL_TIME ( 16, 27, 28.00000000000000000, #297 ) ;
#276 = APPROVAL ( #54, 'NEURÈENÝ' ) ;
#277 = EDGE_LOOP ( 'NONE', ( #377, #320 ) ) ;
#278 = TOROIDAL_SURFACE ( 'NONE', #10, 6.700000000000001066, 0.6999999999999999556 ) ;
#279 = FACE_OUTER_BOUND ( 'NONE', #103, .T. ) ;
#280 = AXIS2_PLACEMENT_3D ( 'NONE', #22, #161, #339 ) ;
#281 = EDGE_CURVE ( 'NONE', #240, #358, #321, .T. ) ;
#282 = CARTESIAN_POINT ( 'NONE',  ( 0.000000000000000000, 0.000000000000000000, 207.0000000000000284 ) ) ;
#283 = CARTESIAN_POINT ( 'NONE',  ( 0.000000000000000000, 0.000000000000000000, 7.000000000000000000 ) ) ;
#284 = DIRECTION ( 'NONE',  ( 0.000000000000000000, 0.000000000000000000, -1.000000000000000000 ) ) ;
#285 = APPROVAL_PERSON_ORGANIZATION ( #286, #208, #117 ) ;
#286 = PERSON_AND_ORGANIZATION ( #127, #225 ) ;
#287 = CARTESIAN_POINT ( 'NONE',  ( -4.500000000000000000, 0.000000000000000000, 207.0000000000000284 ) ) ;
#288 = CALENDAR_DATE ( 2022, 8, 7 ) ;
#289 = ADVANCED_FACE ( 'NONE', ( #97 ), #185, .T. ) ;
#290 = LINE ( 'NONE', #110, #159 ) ;
#291 = VERTEX_POINT ( 'NONE', #47 ) ;
#292 = PERSON_AND_ORGANIZATION_ROLE ( 'creator' ) ;
#293 = CYLINDRICAL_SURFACE ( 'NONE', #166, 4.500000000000000000 ) ;
#294 = AXIS2_PLACEMENT_3D ( 'NONE', #176, #316, #93 ) ;
#295 = SHAPE_DEFINITION_REPRESENTATION ( #247, #64 ) ;
#296 = DIRECTION ( 'NONE',  ( 0.000000000000000000, 0.000000000000000000, 1.000000000000000000 ) ) ;
#297 = COORDINATED_UNIVERSAL_TIME_OFFSET ( 1, 0, .AHEAD. ) ;
#298 = ADVANCED_FACE ( 'NONE', ( #248, #238 ), #304, .T. ) ;
#299 = CARTESIAN_POINT ( 'NONE',  ( 4.500000000000000000, 5.510910596163087583E-16, 207.0000000000000284 ) ) ;
#300 = AXIS2_PLACEMENT_3D ( 'NONE', #203, #114, #231 ) ;
#301 = DIRECTION ( 'NONE',  ( 1.000000000000000000, 0.000000000000000000, 0.000000000000000000 ) ) ;
#302 = ORIENTED_EDGE ( 'NONE', *, *, #252, .T. ) ;
#303 = AXIS2_PLACEMENT_3D ( 'NONE', #71, #1, #237 ) ;
#304 = PLANE ( 'NONE',  #126 ) ;
#305 = ADVANCED_FACE ( 'NONE', ( #352 ), #344, .F. ) ;
#306 = CARTESIAN_POINT ( 'NONE',  ( 0.000000000000000000, 0.000000000000000000, 0.000000000000000000 ) ) ;
#307 = DIRECTION ( 'NONE',  ( -0.000000000000000000, -0.000000000000000000, -1.000000000000000000 ) ) ;
#308 = DIRECTION ( 'NONE',  ( -0.000000000000000000, -0.000000000000000000, -1.000000000000000000 ) ) ;
#309 = DIRECTION ( 'NONE',  ( 0.000000000000000000, 0.000000000000000000, -1.000000000000000000 ) ) ;
#310 = CIRCLE ( 'NONE', #294, 6.700000000000001066 ) ;
#311 = EDGE_LOOP ( 'NONE', ( #39, #151, #249, #46 ) ) ;
#312 = PERSON_AND_ORGANIZATION ( #127, #225 ) ;
#313 = APPROVAL_PERSON_ORGANIZATION ( #254, #276, #25 ) ;
#314 = PERSON_AND_ORGANIZATION ( #127, #225 ) ;
#315 = DESIGN_CONTEXT ( 'detailed design', #241, 'design' ) ;
#316 = DIRECTION ( 'NONE',  ( -0.000000000000000000, -0.000000000000000000, -1.000000000000000000 ) ) ;
#317 = MANIFOLD_SOLID_BREP ( 'Odebrat vysunutím3', #147 ) ;
#318 = FACE_OUTER_BOUND ( 'NONE', #372, .T. ) ;
#319 = DATE_AND_TIME ( #288, #369 ) ;
#320 = ORIENTED_EDGE ( 'NONE', *, *, #118, .T. ) ;
#321 = CIRCLE ( 'NONE', #136, 6.000000000000000888 ) ;
#322 = DIRECTION ( 'NONE',  ( -1.000000000000000000, 0.000000000000000000, 0.000000000000000000 ) ) ;
#323 = LINE ( 'NONE', #30, #51 ) ;
#324 = DIRECTION ( 'NONE',  ( 0.000000000000000000, 0.000000000000000000, 1.000000000000000000 ) ) ;
#325 = EDGE_LOOP ( 'NONE', ( #186, #365 ) ) ;
#326 = LOCAL_TIME ( 16, 27, 28.00000000000000000, #86 ) ;
#327 = EDGE_CURVE ( 'NONE', #91, #125, #220, .T. ) ;
#328 = VERTEX_POINT ( 'NONE', #183 ) ;
#329 = DIRECTION ( 'NONE',  ( -0.000000000000000000, -0.000000000000000000, -1.000000000000000000 ) ) ;
#330 = LINE ( 'NONE', #75, #261 ) ;
#331 = ORIENTED_EDGE ( 'NONE', *, *, #207, .T. ) ;
#332 = APPROVAL_PERSON_ORGANIZATION ( #115, #119, #348 ) ;
#333 = CC_DESIGN_PERSON_AND_ORGANIZATION_ASSIGNMENT ( #312, #133, ( #221 ) ) ;
#334 = CARTESIAN_POINT ( 'NONE',  ( 0.000000000000000000, 0.000000000000000000, 0.000000000000000000 ) ) ;
#335 = DIRECTION ( 'NONE',  ( 1.000000000000000000, 0.000000000000000000, 0.000000000000000000 ) ) ;
#336 = DIRECTION ( 'NONE',  ( 1.000000000000000000, 0.000000000000000000, 0.000000000000000000 ) ) ;
#337 = CIRCLE ( 'NONE', #175, 4.500000000000000000 ) ;
#338 = CARTESIAN_POINT ( 'NONE',  ( 0.000000000000000000, 0.000000000000000000, 7.700000000000012612 ) ) ;
#339 = DIRECTION ( 'NONE',  ( 1.000000000000000000, 0.000000000000000000, 0.000000000000000000 ) ) ;
#340 = DIRECTION ( 'NONE',  ( -0.000000000000000000, -0.000000000000000000, -1.000000000000000000 ) ) ;
#341 = ADVANCED_FACE ( 'NONE', ( #178 ), #41, .T. ) ;
#342 = EDGE_CURVE ( 'NONE', #358, #240, #191, .T. ) ;
#343 = CARTESIAN_POINT ( 'NONE',  ( 0.000000000000000000, 0.000000000000000000, 207.0000000000000284 ) ) ;
#344 = TOROIDAL_SURFACE ( 'NONE', #19, 6.700000000000001066, 0.6999999999999999556 ) ;
#345 = PERSON_AND_ORGANIZATION ( #127, #225 ) ;
#346 = FACE_BOUND ( 'NONE', #325, .T. ) ;
#347 = ORIENTED_EDGE ( 'NONE', *, *, #184, .F. ) ;
#348 = APPROVAL_ROLE ( '' ) ;
#349 = DIRECTION ( 'NONE',  ( -1.000000000000000000, 0.000000000000000000, 0.000000000000000000 ) ) ;
#350 = DIRECTION ( 'NONE',  ( 1.000000000000000000, 0.000000000000000000, 0.000000000000000000 ) ) ;
#351 = AXIS2_PLACEMENT_3D ( 'NONE', #56, #135, #335 ) ;
#352 = FACE_OUTER_BOUND ( 'NONE', #235, .T. ) ;
#353 = EDGE_CURVE ( 'NONE', #165, #153, #83, .T. ) ;
#354 = DIRECTION ( 'NONE',  ( -1.000000000000000000, 1.224646799147353454E-16, 0.000000000000000000 ) ) ;
#355 = ORIENTED_EDGE ( 'NONE', *, *, #154, .F. ) ;
#356 = AXIS2_PLACEMENT_3D ( 'NONE', #13, #8, #124 ) ;
#357 = DIRECTION ( 'NONE',  ( 0.000000000000000000, 0.000000000000000000, 1.000000000000000000 ) ) ;
#358 = VERTEX_POINT ( 'NONE', #370 ) ;
#359 = ORIENTED_EDGE ( 'NONE', *, *, #154, .T. ) ;
#360 = EDGE_CURVE ( 'NONE', #145, #153, #337, .T. ) ;
#361 = PRODUCT_DEFINITION_FORMATION_WITH_SPECIFIED_SOURCE ( 'LIBOVOLNÝ', '', #221, .NOT_KNOWN. ) ;
#362 = EDGE_LOOP ( 'NONE', ( #31, #42, #108, #260 ) ) ;
#363 = ORIENTED_EDGE ( 'NONE', *, *, #180, .F. ) ;
#364 =( LENGTH_UNIT ( ) NAMED_UNIT ( * ) SI_UNIT ( .MILLI., .METRE. ) );
#365 = ORIENTED_EDGE ( 'NONE', *, *, #38, .F. ) ;
#366 = CARTESIAN_POINT ( 'NONE',  ( 6.000000000000000888, 7.347880794884120722E-16, 207.0000000000000284 ) ) ;
#367 = AXIS2_PLACEMENT_3D ( 'NONE', #201, #66, #88 ) ;
#368 = DIRECTION ( 'NONE',  ( 0.000000000000000000, 0.000000000000000000, 1.000000000000000000 ) ) ;
#369 = LOCAL_TIME ( 16, 27, 28.00000000000000000, #34 ) ;
#370 = CARTESIAN_POINT ( 'NONE',  ( 6.000000000000000888, 7.347880794884120722E-16, 7.700000000000012612 ) ) ;
#371 = EDGE_CURVE ( 'NONE', #181, #358, #253, .T. ) ;
#372 = EDGE_LOOP ( 'NONE', ( #81, #95 ) ) ;
#373 = CC_DESIGN_DATE_AND_TIME_ASSIGNMENT ( #168, #378, ( #160 ) ) ;
#374 = ORIENTED_EDGE ( 'NONE', *, *, #177, .F. ) ;
#375 = DIRECTION ( 'NONE',  ( 1.000000000000000000, 0.000000000000000000, 0.000000000000000000 ) ) ;
#376 = CC_DESIGN_APPROVAL ( #119, ( #160 ) ) ;
#377 = ORIENTED_EDGE ( 'NONE', *, *, #184, .T. ) ;
#378 = DATE_TIME_ROLE ( 'classification_date' ) ;
#379 = CARTESIAN_POINT ( 'NONE',  ( -6.000000000000000888, 0.000000000000000000, 207.0000000000000284 ) ) ;
#380 = DIRECTION ( 'NONE',  ( 0.000000000000000000, 0.000000000000000000, -1.000000000000000000 ) ) ;
#381 = EDGE_LOOP ( 'NONE', ( #106, #374 ) ) ;
ENDSEC;
END-ISO-10303-21;
