ISO-10303-21;
HEADER;
FILE_DESCRIPTION (( 'STEP AP203' ),
    '1' );
FILE_NAME ('556c.STEP',
    '2022-07-08T14:41:50',
    ( '' ),
    ( '' ),
    'SwSTEP 2.0',
    'SolidWorks 2019',
    '' );
FILE_SCHEMA (( 'CONFIG_CONTROL_DESIGN' ));
ENDSEC;

DATA;
#1 = LINE ( 'NONE', #213, #271 ) ;
#2 = CIRCLE ( 'NONE', #346, 10.00000000000000000 ) ;
#3 = CARTESIAN_POINT ( 'NONE',  ( 3.250000000000000444, 3.980102097228898231E-16, 307.0000000000000000 ) ) ;
#4 = DIRECTION ( 'NONE',  ( 0.000000000000000000, 0.000000000000000000, 1.000000000000000000 ) ) ;
#5 = CARTESIAN_POINT ( 'NONE',  ( -6.000000000000000888, 0.000000000000000000, 307.0000000000000000 ) ) ;
#6 = AXIS2_PLACEMENT_3D ( 'NONE', #220, #135, #64 ) ;
#7 = APPLICATION_PROTOCOL_DEFINITION ( 'international standard', 'config_control_design', 1994, #8 ) ;
#8 = APPLICATION_CONTEXT ( 'configuration controlled 3d designs of mechanical parts and assemblies' ) ;
#9 = APPROVAL_DATE_TIME ( #328, #94 ) ;
#10 = CARTESIAN_POINT ( 'NONE',  ( -6.500000000000000888, 7.960204194457796463E-16, 7.000000000000002665 ) ) ;
#11 = DATE_TIME_ROLE ( 'classification_date' ) ;
#12 = DIRECTION ( 'NONE',  ( 1.000000000000000000, 0.000000000000000000, 0.000000000000000000 ) ) ;
#13 = AXIS2_PLACEMENT_3D ( 'NONE', #241, #352, #98 ) ;
#14 = ORIENTED_EDGE ( 'NONE', *, *, #43, .F. ) ;
#15 = ORIENTED_EDGE ( 'NONE', *, *, #196, .F. ) ;
#16 = APPROVAL_ROLE ( '' ) ;
#17 = FACE_OUTER_BOUND ( 'NONE', #118, .T. ) ;
#18 = VERTEX_POINT ( 'NONE', #253 ) ;
#19 = CARTESIAN_POINT ( 'NONE',  ( 10.00000000000000000, 1.224646799147353256E-15, 7.000000000000000000 ) ) ;
#20 = AXIS2_PLACEMENT_3D ( 'NONE', #224, #200, #141 ) ;
#21 = ADVANCED_FACE ( 'NONE', ( #76 ), #37, .T. ) ;
#22 = PERSON_AND_ORGANIZATION ( #29, #379 ) ;
#23 = ORIENTED_EDGE ( 'NONE', *, *, #345, .T. ) ;
#24 = CARTESIAN_POINT ( 'NONE',  ( 0.000000000000000000, 0.000000000000000000, 7.000000000000000000 ) ) ;
#25 = ORIENTED_EDGE ( 'NONE', *, *, #295, .T. ) ;
#26 = VERTEX_POINT ( 'NONE', #10 ) ;
#27 = LOCAL_TIME ( 16, 41, 50.00000000000000000, #329 ) ;
#28 = CYLINDRICAL_SURFACE ( 'NONE', #67, 10.00000000000000000 ) ;
#29 = PERSON ( 'NEURÈENÝ', 'NEURÈENÝ', 'NEURÈENÝ', ('NEURÈENÝ'), ('NEURÈENÝ'), ('NEURÈENÝ') ) ;
#30 = ORIENTED_EDGE ( 'NONE', *, *, #108, .F. ) ;
#31 = ADVANCED_FACE ( 'NONE', ( #278 ), #72, .T. ) ;
#32 = AXIS2_PLACEMENT_3D ( 'NONE', #131, #190, #210 ) ;
#33 =( NAMED_UNIT ( * ) PLANE_ANGLE_UNIT ( ) SI_UNIT ( $, .RADIAN. ) );
#34 = ADVANCED_BREP_SHAPE_REPRESENTATION ( '556c', ( #317, #6 ), #349 ) ;
#35 = CC_DESIGN_DATE_AND_TIME_ASSIGNMENT ( #262, #260, ( #251 ) ) ;
#36 = CARTESIAN_POINT ( 'NONE',  ( -10.00000000000000000, 0.000000000000000000, 0.000000000000000000 ) ) ;
#37 = CYLINDRICAL_SURFACE ( 'NONE', #101, 6.000000000000000888 ) ;
#38 = CC_DESIGN_APPROVAL ( #119, ( #85 ) ) ;
#39 = AXIS2_PLACEMENT_3D ( 'NONE', #307, #42, #273 ) ;
#40 = EDGE_LOOP ( 'NONE', ( #25, #189 ) ) ;
#41 = CARTESIAN_POINT ( 'NONE',  ( 0.000000000000000000, 0.000000000000000000, 307.0000000000000000 ) ) ;
#42 = DIRECTION ( 'NONE',  ( -0.000000000000000000, -0.000000000000000000, -1.000000000000000000 ) ) ;
#43 = EDGE_CURVE ( 'NONE', #237, #69, #362, .T. ) ;
#44 = FACE_OUTER_BOUND ( 'NONE', #212, .T. ) ;
#45 = COORDINATED_UNIVERSAL_TIME_OFFSET ( 1, 0, .AHEAD. ) ;
#46 = DIRECTION ( 'NONE',  ( 0.000000000000000000, 0.000000000000000000, -1.000000000000000000 ) ) ;
#47 = CIRCLE ( 'NONE', #54, 0.5000000000000004441 ) ;
#48 = PERSON_AND_ORGANIZATION_ROLE ( 'design_supplier' ) ;
#49 = DIRECTION ( 'NONE',  ( 1.000000000000000000, 0.000000000000000000, 0.000000000000000000 ) ) ;
#50 = LOCAL_TIME ( 16, 41, 50.00000000000000000, #257 ) ;
#51 = CARTESIAN_POINT ( 'NONE',  ( 0.000000000000000000, 0.000000000000000000, 307.0000000000000000 ) ) ;
#52 = CALENDAR_DATE ( 2022, 8, 7 ) ;
#53 = CARTESIAN_POINT ( 'NONE',  ( 0.000000000000000000, 0.000000000000000000, 7.000000000000000000 ) ) ;
#54 = AXIS2_PLACEMENT_3D ( 'NONE', #92, #376, #158 ) ;
#55 = DIRECTION ( 'NONE',  ( -0.000000000000000000, -0.000000000000000000, -1.000000000000000000 ) ) ;
#56 = CARTESIAN_POINT ( 'NONE',  ( 3.250000000000000444, 3.980102097228898231E-16, 307.0000000000000000 ) ) ;
#57 = ORIENTED_EDGE ( 'NONE', *, *, #368, .F. ) ;
#58 = DIRECTION ( 'NONE',  ( 0.000000000000000000, 0.000000000000000000, -1.000000000000000000 ) ) ;
#59 = CIRCLE ( 'NONE', #236, 0.5000000000000004441 ) ;
#60 = ORIENTED_EDGE ( 'NONE', *, *, #179, .T. ) ;
#61 = ADVANCED_FACE ( 'NONE', ( #203, #139 ), #104, .F. ) ;
#62 = ORIENTED_EDGE ( 'NONE', *, *, #142, .T. ) ;
#63 = EDGE_CURVE ( 'NONE', #215, #297, #285, .T. ) ;
#64 = DIRECTION ( 'NONE',  ( 1.000000000000000000, 0.000000000000000000, 0.000000000000000000 ) ) ;
#65 = ORIENTED_EDGE ( 'NONE', *, *, #183, .T. ) ;
#66 = LOCAL_TIME ( 16, 41, 50.00000000000000000, #116 ) ;
#67 = AXIS2_PLACEMENT_3D ( 'NONE', #235, #55, #293 ) ;
#68 = LINE ( 'NONE', #103, #113 ) ;
#69 = VERTEX_POINT ( 'NONE', #134 ) ;
#70 = PERSON_AND_ORGANIZATION_ROLE ( 'design_owner' ) ;
#71 = FACE_OUTER_BOUND ( 'NONE', #351, .T. ) ;
#72 = CYLINDRICAL_SURFACE ( 'NONE', #214, 10.00000000000000000 ) ;
#73 = PERSON_AND_ORGANIZATION ( #29, #379 ) ;
#74 = AXIS2_PLACEMENT_3D ( 'NONE', #148, #228, #86 ) ;
#75 = DATE_AND_TIME ( #229, #66 ) ;
#76 = FACE_OUTER_BOUND ( 'NONE', #99, .T. ) ;
#77 = ADVANCED_FACE ( 'NONE', ( #248 ), #80, .F. ) ;
#78 = PERSON_AND_ORGANIZATION_ROLE ( 'creator' ) ;
#79 = DIRECTION ( 'NONE',  ( 0.000000000000000000, 0.000000000000000000, 1.000000000000000000 ) ) ;
#80 = TOROIDAL_SURFACE ( 'NONE', #124, 6.500000000000000888, 0.5000000000000000000 ) ;
#81 = CC_DESIGN_PERSON_AND_ORGANIZATION_ASSIGNMENT ( #105, #225, ( #251 ) ) ;
#82 = DIRECTION ( 'NONE',  ( 0.000000000000000000, 0.000000000000000000, 1.000000000000000000 ) ) ;
#83 = EDGE_CURVE ( 'NONE', #18, #132, #338, .T. ) ;
#84 = ORIENTED_EDGE ( 'NONE', *, *, #282, .F. ) ;
#85 = SECURITY_CLASSIFICATION ( '', '', #365 ) ;
#86 = DIRECTION ( 'NONE',  ( 1.000000000000000000, 0.000000000000000000, -0.000000000000000000 ) ) ;
#87 = AXIS2_PLACEMENT_3D ( 'NONE', #211, #318, #270 ) ;
#88 = EDGE_CURVE ( 'NONE', #129, #378, #59, .T. ) ;
#89 = CARTESIAN_POINT ( 'NONE',  ( 3.250000000000000444, 3.980102097228898231E-16, 0.000000000000000000 ) ) ;
#90 = DESIGN_CONTEXT ( 'detailed design', #166, 'design' ) ;
#91 = CARTESIAN_POINT ( 'NONE',  ( -3.250000000000000444, 0.000000000000000000, 307.0000000000000000 ) ) ;
#92 = CARTESIAN_POINT ( 'NONE',  ( -6.500000000000000888, 7.960204194457796463E-16, 7.500000000000007105 ) ) ;
#93 = ORIENTED_EDGE ( 'NONE', *, *, #196, .T. ) ;
#94 = APPROVAL ( #162, 'NEURÈENÝ' ) ;
#95 = AXIS2_PLACEMENT_3D ( 'NONE', #298, #327, #133 ) ;
#96 = DIRECTION ( 'NONE',  ( -0.000000000000000000, -0.000000000000000000, -1.000000000000000000 ) ) ;
#97 = CC_DESIGN_APPROVAL ( #94, ( #251 ) ) ;
#98 = DIRECTION ( 'NONE',  ( 1.000000000000000000, 0.000000000000000000, 0.000000000000000000 ) ) ;
#99 = EDGE_LOOP ( 'NONE', ( #187, #266, #276, #240 ) ) ;
#100 = CC_DESIGN_PERSON_AND_ORGANIZATION_ASSIGNMENT ( #175, #48, ( #181 ) ) ;
#101 = AXIS2_PLACEMENT_3D ( 'NONE', #174, #165, #330 ) ;
#102 = CARTESIAN_POINT ( 'NONE',  ( 0.000000000000000000, 0.000000000000000000, 7.000000000000000000 ) ) ;
#103 = CARTESIAN_POINT ( 'NONE',  ( 10.00000000000000000, 1.224646799147353256E-15, 7.000000000000000000 ) ) ;
#104 = PLANE ( 'NONE',  #20 ) ;
#105 = PERSON_AND_ORGANIZATION ( #29, #379 ) ;
#106 = ADVANCED_FACE ( 'NONE', ( #150, #17 ), #310, .T. ) ;
#107 = CIRCLE ( 'NONE', #208, 6.000000000000000888 ) ;
#108 = EDGE_CURVE ( 'NONE', #371, #161, #2, .T. ) ;
#109 = DATE_AND_TIME ( #204, #283 ) ;
#110 = DIRECTION ( 'NONE',  ( 1.000000000000000000, 0.000000000000000000, 0.000000000000000000 ) ) ;
#111 = VERTEX_POINT ( 'NONE', #205 ) ;
#112 = ORIENTED_EDGE ( 'NONE', *, *, #179, .F. ) ;
#113 = VECTOR ( 'NONE', #222, 1000.000000000000000 ) ;
#114 = DIRECTION ( 'NONE',  ( -1.000000000000000000, 0.000000000000000000, 0.000000000000000000 ) ) ;
#115 = AXIS2_PLACEMENT_3D ( 'NONE', #51, #79, #337 ) ;
#116 = COORDINATED_UNIVERSAL_TIME_OFFSET ( 1, 0, .AHEAD. ) ;
#117 = CARTESIAN_POINT ( 'NONE',  ( 0.000000000000000000, 0.000000000000000000, 0.000000000000000000 ) ) ;
#118 = EDGE_LOOP ( 'NONE', ( #320, #93 ) ) ;
#119 = APPROVAL ( #206, 'NEURÈENÝ' ) ;
#120 = ORIENTED_EDGE ( 'NONE', *, *, #142, .F. ) ;
#121 = FACE_OUTER_BOUND ( 'NONE', #194, .T. ) ;
#122 = ORIENTED_EDGE ( 'NONE', *, *, #282, .T. ) ;
#123 = ADVANCED_FACE ( 'NONE', ( #44 ), #372, .F. ) ;
#124 = AXIS2_PLACEMENT_3D ( 'NONE', #342, #290, #49 ) ;
#125 = LINE ( 'NONE', #91, #144 ) ;
#126 = APPROVAL_PERSON_ORGANIZATION ( #323, #94, #304 ) ;
#127 = CARTESIAN_POINT ( 'NONE',  ( 0.000000000000000000, 0.000000000000000000, 307.0000000000000000 ) ) ;
#128 = ORIENTED_EDGE ( 'NONE', *, *, #83, .T. ) ;
#129 = VERTEX_POINT ( 'NONE', #370 ) ;
#130 = CIRCLE ( 'NONE', #332, 6.000000000000000888 ) ;
#131 = CARTESIAN_POINT ( 'NONE',  ( 0.000000000000000000, 0.000000000000000000, 0.000000000000000000 ) ) ;
#132 = VERTEX_POINT ( 'NONE', #19 ) ;
#133 = DIRECTION ( 'NONE',  ( -1.000000000000000000, 0.000000000000000000, 0.000000000000000000 ) ) ;
#134 = CARTESIAN_POINT ( 'NONE',  ( -6.000000000000000888, 0.000000000000000000, 7.500000000000007105 ) ) ;
#135 = DIRECTION ( 'NONE',  ( 0.000000000000000000, 0.000000000000000000, 1.000000000000000000 ) ) ;
#136 = DIRECTION ( 'NONE',  ( -1.000000000000000000, 0.000000000000000000, 0.000000000000000000 ) ) ;
#137 = DIRECTION ( 'NONE',  ( -0.000000000000000000, -0.000000000000000000, -1.000000000000000000 ) ) ;
#138 = PRODUCT_RELATED_PRODUCT_CATEGORY ( 'detail', '', ( #287 ) ) ;
#139 = FACE_OUTER_BOUND ( 'NONE', #157, .T. ) ;
#140 = FACE_OUTER_BOUND ( 'NONE', #303, .T. ) ;
#141 = DIRECTION ( 'NONE',  ( 1.000000000000000000, 0.000000000000000000, -0.000000000000000000 ) ) ;
#142 = EDGE_CURVE ( 'NONE', #180, #313, #363, .T. ) ;
#143 = APPROVAL_DATE_TIME ( #109, #119 ) ;
#144 = VECTOR ( 'NONE', #350, 1000.000000000000000 ) ;
#145 = ORIENTED_EDGE ( 'NONE', *, *, #305, .T. ) ;
#146 = CARTESIAN_POINT ( 'NONE',  ( 6.500000000000000888, 0.000000000000000000, 7.500000000000007105 ) ) ;
#147 = APPROVAL_STATUS ( 'not_yet_approved' ) ;
#148 = CARTESIAN_POINT ( 'NONE',  ( 0.000000000000000000, 0.000000000000000000, 307.0000000000000000 ) ) ;
#149 = ORIENTED_EDGE ( 'NONE', *, *, #83, .F. ) ;
#150 = FACE_BOUND ( 'NONE', #294, .T. ) ;
#151 = EDGE_LOOP ( 'NONE', ( #218, #23, #122, #192 ) ) ;
#152 = EDGE_CURVE ( 'NONE', #313, #180, #319, .T. ) ;
#153 = DIRECTION ( 'NONE',  ( 1.000000000000000000, 0.000000000000000000, 0.000000000000000000 ) ) ;
#154 = DIRECTION ( 'NONE',  ( 1.000000000000000000, 0.000000000000000000, 0.000000000000000000 ) ) ;
#155 = TOROIDAL_SURFACE ( 'NONE', #13, 6.500000000000000888, 0.5000000000000000000 ) ;
#156 = LINE ( 'NONE', #56, #184 ) ;
#157 = EDGE_LOOP ( 'NONE', ( #30, #84 ) ) ;
#158 = DIRECTION ( 'NONE',  ( -1.000000000000000000, 1.224646799147351482E-16, 0.000000000000000000 ) ) ;
#159 = ORIENTED_EDGE ( 'NONE', *, *, #152, .F. ) ;
#160 = DIRECTION ( 'NONE',  ( 0.000000000000000000, 0.000000000000000000, 1.000000000000000000 ) ) ;
#161 = VERTEX_POINT ( 'NONE', #289 ) ;
#162 = APPROVAL_STATUS ( 'not_yet_approved' ) ;
#163 = CC_DESIGN_PERSON_AND_ORGANIZATION_ASSIGNMENT ( #73, #70, ( #287 ) ) ;
#164 = DIRECTION ( 'NONE',  ( -1.000000000000000000, 0.000000000000000000, 0.000000000000000000 ) ) ;
#165 = DIRECTION ( 'NONE',  ( -0.000000000000000000, -0.000000000000000000, -1.000000000000000000 ) ) ;
#166 = APPLICATION_CONTEXT ( 'configuration controlled 3d designs of mechanical parts and assemblies' ) ;
#167 = DIRECTION ( 'NONE',  ( 0.000000000000000000, 0.000000000000000000, 1.000000000000000000 ) ) ;
#168 = DIRECTION ( 'NONE',  ( -0.000000000000000000, -0.000000000000000000, -1.000000000000000000 ) ) ;
#169 = CIRCLE ( 'NONE', #246, 6.000000000000000888 ) ;
#170 = AXIS2_PLACEMENT_3D ( 'NONE', #117, #233, #154 ) ;
#171 = APPLICATION_PROTOCOL_DEFINITION ( 'international standard', 'config_control_design', 1994, #166 ) ;
#172 = ORIENTED_EDGE ( 'NONE', *, *, #295, .F. ) ;
#173 = PLANE ( 'NONE',  #286 ) ;
#174 = CARTESIAN_POINT ( 'NONE',  ( 0.000000000000000000, 0.000000000000000000, 307.0000000000000000 ) ) ;
#175 = PERSON_AND_ORGANIZATION ( #29, #379 ) ;
#176 = PERSON_AND_ORGANIZATION ( #29, #379 ) ;
#177 = VECTOR ( 'NONE', #168, 1000.000000000000000 ) ;
#178 = DIRECTION ( 'NONE',  ( 0.000000000000000000, 0.000000000000000000, -1.000000000000000000 ) ) ;
#179 = EDGE_CURVE ( 'NONE', #297, #215, #227, .T. ) ;
#180 = VERTEX_POINT ( 'NONE', #264 ) ;
#181 = PRODUCT_DEFINITION_FORMATION_WITH_SPECIFIED_SOURCE ( 'LIBOVOLNÝ', '', #287, .NOT_KNOWN. ) ;
#182 = DIRECTION ( 'NONE',  ( 1.000000000000000000, 0.000000000000000000, 0.000000000000000000 ) ) ;
#183 = EDGE_CURVE ( 'NONE', #180, #297, #125, .T. ) ;
#184 = VECTOR ( 'NONE', #58, 1000.000000000000000 ) ;
#185 = ADVANCED_FACE ( 'NONE', ( #121 ), #28, .T. ) ;
#186 = CARTESIAN_POINT ( 'NONE',  ( 0.000000000000000000, 0.000000000000000000, 7.500000000000007105 ) ) ;
#187 = ORIENTED_EDGE ( 'NONE', *, *, #269, .F. ) ;
#188 = CARTESIAN_POINT ( 'NONE',  ( 0.000000000000000000, 0.000000000000000000, 7.000000000000000000 ) ) ;
#189 = ORIENTED_EDGE ( 'NONE', *, *, #309, .T. ) ;
#190 = DIRECTION ( 'NONE',  ( 0.000000000000000000, 0.000000000000000000, 1.000000000000000000 ) ) ;
#191 = CC_DESIGN_DATE_AND_TIME_ASSIGNMENT ( #75, #11, ( #85 ) ) ;
#192 = ORIENTED_EDGE ( 'NONE', *, *, #331, .F. ) ;
#193 = FACE_BOUND ( 'NONE', #40, .T. ) ;
#194 = EDGE_LOOP ( 'NONE', ( #347, #149, #373, #242 ) ) ;
#195 = CIRCLE ( 'NONE', #256, 6.500000000000000888 ) ;
#196 = EDGE_CURVE ( 'NONE', #111, #237, #130, .T. ) ;
#197 = CARTESIAN_POINT ( 'NONE',  ( 6.500000000000000888, 0.000000000000000000, 7.000000000000002665 ) ) ;
#198 = COORDINATED_UNIVERSAL_TIME_OFFSET ( 1, 0, .AHEAD. ) ;
#199 =( LENGTH_UNIT ( ) NAMED_UNIT ( * ) SI_UNIT ( .MILLI., .METRE. ) );
#200 = DIRECTION ( 'NONE',  ( 0.000000000000000000, 0.000000000000000000, 1.000000000000000000 ) ) ;
#201 = CLOSED_SHELL ( 'NONE', ( #123, #326, #374, #31, #185, #341, #61, #21, #106, #77, #359 ) ) ;
#202 = CYLINDRICAL_SURFACE ( 'NONE', #95, 3.250000000000000444 ) ;
#203 = FACE_BOUND ( 'NONE', #231, .T. ) ;
#204 = CALENDAR_DATE ( 2022, 8, 7 ) ;
#205 = CARTESIAN_POINT ( 'NONE',  ( 6.000000000000000888, 7.347880794884120722E-16, 307.0000000000000000 ) ) ;
#206 = APPROVAL_STATUS ( 'not_yet_approved' ) ;
#207 = DIRECTION ( 'NONE',  ( 0.000000000000000000, 0.000000000000000000, 1.000000000000000000 ) ) ;
#208 = AXIS2_PLACEMENT_3D ( 'NONE', #186, #216, #239 ) ;
#209 = EDGE_LOOP ( 'NONE', ( #261, #57, #300, #367 ) ) ;
#210 = DIRECTION ( 'NONE',  ( 1.000000000000000000, 0.000000000000000000, 0.000000000000000000 ) ) ;
#211 = CARTESIAN_POINT ( 'NONE',  ( 0.000000000000000000, 0.000000000000000000, 7.000000000000000000 ) ) ;
#212 = EDGE_LOOP ( 'NONE', ( #62, #316, #325, #268 ) ) ;
#213 = CARTESIAN_POINT ( 'NONE',  ( 6.000000000000000888, 7.347880794884120722E-16, 307.0000000000000000 ) ) ;
#214 = AXIS2_PLACEMENT_3D ( 'NONE', #102, #356, #136 ) ;
#215 = VERTEX_POINT ( 'NONE', #89 ) ;
#216 = DIRECTION ( 'NONE',  ( 0.000000000000000000, 0.000000000000000000, 1.000000000000000000 ) ) ;
#217 = AXIS2_PLACEMENT_3D ( 'NONE', #279, #167, #353 ) ;
#218 = ORIENTED_EDGE ( 'NONE', *, *, #305, .F. ) ;
#219 = EDGE_CURVE ( 'NONE', #313, #215, #156, .T. ) ;
#220 = CARTESIAN_POINT ( 'NONE',  ( 0.000000000000000000, 0.000000000000000000, 0.000000000000000000 ) ) ;
#221 = AXIS2_PLACEMENT_3D ( 'NONE', #339, #82, #182 ) ;
#222 = DIRECTION ( 'NONE',  ( -0.000000000000000000, -0.000000000000000000, -1.000000000000000000 ) ) ;
#223 = APPROVAL_PERSON_ORGANIZATION ( #176, #364, #369 ) ;
#224 = CARTESIAN_POINT ( 'NONE',  ( 0.000000000000000000, 0.000000000000000000, 0.000000000000000000 ) ) ;
#225 = PERSON_AND_ORGANIZATION_ROLE ( 'creator' ) ;
#226 = ORIENTED_EDGE ( 'NONE', *, *, #88, .F. ) ;
#227 = CIRCLE ( 'NONE', #170, 3.250000000000000444 ) ;
#228 = DIRECTION ( 'NONE',  ( 0.000000000000000000, 0.000000000000000000, 1.000000000000000000 ) ) ;
#229 = CALENDAR_DATE ( 2022, 8, 7 ) ;
#230 = DATE_AND_TIME ( #336, #50 ) ;
#231 = EDGE_LOOP ( 'NONE', ( #112, #340 ) ) ;
#232 = EDGE_CURVE ( 'NONE', #69, #26, #47, .T. ) ;
#233 = DIRECTION ( 'NONE',  ( -0.000000000000000000, -0.000000000000000000, -1.000000000000000000 ) ) ;
#234 = ORIENTED_EDGE ( 'NONE', *, *, #232, .T. ) ;
#235 = CARTESIAN_POINT ( 'NONE',  ( 0.000000000000000000, 0.000000000000000000, 7.000000000000000000 ) ) ;
#236 = AXIS2_PLACEMENT_3D ( 'NONE', #146, #366, #46 ) ;
#237 = VERTEX_POINT ( 'NONE', #267 ) ;
#238 = UNCERTAINTY_MEASURE_WITH_UNIT (LENGTH_MEASURE( 1.000000000000000082E-05 ), #199, 'distance_accuracy_value', 'NONE');
#239 = DIRECTION ( 'NONE',  ( 1.000000000000000000, 0.000000000000000000, 0.000000000000000000 ) ) ;
#240 = ORIENTED_EDGE ( 'NONE', *, *, #275, .T. ) ;
#241 = CARTESIAN_POINT ( 'NONE',  ( 0.000000000000000000, 0.000000000000000000, 7.500000000000007105 ) ) ;
#242 = ORIENTED_EDGE ( 'NONE', *, *, #108, .T. ) ;
#243 = DIRECTION ( 'NONE',  ( 0.000000000000000000, 0.000000000000000000, 1.000000000000000000 ) ) ;
#244 = AXIS2_PLACEMENT_3D ( 'NONE', #53, #207, #12 ) ;
#245 = CARTESIAN_POINT ( 'NONE',  ( -10.00000000000000000, 0.000000000000000000, 7.000000000000000000 ) ) ;
#246 = AXIS2_PLACEMENT_3D ( 'NONE', #247, #361, #255 ) ;
#247 = CARTESIAN_POINT ( 'NONE',  ( 0.000000000000000000, 0.000000000000000000, 7.500000000000007105 ) ) ;
#248 = FACE_OUTER_BOUND ( 'NONE', #209, .T. ) ;
#249 = MECHANICAL_CONTEXT ( 'NONE', #8, 'mechanical' ) ;
#250 = CC_DESIGN_PERSON_AND_ORGANIZATION_ASSIGNMENT ( #258, #333, ( #85 ) ) ;
#251 = PRODUCT_DEFINITION ( 'NEZNÁMÝ', '', #181, #90 ) ;
#252 = CALENDAR_DATE ( 2022, 8, 7 ) ;
#253 = CARTESIAN_POINT ( 'NONE',  ( -10.00000000000000000, 0.000000000000000000, 7.000000000000000000 ) ) ;
#254 = CC_DESIGN_APPROVAL ( #364, ( #181 ) ) ;
#255 = DIRECTION ( 'NONE',  ( 1.000000000000000000, 0.000000000000000000, 0.000000000000000000 ) ) ;
#256 = AXIS2_PLACEMENT_3D ( 'NONE', #24, #296, #380 ) ;
#257 = COORDINATED_UNIVERSAL_TIME_OFFSET ( 1, 0, .AHEAD. ) ;
#258 = PERSON_AND_ORGANIZATION ( #29, #379 ) ;
#259 = CARTESIAN_POINT ( 'NONE',  ( 0.000000000000000000, 0.000000000000000000, 0.000000000000000000 ) ) ;
#260 = DATE_TIME_ROLE ( 'creation_date' ) ;
#261 = ORIENTED_EDGE ( 'NONE', *, *, #232, .F. ) ;
#262 = DATE_AND_TIME ( #52, #27 ) ;
#263 = DIRECTION ( 'NONE',  ( -0.000000000000000000, -0.000000000000000000, -1.000000000000000000 ) ) ;
#264 = CARTESIAN_POINT ( 'NONE',  ( -3.250000000000000444, 0.000000000000000000, 307.0000000000000000 ) ) ;
#265 = AXIS2_PLACEMENT_3D ( 'NONE', #188, #160, #153 ) ;
#266 = ORIENTED_EDGE ( 'NONE', *, *, #377, .F. ) ;
#267 = CARTESIAN_POINT ( 'NONE',  ( -6.000000000000000888, 0.000000000000000000, 307.0000000000000000 ) ) ;
#268 = ORIENTED_EDGE ( 'NONE', *, *, #183, .F. ) ;
#269 = EDGE_CURVE ( 'NONE', #111, #129, #1, .T. ) ;
#270 = DIRECTION ( 'NONE',  ( 1.000000000000000000, 0.000000000000000000, 0.000000000000000000 ) ) ;
#271 = VECTOR ( 'NONE', #96, 1000.000000000000000 ) ;
#272 = ORIENTED_EDGE ( 'NONE', *, *, #152, .T. ) ;
#273 = DIRECTION ( 'NONE',  ( 1.000000000000000000, 0.000000000000000000, 0.000000000000000000 ) ) ;
#274 =( NAMED_UNIT ( * ) SI_UNIT ( $, .STERADIAN. ) SOLID_ANGLE_UNIT ( ) );
#275 = EDGE_CURVE ( 'NONE', #69, #129, #107, .T. ) ;
#276 = ORIENTED_EDGE ( 'NONE', *, *, #43, .T. ) ;
#277 = AXIS2_PLACEMENT_3D ( 'NONE', #334, #178, #114 ) ;
#278 = FACE_OUTER_BOUND ( 'NONE', #151, .T. ) ;
#279 = CARTESIAN_POINT ( 'NONE',  ( 0.000000000000000000, 0.000000000000000000, 307.0000000000000000 ) ) ;
#280 = CC_DESIGN_SECURITY_CLASSIFICATION ( #85, ( #181 ) ) ;
#281 = SHAPE_DEFINITION_REPRESENTATION ( #308, #34 ) ;
#282 = EDGE_CURVE ( 'NONE', #161, #371, #314, .T. ) ;
#283 = LOCAL_TIME ( 16, 41, 50.00000000000000000, #45 ) ;
#284 = ORIENTED_EDGE ( 'NONE', *, *, #219, .F. ) ;
#285 = CIRCLE ( 'NONE', #39, 3.250000000000000444 ) ;
#286 = AXIS2_PLACEMENT_3D ( 'NONE', #302, #4, #354 ) ;
#287 = PRODUCT ( '556c', '556c', '', ( #249 ) ) ;
#288 = PERSON_AND_ORGANIZATION ( #29, #379 ) ;
#289 = CARTESIAN_POINT ( 'NONE',  ( 10.00000000000000000, 1.224646799147353256E-15, 0.000000000000000000 ) ) ;
#290 = DIRECTION ( 'NONE',  ( 0.000000000000000000, 0.000000000000000000, 1.000000000000000000 ) ) ;
#291 = DIRECTION ( 'NONE',  ( 1.000000000000000000, 0.000000000000000000, 0.000000000000000000 ) ) ;
#292 = FACE_OUTER_BOUND ( 'NONE', #343, .T. ) ;
#293 = DIRECTION ( 'NONE',  ( -1.000000000000000000, 0.000000000000000000, 0.000000000000000000 ) ) ;
#294 = EDGE_LOOP ( 'NONE', ( #120, #159 ) ) ;
#295 = EDGE_CURVE ( 'NONE', #378, #26, #195, .T. ) ;
#296 = DIRECTION ( 'NONE',  ( -0.000000000000000000, -0.000000000000000000, -1.000000000000000000 ) ) ;
#297 = VERTEX_POINT ( 'NONE', #348 ) ;
#298 = CARTESIAN_POINT ( 'NONE',  ( 0.000000000000000000, 0.000000000000000000, 307.0000000000000000 ) ) ;
#299 = CIRCLE ( 'NONE', #265, 10.00000000000000000 ) ;
#300 = ORIENTED_EDGE ( 'NONE', *, *, #88, .T. ) ;
#301 = AXIS2_PLACEMENT_3D ( 'NONE', #41, #137, #164 ) ;
#302 = CARTESIAN_POINT ( 'NONE',  ( 0.000000000000000000, 0.000000000000000000, 7.000000000000000000 ) ) ;
#303 = EDGE_LOOP ( 'NONE', ( #128, #145 ) ) ;
#304 = APPROVAL_ROLE ( '' ) ;
#305 = EDGE_CURVE ( 'NONE', #132, #18, #299, .T. ) ;
#306 = CYLINDRICAL_SURFACE ( 'NONE', #301, 6.000000000000000888 ) ;
#307 = CARTESIAN_POINT ( 'NONE',  ( 0.000000000000000000, 0.000000000000000000, 0.000000000000000000 ) ) ;
#308 = PRODUCT_DEFINITION_SHAPE ( 'NONE', 'NONE',  #251 ) ;
#309 = EDGE_CURVE ( 'NONE', #26, #378, #311, .T. ) ;
#310 = PLANE ( 'NONE',  #74 ) ;
#311 = CIRCLE ( 'NONE', #87, 6.500000000000000888 ) ;
#312 = APPROVAL_DATE_TIME ( #230, #364 ) ;
#313 = VERTEX_POINT ( 'NONE', #3 ) ;
#314 = CIRCLE ( 'NONE', #32, 10.00000000000000000 ) ;
#315 = LINE ( 'NONE', #245, #355 ) ;
#316 = ORIENTED_EDGE ( 'NONE', *, *, #219, .T. ) ;
#317 = MANIFOLD_SOLID_BREP ( 'Odebrat vysunutím3', #201 ) ;
#318 = DIRECTION ( 'NONE',  ( -0.000000000000000000, -0.000000000000000000, -1.000000000000000000 ) ) ;
#319 = CIRCLE ( 'NONE', #221, 3.250000000000000444 ) ;
#320 = ORIENTED_EDGE ( 'NONE', *, *, #377, .T. ) ;
#321 = ORIENTED_EDGE ( 'NONE', *, *, #275, .F. ) ;
#322 = LOCAL_TIME ( 16, 41, 50.00000000000000000, #198 ) ;
#323 = PERSON_AND_ORGANIZATION ( #29, #379 ) ;
#324 = CC_DESIGN_PERSON_AND_ORGANIZATION_ASSIGNMENT ( #22, #78, ( #181 ) ) ;
#325 = ORIENTED_EDGE ( 'NONE', *, *, #63, .T. ) ;
#326 = ADVANCED_FACE ( 'NONE', ( #292 ), #155, .F. ) ;
#327 = DIRECTION ( 'NONE',  ( 0.000000000000000000, 0.000000000000000000, -1.000000000000000000 ) ) ;
#328 = DATE_AND_TIME ( #252, #322 ) ;
#329 = COORDINATED_UNIVERSAL_TIME_OFFSET ( 1, 0, .AHEAD. ) ;
#330 = DIRECTION ( 'NONE',  ( -1.000000000000000000, 0.000000000000000000, 0.000000000000000000 ) ) ;
#331 = EDGE_CURVE ( 'NONE', #18, #371, #315, .T. ) ;
#332 = AXIS2_PLACEMENT_3D ( 'NONE', #127, #243, #291 ) ;
#333 = PERSON_AND_ORGANIZATION_ROLE ( 'classification_officer' ) ;
#334 = CARTESIAN_POINT ( 'NONE',  ( 0.000000000000000000, 0.000000000000000000, 307.0000000000000000 ) ) ;
#335 = ORIENTED_EDGE ( 'NONE', *, *, #269, .T. ) ;
#336 = CALENDAR_DATE ( 2022, 8, 7 ) ;
#337 = DIRECTION ( 'NONE',  ( 1.000000000000000000, 0.000000000000000000, 0.000000000000000000 ) ) ;
#338 = CIRCLE ( 'NONE', #244, 10.00000000000000000 ) ;
#339 = CARTESIAN_POINT ( 'NONE',  ( 0.000000000000000000, 0.000000000000000000, 307.0000000000000000 ) ) ;
#340 = ORIENTED_EDGE ( 'NONE', *, *, #63, .F. ) ;
#341 = ADVANCED_FACE ( 'NONE', ( #193, #140 ), #173, .T. ) ;
#342 = CARTESIAN_POINT ( 'NONE',  ( 0.000000000000000000, 0.000000000000000000, 7.500000000000007105 ) ) ;
#343 = EDGE_LOOP ( 'NONE', ( #321, #234, #172, #226 ) ) ;
#344 = APPROVAL_PERSON_ORGANIZATION ( #288, #119, #16 ) ;
#345 = EDGE_CURVE ( 'NONE', #132, #161, #68, .T. ) ;
#346 = AXIS2_PLACEMENT_3D ( 'NONE', #259, #375, #110 ) ;
#347 = ORIENTED_EDGE ( 'NONE', *, *, #345, .F. ) ;
#348 = CARTESIAN_POINT ( 'NONE',  ( -3.250000000000000444, 0.000000000000000000, 0.000000000000000000 ) ) ;
#349 =( GEOMETRIC_REPRESENTATION_CONTEXT ( 3 ) GLOBAL_UNCERTAINTY_ASSIGNED_CONTEXT ( ( #238 ) ) GLOBAL_UNIT_ASSIGNED_CONTEXT ( ( #199, #33, #274 ) ) REPRESENTATION_CONTEXT ( 'NONE', 'WORKASPACE' ) );
#350 = DIRECTION ( 'NONE',  ( 0.000000000000000000, 0.000000000000000000, -1.000000000000000000 ) ) ;
#351 = EDGE_LOOP ( 'NONE', ( #15, #335, #360, #14 ) ) ;
#352 = DIRECTION ( 'NONE',  ( 0.000000000000000000, 0.000000000000000000, 1.000000000000000000 ) ) ;
#353 = DIRECTION ( 'NONE',  ( 1.000000000000000000, 0.000000000000000000, 0.000000000000000000 ) ) ;
#354 = DIRECTION ( 'NONE',  ( 1.000000000000000000, 0.000000000000000000, -0.000000000000000000 ) ) ;
#355 = VECTOR ( 'NONE', #263, 1000.000000000000000 ) ;
#356 = DIRECTION ( 'NONE',  ( -0.000000000000000000, -0.000000000000000000, -1.000000000000000000 ) ) ;
#357 = FACE_OUTER_BOUND ( 'NONE', #381, .T. ) ;
#358 = CIRCLE ( 'NONE', #217, 6.000000000000000888 ) ;
#359 = ADVANCED_FACE ( 'NONE', ( #357 ), #202, .F. ) ;
#360 = ORIENTED_EDGE ( 'NONE', *, *, #368, .T. ) ;
#361 = DIRECTION ( 'NONE',  ( 0.000000000000000000, 0.000000000000000000, 1.000000000000000000 ) ) ;
#362 = LINE ( 'NONE', #5, #177 ) ;
#363 = CIRCLE ( 'NONE', #115, 3.250000000000000444 ) ;
#364 = APPROVAL ( #147, 'NEURÈENÝ' ) ;
#365 = SECURITY_CLASSIFICATION_LEVEL ( 'unclassified' ) ;
#366 = DIRECTION ( 'NONE',  ( 0.000000000000000000, -1.000000000000000000, 0.000000000000000000 ) ) ;
#367 = ORIENTED_EDGE ( 'NONE', *, *, #309, .F. ) ;
#368 = EDGE_CURVE ( 'NONE', #129, #69, #169, .T. ) ;
#369 = APPROVAL_ROLE ( '' ) ;
#370 = CARTESIAN_POINT ( 'NONE',  ( 6.000000000000000888, 7.347880794884120722E-16, 7.500000000000007105 ) ) ;
#371 = VERTEX_POINT ( 'NONE', #36 ) ;
#372 = CYLINDRICAL_SURFACE ( 'NONE', #277, 3.250000000000000444 ) ;
#373 = ORIENTED_EDGE ( 'NONE', *, *, #331, .T. ) ;
#374 = ADVANCED_FACE ( 'NONE', ( #71 ), #306, .T. ) ;
#375 = DIRECTION ( 'NONE',  ( 0.000000000000000000, 0.000000000000000000, 1.000000000000000000 ) ) ;
#376 = DIRECTION ( 'NONE',  ( 1.224646799147353207E-16, 1.000000000000000000, -0.000000000000000000 ) ) ;
#377 = EDGE_CURVE ( 'NONE', #237, #111, #358, .T. ) ;
#378 = VERTEX_POINT ( 'NONE', #197 ) ;
#379 = ORGANIZATION ( 'NEURÈENÝ', 'NEURÈENÝ', '' ) ;
#380 = DIRECTION ( 'NONE',  ( 1.000000000000000000, 0.000000000000000000, 0.000000000000000000 ) ) ;
#381 = EDGE_LOOP ( 'NONE', ( #284, #272, #65, #60 ) ) ;
ENDSEC;
END-ISO-10303-21;
