ISO-10303-21;
HEADER;
FILE_DESCRIPTION (( 'STEP AP203' ),
    '1' );
FILE_NAME ('ec6e.STEP',
    '2022-07-08T14:58:46',
    ( '' ),
    ( '' ),
    'SwSTEP 2.0',
    'SolidWorks 2019',
    '' );
FILE_SCHEMA (( 'CONFIG_CONTROL_DESIGN' ));
ENDSEC;

DATA;
#1 = ADVANCED_FACE ( 'NONE', ( #352 ), #87, .T. ) ;
#2 = DIRECTION ( 'NONE',  ( 0.000000000000000000, 0.000000000000000000, -1.000000000000000000 ) ) ;
#3 = CC_DESIGN_PERSON_AND_ORGANIZATION_ASSIGNMENT ( #197, #24, ( #97 ) ) ;
#4 = LINE ( 'NONE', #310, #64 ) ;
#5 = DIRECTION ( 'NONE',  ( 0.000000000000000000, 0.000000000000000000, -1.000000000000000000 ) ) ;
#6 = ORIENTED_EDGE ( 'NONE', *, *, #317, .F. ) ;
#7 = AXIS2_PLACEMENT_3D ( 'NONE', #330, #23, #179 ) ;
#8 = DIRECTION ( 'NONE',  ( 1.000000000000000000, 0.000000000000000000, 0.000000000000000000 ) ) ;
#9 = CC_DESIGN_DATE_AND_TIME_ASSIGNMENT ( #53, #172, ( #217 ) ) ;
#10 = FACE_OUTER_BOUND ( 'NONE', #162, .T. ) ;
#11 = DIRECTION ( 'NONE',  ( 1.000000000000000000, 0.000000000000000000, 0.000000000000000000 ) ) ;
#12 = CIRCLE ( 'NONE', #242, 5.000000000000000000 ) ;
#13 = AXIS2_PLACEMENT_3D ( 'NONE', #360, #101, #281 ) ;
#14 = CARTESIAN_POINT ( 'NONE',  ( 0.000000000000000000, 0.000000000000000000, 5.500000000000005329 ) ) ;
#15 = CC_DESIGN_APPROVAL ( #290, ( #298 ) ) ;
#16 = CARTESIAN_POINT ( 'NONE',  ( 8.000000000000000000, 9.797174393178825657E-16, 5.000000000000000000 ) ) ;
#17 = DIRECTION ( 'NONE',  ( 1.000000000000000000, 0.000000000000000000, 0.000000000000000000 ) ) ;
#18 = AXIS2_PLACEMENT_3D ( 'NONE', #132, #286, #134 ) ;
#19 = DIRECTION ( 'NONE',  ( 0.000000000000000000, 0.000000000000000000, 1.000000000000000000 ) ) ;
#20 = APPLICATION_PROTOCOL_DEFINITION ( 'international standard', 'config_control_design', 1994, #139 ) ;
#21 = ORIENTED_EDGE ( 'NONE', *, *, #111, .F. ) ;
#22 = DATE_AND_TIME ( #271, #227 ) ;
#23 = DIRECTION ( 'NONE',  ( 0.000000000000000000, 0.000000000000000000, 1.000000000000000000 ) ) ;
#24 = PERSON_AND_ORGANIZATION_ROLE ( 'creator' ) ;
#25 = EDGE_LOOP ( 'NONE', ( #28, #29 ) ) ;
#26 = APPROVAL_DATE_TIME ( #349, #68 ) ;
#27 = ADVANCED_FACE ( 'NONE', ( #117 ), #321, .F. ) ;
#28 = ORIENTED_EDGE ( 'NONE', *, *, #257, .T. ) ;
#29 = ORIENTED_EDGE ( 'NONE', *, *, #244, .T. ) ;
#30 = EDGE_CURVE ( 'NONE', #340, #346, #176, .T. ) ;
#31 = VECTOR ( 'NONE', #254, 1000.000000000000000 ) ;
#32 = DIRECTION ( 'NONE',  ( -0.000000000000000000, -0.000000000000000000, -1.000000000000000000 ) ) ;
#33 = SHAPE_DEFINITION_REPRESENTATION ( #149, #38 ) ;
#34 = DIRECTION ( 'NONE',  ( -0.000000000000000000, -0.000000000000000000, -1.000000000000000000 ) ) ;
#35 = DIRECTION ( 'NONE',  ( -0.000000000000000000, -0.000000000000000000, -1.000000000000000000 ) ) ;
#36 =( GEOMETRIC_REPRESENTATION_CONTEXT ( 3 ) GLOBAL_UNCERTAINTY_ASSIGNED_CONTEXT ( ( #151 ) ) GLOBAL_UNIT_ASSIGNED_CONTEXT ( ( #106, #342, #193 ) ) REPRESENTATION_CONTEXT ( 'NONE', 'WORKASPACE' ) );
#37 = CARTESIAN_POINT ( 'NONE',  ( 0.000000000000000000, 0.000000000000000000, 5.000000000000000000 ) ) ;
#38 = ADVANCED_BREP_SHAPE_REPRESENTATION ( 'ec6e', ( #125, #258 ), #36 ) ;
#39 = CIRCLE ( 'NONE', #206, 8.000000000000000000 ) ;
#40 = APPROVAL_PERSON_ORGANIZATION ( #263, #290, #240 ) ;
#41 = DIRECTION ( 'NONE',  ( -1.000000000000000000, 0.000000000000000000, 0.000000000000000000 ) ) ;
#42 = ADVANCED_FACE ( 'NONE', ( #239 ), #228, .F. ) ;
#43 = FACE_BOUND ( 'NONE', #261, .T. ) ;
#44 = EDGE_CURVE ( 'NONE', #346, #119, #148, .T. ) ;
#45 = DIRECTION ( 'NONE',  ( 1.000000000000000000, 0.000000000000000000, 0.000000000000000000 ) ) ;
#46 = CIRCLE ( 'NONE', #203, 5.000000000000000000 ) ;
#47 = VERTEX_POINT ( 'NONE', #178 ) ;
#48 = CARTESIAN_POINT ( 'NONE',  ( -5.000000000000000000, 0.000000000000000000, 105.0000000000000142 ) ) ;
#49 = DIRECTION ( 'NONE',  ( -0.000000000000000000, -0.000000000000000000, -1.000000000000000000 ) ) ;
#50 = ORIENTED_EDGE ( 'NONE', *, *, #300, .F. ) ;
#51 = CIRCLE ( 'NONE', #373, 3.000000000000000444 ) ;
#52 = CALENDAR_DATE ( 2022, 8, 7 ) ;
#53 = DATE_AND_TIME ( #55, #264 ) ;
#54 = ADVANCED_FACE ( 'NONE', ( #381 ), #213, .T. ) ;
#55 = CALENDAR_DATE ( 2022, 8, 7 ) ;
#56 = ORIENTED_EDGE ( 'NONE', *, *, #333, .F. ) ;
#57 = CIRCLE ( 'NONE', #319, 8.000000000000000000 ) ;
#58 = PERSON_AND_ORGANIZATION_ROLE ( 'classification_officer' ) ;
#59 = PERSON ( 'NEURÈENÝ', 'NEURÈENÝ', 'NEURÈENÝ', ('NEURÈENÝ'), ('NEURÈENÝ'), ('NEURÈENÝ') ) ;
#60 = VERTEX_POINT ( 'NONE', #332 ) ;
#61 = AXIS2_PLACEMENT_3D ( 'NONE', #303, #268, #93 ) ;
#62 = ORIENTED_EDGE ( 'NONE', *, *, #88, .T. ) ;
#63 = DIRECTION ( 'NONE',  ( 1.000000000000000000, 0.000000000000000000, 0.000000000000000000 ) ) ;
#64 = VECTOR ( 'NONE', #126, 1000.000000000000000 ) ;
#65 = DIRECTION ( 'NONE',  ( 1.000000000000000000, 0.000000000000000000, 0.000000000000000000 ) ) ;
#66 = CARTESIAN_POINT ( 'NONE',  ( 0.000000000000000000, 0.000000000000000000, 105.0000000000000142 ) ) ;
#67 = FACE_BOUND ( 'NONE', #145, .T. ) ;
#68 = APPROVAL ( #324, 'NEURÈENÝ' ) ;
#69 = AXIS2_PLACEMENT_3D ( 'NONE', #219, #183, #98 ) ;
#70 = DIRECTION ( 'NONE',  ( -1.000000000000000000, 1.224646799147351482E-16, 0.000000000000000000 ) ) ;
#71 = DIRECTION ( 'NONE',  ( 0.000000000000000000, -1.000000000000000000, 0.000000000000000000 ) ) ;
#72 = DIRECTION ( 'NONE',  ( 0.000000000000000000, 0.000000000000000000, 1.000000000000000000 ) ) ;
#73 = VERTEX_POINT ( 'NONE', #247 ) ;
#74 = CARTESIAN_POINT ( 'NONE',  ( 0.000000000000000000, 0.000000000000000000, 5.000000000000000000 ) ) ;
#75 = CIRCLE ( 'NONE', #157, 0.5000000000000004441 ) ;
#76 = ORIENTED_EDGE ( 'NONE', *, *, #295, .F. ) ;
#77 = DESIGN_CONTEXT ( 'detailed design', #221, 'design' ) ;
#78 = CLOSED_SHELL ( 'NONE', ( #230, #27, #305, #54, #269, #243, #216, #1, #201, #42, #185 ) ) ;
#79 = ORIENTED_EDGE ( 'NONE', *, *, #280, .T. ) ;
#80 = CARTESIAN_POINT ( 'NONE',  ( -8.000000000000000000, 0.000000000000000000, 0.000000000000000000 ) ) ;
#81 = DIRECTION ( 'NONE',  ( 1.000000000000000000, 0.000000000000000000, 0.000000000000000000 ) ) ;
#82 = ORIENTED_EDGE ( 'NONE', *, *, #317, .T. ) ;
#83 = CIRCLE ( 'NONE', #190, 8.000000000000000000 ) ;
#84 = APPROVAL_DATE_TIME ( #267, #211 ) ;
#85 = ORIENTED_EDGE ( 'NONE', *, *, #146, .T. ) ;
#86 = PERSON_AND_ORGANIZATION ( #59, #353 ) ;
#87 = CYLINDRICAL_SURFACE ( 'NONE', #363, 5.000000000000000000 ) ;
#88 = EDGE_CURVE ( 'NONE', #297, #372, #159, .T. ) ;
#89 = CC_DESIGN_PERSON_AND_ORGANIZATION_ASSIGNMENT ( #328, #322, ( #97 ) ) ;
#90 = EDGE_LOOP ( 'NONE', ( #6, #348, #79, #301 ) ) ;
#91 = APPROVAL_PERSON_ORGANIZATION ( #86, #211, #232 ) ;
#92 = APPROVAL_STATUS ( 'not_yet_approved' ) ;
#93 = DIRECTION ( 'NONE',  ( 1.000000000000000000, 0.000000000000000000, 0.000000000000000000 ) ) ;
#94 = VECTOR ( 'NONE', #182, 1000.000000000000000 ) ;
#95 = VERTEX_POINT ( 'NONE', #334 ) ;
#96 = DIRECTION ( 'NONE',  ( 0.000000000000000000, 0.000000000000000000, 1.000000000000000000 ) ) ;
#97 = PRODUCT_DEFINITION_FORMATION_WITH_SPECIFIED_SOURCE ( 'LIBOVOLNÝ', '', #140, .NOT_KNOWN. ) ;
#98 = DIRECTION ( 'NONE',  ( 1.000000000000000000, 0.000000000000000000, -0.000000000000000000 ) ) ;
#99 = LINE ( 'NONE', #130, #94 ) ;
#100 = EDGE_CURVE ( 'NONE', #327, #294, #39, .T. ) ;
#101 = DIRECTION ( 'NONE',  ( 0.000000000000000000, 0.000000000000000000, 1.000000000000000000 ) ) ;
#102 = DIRECTION ( 'NONE',  ( 0.000000000000000000, 0.000000000000000000, -1.000000000000000000 ) ) ;
#103 = CARTESIAN_POINT ( 'NONE',  ( 0.000000000000000000, 0.000000000000000000, 5.000000000000000000 ) ) ;
#104 = DIRECTION ( 'NONE',  ( 0.000000000000000000, 0.000000000000000000, 1.000000000000000000 ) ) ;
#105 = ORIENTED_EDGE ( 'NONE', *, *, #300, .T. ) ;
#106 =( LENGTH_UNIT ( ) NAMED_UNIT ( * ) SI_UNIT ( .MILLI., .METRE. ) );
#107 = ORIENTED_EDGE ( 'NONE', *, *, #155, .F. ) ;
#108 = VECTOR ( 'NONE', #329, 1000.000000000000000 ) ;
#109 = CARTESIAN_POINT ( 'NONE',  ( -5.000000000000000000, 0.000000000000000000, 105.0000000000000142 ) ) ;
#110 = ORIENTED_EDGE ( 'NONE', *, *, #295, .T. ) ;
#111 = EDGE_CURVE ( 'NONE', #297, #47, #99, .T. ) ;
#112 = PERSON_AND_ORGANIZATION_ROLE ( 'creator' ) ;
#113 = VERTEX_POINT ( 'NONE', #274 ) ;
#114 = EDGE_LOOP ( 'NONE', ( #283, #82 ) ) ;
#115 = CC_DESIGN_SECURITY_CLASSIFICATION ( #298, ( #97 ) ) ;
#116 = CARTESIAN_POINT ( 'NONE',  ( 0.000000000000000000, 0.000000000000000000, 0.000000000000000000 ) ) ;
#117 = FACE_OUTER_BOUND ( 'NONE', #276, .T. ) ;
#118 = COORDINATED_UNIVERSAL_TIME_OFFSET ( 1, 0, .AHEAD. ) ;
#119 = VERTEX_POINT ( 'NONE', #248 ) ;
#120 = CC_DESIGN_APPROVAL ( #211, ( #97 ) ) ;
#121 = PERSON_AND_ORGANIZATION_ROLE ( 'design_owner' ) ;
#122 = ORIENTED_EDGE ( 'NONE', *, *, #308, .F. ) ;
#123 = AXIS2_PLACEMENT_3D ( 'NONE', #265, #199, #63 ) ;
#124 = FACE_OUTER_BOUND ( 'NONE', #25, .T. ) ;
#125 = MANIFOLD_SOLID_BREP ( 'Odebrat vysunutím3', #78 ) ;
#126 = DIRECTION ( 'NONE',  ( -0.000000000000000000, -0.000000000000000000, -1.000000000000000000 ) ) ;
#127 = AXIS2_PLACEMENT_3D ( 'NONE', #74, #49, #191 ) ;
#128 = LINE ( 'NONE', #357, #137 ) ;
#129 = FACE_OUTER_BOUND ( 'NONE', #168, .T. ) ;
#130 = CARTESIAN_POINT ( 'NONE',  ( -3.000000000000000444, 0.000000000000000000, 105.0000000000000142 ) ) ;
#131 = LOCAL_TIME ( 16, 58, 46.00000000000000000, #238 ) ;
#132 = CARTESIAN_POINT ( 'NONE',  ( 0.000000000000000000, 0.000000000000000000, 5.000000000000000000 ) ) ;
#133 = CARTESIAN_POINT ( 'NONE',  ( 0.000000000000000000, 0.000000000000000000, 105.0000000000000142 ) ) ;
#134 = DIRECTION ( 'NONE',  ( -1.000000000000000000, 0.000000000000000000, 0.000000000000000000 ) ) ;
#135 = CARTESIAN_POINT ( 'NONE',  ( 5.000000000000000000, 6.123233995736766282E-16, 105.0000000000000142 ) ) ;
#136 = CIRCLE ( 'NONE', #367, 5.000000000000000000 ) ;
#137 = VECTOR ( 'NONE', #2, 1000.000000000000000 ) ;
#138 = CARTESIAN_POINT ( 'NONE',  ( 0.000000000000000000, 0.000000000000000000, 5.000000000000000000 ) ) ;
#139 = APPLICATION_CONTEXT ( 'configuration controlled 3d designs of mechanical parts and assemblies' ) ;
#140 = PRODUCT ( 'ec6e', 'ec6e', '', ( #371 ) ) ;
#141 = DIRECTION ( 'NONE',  ( 0.000000000000000000, 0.000000000000000000, 1.000000000000000000 ) ) ;
#142 = ORIENTED_EDGE ( 'NONE', *, *, #308, .T. ) ;
#143 = APPROVAL_PERSON_ORGANIZATION ( #351, #68, #326 ) ;
#144 = PERSON_AND_ORGANIZATION ( #59, #353 ) ;
#145 = EDGE_LOOP ( 'NONE', ( #376, #50 ) ) ;
#146 = EDGE_CURVE ( 'NONE', #372, #153, #128, .T. ) ;
#147 = PERSON_AND_ORGANIZATION ( #59, #353 ) ;
#148 = LINE ( 'NONE', #207, #108 ) ;
#149 = PRODUCT_DEFINITION_SHAPE ( 'NONE', 'NONE',  #217 ) ;
#150 = CALENDAR_DATE ( 2022, 8, 7 ) ;
#151 = UNCERTAINTY_MEASURE_WITH_UNIT (LENGTH_MEASURE( 1.000000000000000082E-05 ), #106, 'distance_accuracy_value', 'NONE');
#152 = EDGE_LOOP ( 'NONE', ( #343, #198, #354, #110 ) ) ;
#153 = VERTEX_POINT ( 'NONE', #331 ) ;
#154 = DIRECTION ( 'NONE',  ( 1.000000000000000000, 0.000000000000000000, 0.000000000000000000 ) ) ;
#155 = EDGE_CURVE ( 'NONE', #47, #153, #293, .T. ) ;
#156 = FACE_OUTER_BOUND ( 'NONE', #266, .T. ) ;
#157 = AXIS2_PLACEMENT_3D ( 'NONE', #335, #215, #70 ) ;
#158 = DIRECTION ( 'NONE',  ( -0.000000000000000000, -0.000000000000000000, -1.000000000000000000 ) ) ;
#159 = CIRCLE ( 'NONE', #368, 3.000000000000000444 ) ;
#160 = CC_DESIGN_DATE_AND_TIME_ASSIGNMENT ( #22, #296, ( #298 ) ) ;
#161 = FACE_BOUND ( 'NONE', #350, .T. ) ;
#162 = EDGE_LOOP ( 'NONE', ( #62, #85, #314, #21 ) ) ;
#163 = DIRECTION ( 'NONE',  ( 1.000000000000000000, 0.000000000000000000, -0.000000000000000000 ) ) ;
#164 = DIRECTION ( 'NONE',  ( 0.000000000000000000, 0.000000000000000000, 1.000000000000000000 ) ) ;
#165 = CARTESIAN_POINT ( 'NONE',  ( 3.000000000000000444, 3.673940397442060361E-16, 105.0000000000000142 ) ) ;
#166 = CARTESIAN_POINT ( 'NONE',  ( -3.000000000000000444, 0.000000000000000000, 105.0000000000000142 ) ) ;
#167 = DIRECTION ( 'NONE',  ( 1.000000000000000000, 0.000000000000000000, 0.000000000000000000 ) ) ;
#168 = EDGE_LOOP ( 'NONE', ( #122, #187 ) ) ;
#169 = ORIENTED_EDGE ( 'NONE', *, *, #214, .F. ) ;
#170 = SECURITY_CLASSIFICATION_LEVEL ( 'unclassified' ) ;
#171 = ORIENTED_EDGE ( 'NONE', *, *, #111, .T. ) ;
#172 = DATE_TIME_ROLE ( 'creation_date' ) ;
#173 = ORIENTED_EDGE ( 'NONE', *, *, #146, .F. ) ;
#174 = AXIS2_PLACEMENT_3D ( 'NONE', #275, #5, #41 ) ;
#175 = PERSON_AND_ORGANIZATION ( #59, #353 ) ;
#176 = CIRCLE ( 'NONE', #7, 5.000000000000000000 ) ;
#177 = CALENDAR_DATE ( 2022, 8, 7 ) ;
#178 = CARTESIAN_POINT ( 'NONE',  ( -3.000000000000000444, 0.000000000000000000, 0.000000000000000000 ) ) ;
#179 = DIRECTION ( 'NONE',  ( 1.000000000000000000, 0.000000000000000000, 0.000000000000000000 ) ) ;
#180 = AXIS2_PLACEMENT_3D ( 'NONE', #37, #158, #8 ) ;
#181 = PLANE ( 'NONE',  #69 ) ;
#182 = DIRECTION ( 'NONE',  ( 0.000000000000000000, 0.000000000000000000, -1.000000000000000000 ) ) ;
#183 = DIRECTION ( 'NONE',  ( 0.000000000000000000, 0.000000000000000000, 1.000000000000000000 ) ) ;
#184 = DIRECTION ( 'NONE',  ( -0.000000000000000000, -0.000000000000000000, -1.000000000000000000 ) ) ;
#185 = ADVANCED_FACE ( 'NONE', ( #156 ), #250, .F. ) ;
#186 = CARTESIAN_POINT ( 'NONE',  ( 0.000000000000000000, 0.000000000000000000, 105.0000000000000142 ) ) ;
#187 = ORIENTED_EDGE ( 'NONE', *, *, #100, .F. ) ;
#188 = FACE_OUTER_BOUND ( 'NONE', #189, .T. ) ;
#189 = EDGE_LOOP ( 'NONE', ( #202, #325, #355, #142 ) ) ;
#190 = AXIS2_PLACEMENT_3D ( 'NONE', #103, #366, #11 ) ;
#191 = DIRECTION ( 'NONE',  ( 1.000000000000000000, 0.000000000000000000, 0.000000000000000000 ) ) ;
#192 = CC_DESIGN_PERSON_AND_ORGANIZATION_ASSIGNMENT ( #144, #58, ( #298 ) ) ;
#193 =( NAMED_UNIT ( * ) SI_UNIT ( $, .STERADIAN. ) SOLID_ANGLE_UNIT ( ) );
#194 = DIRECTION ( 'NONE',  ( -1.000000000000000000, 0.000000000000000000, 0.000000000000000000 ) ) ;
#195 = DIRECTION ( 'NONE',  ( 0.000000000000000000, 0.000000000000000000, 1.000000000000000000 ) ) ;
#196 = CIRCLE ( 'NONE', #180, 5.500000000000000000 ) ;
#197 = PERSON_AND_ORGANIZATION ( #59, #353 ) ;
#198 = ORIENTED_EDGE ( 'NONE', *, *, #30, .F. ) ;
#199 = DIRECTION ( 'NONE',  ( 0.000000000000000000, 0.000000000000000000, 1.000000000000000000 ) ) ;
#200 = EDGE_CURVE ( 'NONE', #95, #289, #75, .T. ) ;
#201 = ADVANCED_FACE ( 'NONE', ( #67, #252 ), #181, .T. ) ;
#202 = ORIENTED_EDGE ( 'NONE', *, *, #253, .F. ) ;
#203 = AXIS2_PLACEMENT_3D ( 'NONE', #14, #164, #81 ) ;
#204 = EDGE_CURVE ( 'NONE', #153, #47, #51, .T. ) ;
#205 = COORDINATED_UNIVERSAL_TIME_OFFSET ( 1, 0, .AHEAD. ) ;
#206 = AXIS2_PLACEMENT_3D ( 'NONE', #309, #96, #210 ) ;
#207 = CARTESIAN_POINT ( 'NONE',  ( 5.000000000000000000, 6.123233995736766282E-16, 105.0000000000000142 ) ) ;
#208 = EDGE_CURVE ( 'NONE', #73, #294, #4, .T. ) ;
#209 = ORIENTED_EDGE ( 'NONE', *, *, #253, .T. ) ;
#210 = DIRECTION ( 'NONE',  ( 1.000000000000000000, 0.000000000000000000, 0.000000000000000000 ) ) ;
#211 = APPROVAL ( #92, 'NEURÈENÝ' ) ;
#212 = CC_DESIGN_APPROVAL ( #68, ( #217 ) ) ;
#213 = CYLINDRICAL_SURFACE ( 'NONE', #245, 8.000000000000000000 ) ;
#214 = EDGE_CURVE ( 'NONE', #113, #289, #196, .T. ) ;
#215 = DIRECTION ( 'NONE',  ( 1.224646799147353207E-16, 1.000000000000000000, -0.000000000000000000 ) ) ;
#216 = ADVANCED_FACE ( 'NONE', ( #161, #129 ), #251, .F. ) ;
#217 = PRODUCT_DEFINITION ( 'NEZNÁMÝ', '', #97, #77 ) ;
#218 = APPROVAL_DATE_TIME ( #306, #290 ) ;
#219 = CARTESIAN_POINT ( 'NONE',  ( 0.000000000000000000, 0.000000000000000000, 105.0000000000000142 ) ) ;
#220 = DIRECTION ( 'NONE',  ( -1.000000000000000000, 0.000000000000000000, 0.000000000000000000 ) ) ;
#221 = APPLICATION_CONTEXT ( 'configuration controlled 3d designs of mechanical parts and assemblies' ) ;
#222 = DIRECTION ( 'NONE',  ( 1.000000000000000000, 0.000000000000000000, 0.000000000000000000 ) ) ;
#223 = DIRECTION ( 'NONE',  ( -0.000000000000000000, -0.000000000000000000, -1.000000000000000000 ) ) ;
#224 = ORIENTED_EDGE ( 'NONE', *, *, #200, .T. ) ;
#225 = CIRCLE ( 'NONE', #380, 0.5000000000000004441 ) ;
#226 = ORIENTED_EDGE ( 'NONE', *, *, #237, .T. ) ;
#227 = LOCAL_TIME ( 16, 58, 46.00000000000000000, #375 ) ;
#228 = TOROIDAL_SURFACE ( 'NONE', #61, 5.500000000000000000, 0.5000000000000000000 ) ;
#229 = CARTESIAN_POINT ( 'NONE',  ( 0.000000000000000000, 0.000000000000000000, 5.000000000000000000 ) ) ;
#230 = ADVANCED_FACE ( 'NONE', ( #10 ), #361, .F. ) ;
#231 = CARTESIAN_POINT ( 'NONE',  ( 0.000000000000000000, 0.000000000000000000, 5.500000000000005329 ) ) ;
#232 = APPROVAL_ROLE ( '' ) ;
#233 = CIRCLE ( 'NONE', #249, 3.000000000000000444 ) ;
#234 = CARTESIAN_POINT ( 'NONE',  ( 0.000000000000000000, 0.000000000000000000, 105.0000000000000142 ) ) ;
#235 = COORDINATED_UNIVERSAL_TIME_OFFSET ( 1, 0, .AHEAD. ) ;
#236 = ORIENTED_EDGE ( 'NONE', *, *, #214, .T. ) ;
#237 = EDGE_CURVE ( 'NONE', #119, #113, #225, .T. ) ;
#238 = COORDINATED_UNIVERSAL_TIME_OFFSET ( 1, 0, .AHEAD. ) ;
#239 = FACE_OUTER_BOUND ( 'NONE', #299, .T. ) ;
#240 = APPROVAL_ROLE ( '' ) ;
#241 = ORIENTED_EDGE ( 'NONE', *, *, #237, .F. ) ;
#242 = AXIS2_PLACEMENT_3D ( 'NONE', #231, #345, #45 ) ;
#243 = ADVANCED_FACE ( 'NONE', ( #43, #124 ), #320, .T. ) ;
#244 = EDGE_CURVE ( 'NONE', #60, #73, #57, .T. ) ;
#245 = AXIS2_PLACEMENT_3D ( 'NONE', #277, #184, #359 ) ;
#246 = ORIENTED_EDGE ( 'NONE', *, *, #204, .F. ) ;
#247 = CARTESIAN_POINT ( 'NONE',  ( -8.000000000000000000, 0.000000000000000000, 5.000000000000000000 ) ) ;
#248 = CARTESIAN_POINT ( 'NONE',  ( 5.000000000000000000, 6.123233995736766282E-16, 5.500000000000005329 ) ) ;
#249 = AXIS2_PLACEMENT_3D ( 'NONE', #316, #72, #17 ) ;
#250 = CYLINDRICAL_SURFACE ( 'NONE', #174, 3.000000000000000444 ) ;
#251 = PLANE ( 'NONE',  #13 ) ;
#252 = FACE_OUTER_BOUND ( 'NONE', #114, .T. ) ;
#253 = EDGE_CURVE ( 'NONE', #60, #327, #282, .T. ) ;
#254 = DIRECTION ( 'NONE',  ( -0.000000000000000000, -0.000000000000000000, -1.000000000000000000 ) ) ;
#255 = PRODUCT_RELATED_PRODUCT_CATEGORY ( 'detail', '', ( #140 ) ) ;
#256 = DIRECTION ( 'NONE',  ( -0.000000000000000000, -0.000000000000000000, -1.000000000000000000 ) ) ;
#257 = EDGE_CURVE ( 'NONE', #73, #60, #83, .T. ) ;
#258 = AXIS2_PLACEMENT_3D ( 'NONE', #116, #141, #262 ) ;
#259 = CC_DESIGN_PERSON_AND_ORGANIZATION_ASSIGNMENT ( #147, #112, ( #217 ) ) ;
#260 = DIRECTION ( 'NONE',  ( 0.000000000000000000, 0.000000000000000000, 1.000000000000000000 ) ) ;
#261 = EDGE_LOOP ( 'NONE', ( #236, #370 ) ) ;
#262 = DIRECTION ( 'NONE',  ( 1.000000000000000000, 0.000000000000000000, 0.000000000000000000 ) ) ;
#263 = PERSON_AND_ORGANIZATION ( #59, #353 ) ;
#264 = LOCAL_TIME ( 16, 58, 46.00000000000000000, #235 ) ;
#265 = CARTESIAN_POINT ( 'NONE',  ( 0.000000000000000000, 0.000000000000000000, 5.500000000000005329 ) ) ;
#266 = EDGE_LOOP ( 'NONE', ( #173, #105, #171, #338 ) ) ;
#267 = DATE_AND_TIME ( #150, #291 ) ;
#268 = DIRECTION ( 'NONE',  ( 0.000000000000000000, 0.000000000000000000, 1.000000000000000000 ) ) ;
#269 = ADVANCED_FACE ( 'NONE', ( #188 ), #369, .T. ) ;
#270 = EDGE_CURVE ( 'NONE', #340, #95, #344, .T. ) ;
#271 = CALENDAR_DATE ( 2022, 8, 7 ) ;
#272 = ORIENTED_EDGE ( 'NONE', *, *, #280, .F. ) ;
#273 = AXIS2_PLACEMENT_3D ( 'NONE', #229, #19, #163 ) ;
#274 = CARTESIAN_POINT ( 'NONE',  ( 5.500000000000000000, 0.000000000000000000, 5.000000000000002665 ) ) ;
#275 = CARTESIAN_POINT ( 'NONE',  ( 0.000000000000000000, 0.000000000000000000, 105.0000000000000142 ) ) ;
#276 = EDGE_LOOP ( 'NONE', ( #76, #224, #169, #241 ) ) ;
#277 = CARTESIAN_POINT ( 'NONE',  ( 0.000000000000000000, 0.000000000000000000, 5.000000000000000000 ) ) ;
#278 = VECTOR ( 'NONE', #256, 1000.000000000000000 ) ;
#279 = CARTESIAN_POINT ( 'NONE',  ( 0.000000000000000000, 0.000000000000000000, 0.000000000000000000 ) ) ;
#280 = EDGE_CURVE ( 'NONE', #119, #95, #12, .T. ) ;
#281 = DIRECTION ( 'NONE',  ( 1.000000000000000000, 0.000000000000000000, -0.000000000000000000 ) ) ;
#282 = LINE ( 'NONE', #16, #278 ) ;
#283 = ORIENTED_EDGE ( 'NONE', *, *, #30, .T. ) ;
#284 = CIRCLE ( 'NONE', #341, 8.000000000000000000 ) ;
#285 = CC_DESIGN_PERSON_AND_ORGANIZATION_ASSIGNMENT ( #175, #121, ( #140 ) ) ;
#286 = DIRECTION ( 'NONE',  ( -0.000000000000000000, -0.000000000000000000, -1.000000000000000000 ) ) ;
#287 = CARTESIAN_POINT ( 'NONE',  ( 0.000000000000000000, 0.000000000000000000, 105.0000000000000142 ) ) ;
#288 = CARTESIAN_POINT ( 'NONE',  ( 0.000000000000000000, 0.000000000000000000, 0.000000000000000000 ) ) ;
#289 = VERTEX_POINT ( 'NONE', #313 ) ;
#290 = APPROVAL ( #378, 'NEURÈENÝ' ) ;
#291 = LOCAL_TIME ( 16, 58, 46.00000000000000000, #118 ) ;
#292 = EDGE_LOOP ( 'NONE', ( #379, #209, #374, #318 ) ) ;
#293 = CIRCLE ( 'NONE', #377, 3.000000000000000444 ) ;
#294 = VERTEX_POINT ( 'NONE', #80 ) ;
#295 = EDGE_CURVE ( 'NONE', #95, #119, #46, .T. ) ;
#296 = DATE_TIME_ROLE ( 'classification_date' ) ;
#297 = VERTEX_POINT ( 'NONE', #166 ) ;
#298 = SECURITY_CLASSIFICATION ( '', '', #170 ) ;
#299 = EDGE_LOOP ( 'NONE', ( #302, #272, #226, #56 ) ) ;
#300 = EDGE_CURVE ( 'NONE', #372, #297, #233, .T. ) ;
#301 = ORIENTED_EDGE ( 'NONE', *, *, #270, .F. ) ;
#302 = ORIENTED_EDGE ( 'NONE', *, *, #200, .F. ) ;
#303 = CARTESIAN_POINT ( 'NONE',  ( 0.000000000000000000, 0.000000000000000000, 5.500000000000005329 ) ) ;
#304 = AXIS2_PLACEMENT_3D ( 'NONE', #186, #102, #220 ) ;
#305 = ADVANCED_FACE ( 'NONE', ( #365 ), #364, .T. ) ;
#306 = DATE_AND_TIME ( #177, #358 ) ;
#307 = CARTESIAN_POINT ( 'NONE',  ( 0.000000000000000000, 0.000000000000000000, 0.000000000000000000 ) ) ;
#308 = EDGE_CURVE ( 'NONE', #294, #327, #284, .T. ) ;
#309 = CARTESIAN_POINT ( 'NONE',  ( 0.000000000000000000, 0.000000000000000000, 0.000000000000000000 ) ) ;
#310 = CARTESIAN_POINT ( 'NONE',  ( -8.000000000000000000, 0.000000000000000000, 5.000000000000000000 ) ) ;
#311 = DIRECTION ( 'NONE',  ( 1.000000000000000000, 0.000000000000000000, 0.000000000000000000 ) ) ;
#312 = DIRECTION ( 'NONE',  ( 0.000000000000000000, 0.000000000000000000, -1.000000000000000000 ) ) ;
#313 = CARTESIAN_POINT ( 'NONE',  ( -5.500000000000000000, 6.735557395310442023E-16, 5.000000000000002665 ) ) ;
#314 = ORIENTED_EDGE ( 'NONE', *, *, #204, .T. ) ;
#315 = CIRCLE ( 'NONE', #127, 5.500000000000000000 ) ;
#316 = CARTESIAN_POINT ( 'NONE',  ( 0.000000000000000000, 0.000000000000000000, 105.0000000000000142 ) ) ;
#317 = EDGE_CURVE ( 'NONE', #346, #340, #136, .T. ) ;
#318 = ORIENTED_EDGE ( 'NONE', *, *, #208, .F. ) ;
#319 = AXIS2_PLACEMENT_3D ( 'NONE', #138, #260, #337 ) ;
#320 = PLANE ( 'NONE',  #273 ) ;
#321 = TOROIDAL_SURFACE ( 'NONE', #123, 5.500000000000000000, 0.5000000000000000000 ) ;
#322 = PERSON_AND_ORGANIZATION_ROLE ( 'design_supplier' ) ;
#323 = DIRECTION ( 'NONE',  ( -1.000000000000000000, 0.000000000000000000, 0.000000000000000000 ) ) ;
#324 = APPROVAL_STATUS ( 'not_yet_approved' ) ;
#325 = ORIENTED_EDGE ( 'NONE', *, *, #257, .F. ) ;
#326 = APPROVAL_ROLE ( '' ) ;
#327 = VERTEX_POINT ( 'NONE', #339 ) ;
#328 = PERSON_AND_ORGANIZATION ( #59, #353 ) ;
#329 = DIRECTION ( 'NONE',  ( -0.000000000000000000, -0.000000000000000000, -1.000000000000000000 ) ) ;
#330 = CARTESIAN_POINT ( 'NONE',  ( 0.000000000000000000, 0.000000000000000000, 105.0000000000000142 ) ) ;
#331 = CARTESIAN_POINT ( 'NONE',  ( 3.000000000000000444, 3.673940397442060361E-16, 0.000000000000000000 ) ) ;
#332 = CARTESIAN_POINT ( 'NONE',  ( 8.000000000000000000, 9.797174393178825657E-16, 5.000000000000000000 ) ) ;
#333 = EDGE_CURVE ( 'NONE', #289, #113, #315, .T. ) ;
#334 = CARTESIAN_POINT ( 'NONE',  ( -5.000000000000000000, 0.000000000000000000, 5.500000000000005329 ) ) ;
#335 = CARTESIAN_POINT ( 'NONE',  ( -5.500000000000000000, 6.735557395310442023E-16, 5.500000000000005329 ) ) ;
#336 = CARTESIAN_POINT ( 'NONE',  ( 5.500000000000000000, 0.000000000000000000, 5.500000000000005329 ) ) ;
#337 = DIRECTION ( 'NONE',  ( 1.000000000000000000, 0.000000000000000000, 0.000000000000000000 ) ) ;
#338 = ORIENTED_EDGE ( 'NONE', *, *, #155, .T. ) ;
#339 = CARTESIAN_POINT ( 'NONE',  ( 8.000000000000000000, 9.797174393178825657E-16, 0.000000000000000000 ) ) ;
#340 = VERTEX_POINT ( 'NONE', #48 ) ;
#341 = AXIS2_PLACEMENT_3D ( 'NONE', #288, #195, #222 ) ;
#342 =( NAMED_UNIT ( * ) PLANE_ANGLE_UNIT ( ) SI_UNIT ( $, .RADIAN. ) );
#343 = ORIENTED_EDGE ( 'NONE', *, *, #44, .F. ) ;
#344 = LINE ( 'NONE', #109, #31 ) ;
#345 = DIRECTION ( 'NONE',  ( 0.000000000000000000, 0.000000000000000000, 1.000000000000000000 ) ) ;
#346 = VERTEX_POINT ( 'NONE', #135 ) ;
#347 = APPLICATION_PROTOCOL_DEFINITION ( 'international standard', 'config_control_design', 1994, #221 ) ;
#348 = ORIENTED_EDGE ( 'NONE', *, *, #44, .T. ) ;
#349 = DATE_AND_TIME ( #52, #131 ) ;
#350 = EDGE_LOOP ( 'NONE', ( #107, #246 ) ) ;
#351 = PERSON_AND_ORGANIZATION ( #59, #353 ) ;
#352 = FACE_OUTER_BOUND ( 'NONE', #152, .T. ) ;
#353 = ORGANIZATION ( 'NEURÈENÝ', 'NEURÈENÝ', '' ) ;
#354 = ORIENTED_EDGE ( 'NONE', *, *, #270, .T. ) ;
#355 = ORIENTED_EDGE ( 'NONE', *, *, #208, .T. ) ;
#356 = DIRECTION ( 'NONE',  ( 0.000000000000000000, 0.000000000000000000, 1.000000000000000000 ) ) ;
#357 = CARTESIAN_POINT ( 'NONE',  ( 3.000000000000000444, 3.673940397442060361E-16, 105.0000000000000142 ) ) ;
#358 = LOCAL_TIME ( 16, 58, 46.00000000000000000, #205 ) ;
#359 = DIRECTION ( 'NONE',  ( -1.000000000000000000, 0.000000000000000000, 0.000000000000000000 ) ) ;
#360 = CARTESIAN_POINT ( 'NONE',  ( 0.000000000000000000, 0.000000000000000000, 0.000000000000000000 ) ) ;
#361 = CYLINDRICAL_SURFACE ( 'NONE', #304, 3.000000000000000444 ) ;
#362 = AXIS2_PLACEMENT_3D ( 'NONE', #287, #223, #194 ) ;
#363 = AXIS2_PLACEMENT_3D ( 'NONE', #234, #32, #323 ) ;
#364 = CYLINDRICAL_SURFACE ( 'NONE', #362, 5.000000000000000000 ) ;
#365 = FACE_OUTER_BOUND ( 'NONE', #90, .T. ) ;
#366 = DIRECTION ( 'NONE',  ( 0.000000000000000000, 0.000000000000000000, 1.000000000000000000 ) ) ;
#367 = AXIS2_PLACEMENT_3D ( 'NONE', #133, #104, #167 ) ;
#368 = AXIS2_PLACEMENT_3D ( 'NONE', #66, #356, #311 ) ;
#369 = CYLINDRICAL_SURFACE ( 'NONE', #18, 8.000000000000000000 ) ;
#370 = ORIENTED_EDGE ( 'NONE', *, *, #333, .T. ) ;
#371 = MECHANICAL_CONTEXT ( 'NONE', #139, 'mechanical' ) ;
#372 = VERTEX_POINT ( 'NONE', #165 ) ;
#373 = AXIS2_PLACEMENT_3D ( 'NONE', #307, #34, #154 ) ;
#374 = ORIENTED_EDGE ( 'NONE', *, *, #100, .T. ) ;
#375 = COORDINATED_UNIVERSAL_TIME_OFFSET ( 1, 0, .AHEAD. ) ;
#376 = ORIENTED_EDGE ( 'NONE', *, *, #88, .F. ) ;
#377 = AXIS2_PLACEMENT_3D ( 'NONE', #279, #35, #65 ) ;
#378 = APPROVAL_STATUS ( 'not_yet_approved' ) ;
#379 = ORIENTED_EDGE ( 'NONE', *, *, #244, .F. ) ;
#380 = AXIS2_PLACEMENT_3D ( 'NONE', #336, #71, #312 ) ;
#381 = FACE_OUTER_BOUND ( 'NONE', #292, .T. ) ;
ENDSEC;
END-ISO-10303-21;
