ISO-10303-21;
HEADER;
FILE_DESCRIPTION (( 'STEP AP203' ),
    '1' );
FILE_NAME ('9c71.STEP',
    '2022-07-08T15:50:05',
    ( '' ),
    ( '' ),
    'SwSTEP 2.0',
    'SolidWorks 2019',
    '' );
FILE_SCHEMA (( 'CONFIG_CONTROL_DESIGN' ));
ENDSEC;

DATA;
#1 = EDGE_CURVE ( 'NONE', #34, #63, #316, .T. ) ;
#2 = ORIENTED_EDGE ( 'NONE', *, *, #364, .F. ) ;
#3 = APPLICATION_CONTEXT ( 'configuration controlled 3d designs of mechanical parts and assemblies' ) ;
#4 = DIRECTION ( 'NONE',  ( -1.000000000000000000, 0.000000000000000000, 0.000000000000000000 ) ) ;
#5 = APPROVAL_PERSON_ORGANIZATION ( #22, #105, #38 ) ;
#6 = DIRECTION ( 'NONE',  ( 1.000000000000000000, 0.000000000000000000, 0.000000000000000000 ) ) ;
#7 = FACE_OUTER_BOUND ( 'NONE', #154, .T. ) ;
#8 = AXIS2_PLACEMENT_3D ( 'NONE', #213, #337, #302 ) ;
#9 = EDGE_CURVE ( 'NONE', #180, #56, #139, .T. ) ;
#10 = MANIFOLD_SOLID_BREP ( 'Odebrat vysunutím3', #160 ) ;
#11 = DIRECTION ( 'NONE',  ( 0.000000000000000000, 0.000000000000000000, 1.000000000000000000 ) ) ;
#12 = CARTESIAN_POINT ( 'NONE',  ( 2.000000000000000000, 2.449293598294706414E-16, 203.0000000000000000 ) ) ;
#13 = FACE_BOUND ( 'NONE', #121, .T. ) ;
#14 = DIRECTION ( 'NONE',  ( 1.000000000000000000, 0.000000000000000000, 0.000000000000000000 ) ) ;
#15 = ORIENTED_EDGE ( 'NONE', *, *, #215, .T. ) ;
#16 = AXIS2_PLACEMENT_3D ( 'NONE', #286, #346, #371 ) ;
#17 = CARTESIAN_POINT ( 'NONE',  ( -1.100000000000000089, 0.000000000000000000, 0.000000000000000000 ) ) ;
#18 = VERTEX_POINT ( 'NONE', #130 ) ;
#19 = ADVANCED_FACE ( 'NONE', ( #36 ), #127, .F. ) ;
#20 = CARTESIAN_POINT ( 'NONE',  ( -1.100000000000000089, 0.000000000000000000, 203.0000000000000000 ) ) ;
#21 = CARTESIAN_POINT ( 'NONE',  ( 0.000000000000000000, 0.000000000000000000, 203.0000000000000000 ) ) ;
#22 = PERSON_AND_ORGANIZATION ( #29, #363 ) ;
#23 = ORIENTED_EDGE ( 'NONE', *, *, #186, .F. ) ;
#24 = APPROVAL_DATE_TIME ( #240, #368 ) ;
#25 = CC_DESIGN_PERSON_AND_ORGANIZATION_ASSIGNMENT ( #153, #81, ( #117 ) ) ;
#26 = VERTEX_POINT ( 'NONE', #35 ) ;
#27 = DIRECTION ( 'NONE',  ( 1.000000000000000000, 0.000000000000000000, 0.000000000000000000 ) ) ;
#28 = EDGE_LOOP ( 'NONE', ( #144, #48, #203, #146 ) ) ;
#29 = PERSON ( 'NEURÈENÝ', 'NEURÈENÝ', 'NEURÈENÝ', ('NEURÈENÝ'), ('NEURÈENÝ'), ('NEURÈENÝ') ) ;
#30 = COORDINATED_UNIVERSAL_TIME_OFFSET ( 1, 0, .AHEAD. ) ;
#31 = ORIENTED_EDGE ( 'NONE', *, *, #77, .F. ) ;
#32 = EDGE_CURVE ( 'NONE', #231, #56, #122, .T. ) ;
#33 = PERSON_AND_ORGANIZATION_ROLE ( 'design_owner' ) ;
#34 = VERTEX_POINT ( 'NONE', #126 ) ;
#35 = CARTESIAN_POINT ( 'NONE',  ( -2.000000000000000000, 0.000000000000000000, 203.0000000000000000 ) ) ;
#36 = FACE_OUTER_BOUND ( 'NONE', #375, .T. ) ;
#37 = AXIS2_PLACEMENT_3D ( 'NONE', #219, #365, #304 ) ;
#38 = APPROVAL_ROLE ( '' ) ;
#39 = DIRECTION ( 'NONE',  ( -0.000000000000000000, -0.000000000000000000, -1.000000000000000000 ) ) ;
#40 = PLANE ( 'NONE',  #108 ) ;
#41 = DIRECTION ( 'NONE',  ( -1.000000000000000000, 0.000000000000000000, 0.000000000000000000 ) ) ;
#42 = AXIS2_PLACEMENT_3D ( 'NONE', #101, #76, #103 ) ;
#43 = EDGE_CURVE ( 'NONE', #85, #104, #155, .T. ) ;
#44 = DIRECTION ( 'NONE',  ( 0.000000000000000000, 0.000000000000000000, 1.000000000000000000 ) ) ;
#45 = CARTESIAN_POINT ( 'NONE',  ( 0.000000000000000000, 0.000000000000000000, 3.000000000000000000 ) ) ;
#46 = CYLINDRICAL_SURFACE ( 'NONE', #42, 2.000000000000000000 ) ;
#47 = ADVANCED_BREP_SHAPE_REPRESENTATION ( '9c71', ( #10, #189 ), #150 ) ;
#48 = ORIENTED_EDGE ( 'NONE', *, *, #32, .T. ) ;
#49 = UNCERTAINTY_MEASURE_WITH_UNIT (LENGTH_MEASURE( 1.000000000000000082E-05 ), #177, 'distance_accuracy_value', 'NONE');
#50 = AXIS2_PLACEMENT_3D ( 'NONE', #318, #184, #27 ) ;
#51 = CARTESIAN_POINT ( 'NONE',  ( 0.000000000000000000, 0.000000000000000000, 0.000000000000000000 ) ) ;
#52 = FACE_OUTER_BOUND ( 'NONE', #152, .T. ) ;
#53 = PERSON_AND_ORGANIZATION ( #29, #363 ) ;
#54 = ADVANCED_FACE ( 'NONE', ( #66 ), #162, .F. ) ;
#55 = COORDINATED_UNIVERSAL_TIME_OFFSET ( 1, 0, .AHEAD. ) ;
#56 = VERTEX_POINT ( 'NONE', #99 ) ;
#57 = COORDINATED_UNIVERSAL_TIME_OFFSET ( 1, 0, .AHEAD. ) ;
#58 = ORIENTED_EDGE ( 'NONE', *, *, #315, .T. ) ;
#59 = DIRECTION ( 'NONE',  ( 0.000000000000000000, 0.000000000000000000, 1.000000000000000000 ) ) ;
#60 = ORIENTED_EDGE ( 'NONE', *, *, #359, .F. ) ;
#61 = CC_DESIGN_DATE_AND_TIME_ASSIGNMENT ( #354, #290, ( #325 ) ) ;
#62 = VERTEX_POINT ( 'NONE', #276 ) ;
#63 = VERTEX_POINT ( 'NONE', #217 ) ;
#64 = DIRECTION ( 'NONE',  ( -1.000000000000000000, 0.000000000000000000, 0.000000000000000000 ) ) ;
#65 = EDGE_CURVE ( 'NONE', #62, #378, #190, .T. ) ;
#66 = FACE_OUTER_BOUND ( 'NONE', #283, .T. ) ;
#67 = PRODUCT_DEFINITION_FORMATION_WITH_SPECIFIED_SOURCE ( 'LIBOVOLNÝ', '', #172, .NOT_KNOWN. ) ;
#68 = APPROVAL_DATE_TIME ( #125, #105 ) ;
#69 = DIRECTION ( 'NONE',  ( 0.000000000000000000, 0.000000000000000000, 1.000000000000000000 ) ) ;
#70 = DIRECTION ( 'NONE',  ( 0.000000000000000000, 0.000000000000000000, 1.000000000000000000 ) ) ;
#71 = VECTOR ( 'NONE', #249, 1000.000000000000000 ) ;
#72 = ADVANCED_FACE ( 'NONE', ( #188 ), #278, .T. ) ;
#73 = CARTESIAN_POINT ( 'NONE',  ( 4.000000000000000000, 4.898587196589412829E-16, 3.000000000000000000 ) ) ;
#74 = TOROIDAL_SURFACE ( 'NONE', #291, 2.299999999999999822, 0.2999999999999999889 ) ;
#75 = DIRECTION ( 'NONE',  ( 0.000000000000000000, 0.000000000000000000, -1.000000000000000000 ) ) ;
#76 = DIRECTION ( 'NONE',  ( -0.000000000000000000, -0.000000000000000000, -1.000000000000000000 ) ) ;
#77 = EDGE_CURVE ( 'NONE', #210, #18, #91, .T. ) ;
#78 = FACE_OUTER_BOUND ( 'NONE', #187, .T. ) ;
#79 = AXIS2_PLACEMENT_3D ( 'NONE', #168, #311, #370 ) ;
#80 = DIRECTION ( 'NONE',  ( 1.000000000000000000, 0.000000000000000000, 0.000000000000000000 ) ) ;
#81 = PERSON_AND_ORGANIZATION_ROLE ( 'creator' ) ;
#82 = EDGE_CURVE ( 'NONE', #56, #180, #329, .T. ) ;
#83 = CIRCLE ( 'NONE', #8, 2.299999999999999822 ) ;
#84 = PERSON_AND_ORGANIZATION ( #29, #363 ) ;
#85 = VERTEX_POINT ( 'NONE', #73 ) ;
#86 = CIRCLE ( 'NONE', #94, 1.100000000000000089 ) ;
#87 = CC_DESIGN_APPROVAL ( #105, ( #325 ) ) ;
#88 = EDGE_LOOP ( 'NONE', ( #60, #185, #135, #255 ) ) ;
#89 = APPLICATION_PROTOCOL_DEFINITION ( 'international standard', 'config_control_design', 1994, #228 ) ;
#90 = ORIENTED_EDGE ( 'NONE', *, *, #268, .T. ) ;
#91 = CIRCLE ( 'NONE', #306, 1.100000000000000089 ) ;
#92 = DIRECTION ( 'NONE',  ( 0.000000000000000000, 0.000000000000000000, 1.000000000000000000 ) ) ;
#93 = ORIENTED_EDGE ( 'NONE', *, *, #279, .T. ) ;
#94 = AXIS2_PLACEMENT_3D ( 'NONE', #309, #165, #281 ) ;
#95 = DIRECTION ( 'NONE',  ( 1.000000000000000000, 0.000000000000000000, 0.000000000000000000 ) ) ;
#96 = CYLINDRICAL_SURFACE ( 'NONE', #183, 2.000000000000000000 ) ;
#97 = CARTESIAN_POINT ( 'NONE',  ( 4.000000000000000000, 4.898587196589412829E-16, 0.000000000000000000 ) ) ;
#98 = EDGE_CURVE ( 'NONE', #63, #34, #83, .T. ) ;
#99 = CARTESIAN_POINT ( 'NONE',  ( 2.000000000000000000, 2.449293598294706414E-16, 3.299999999999997158 ) ) ;
#100 = CARTESIAN_POINT ( 'NONE',  ( 0.000000000000000000, 0.000000000000000000, 203.0000000000000000 ) ) ;
#101 = CARTESIAN_POINT ( 'NONE',  ( 0.000000000000000000, 0.000000000000000000, 203.0000000000000000 ) ) ;
#102 = CIRCLE ( 'NONE', #320, 4.000000000000000000 ) ;
#103 = DIRECTION ( 'NONE',  ( -1.000000000000000000, 0.000000000000000000, 0.000000000000000000 ) ) ;
#104 = VERTEX_POINT ( 'NONE', #97 ) ;
#105 = APPROVAL ( #262, 'NEURÈENÝ' ) ;
#106 = FACE_OUTER_BOUND ( 'NONE', #28, .T. ) ;
#107 = CARTESIAN_POINT ( 'NONE',  ( 0.000000000000000000, 0.000000000000000000, 3.299999999999997158 ) ) ;
#108 = AXIS2_PLACEMENT_3D ( 'NONE', #246, #70, #193 ) ;
#109 = DIRECTION ( 'NONE',  ( 0.000000000000000000, 0.000000000000000000, -1.000000000000000000 ) ) ;
#110 = EDGE_CURVE ( 'NONE', #231, #26, #331, .T. ) ;
#111 = ORIENTED_EDGE ( 'NONE', *, *, #98, .T. ) ;
#112 = PERSON_AND_ORGANIZATION_ROLE ( 'design_supplier' ) ;
#113 = ORIENTED_EDGE ( 'NONE', *, *, #186, .T. ) ;
#114 = LOCAL_TIME ( 17, 50, 5.000000000000000000, #30 ) ;
#115 = DIRECTION ( 'NONE',  ( 1.000000000000000000, 0.000000000000000000, 0.000000000000000000 ) ) ;
#116 = ORIENTED_EDGE ( 'NONE', *, *, #334, .F. ) ;
#117 = PRODUCT_DEFINITION ( 'NEZNÁMÝ', '', #67, #132 ) ;
#118 = CALENDAR_DATE ( 2022, 8, 7 ) ;
#119 = DIRECTION ( 'NONE',  ( -0.000000000000000000, -0.000000000000000000, -1.000000000000000000 ) ) ;
#120 = APPROVAL_STATUS ( 'not_yet_approved' ) ;
#121 = EDGE_LOOP ( 'NONE', ( #31, #116 ) ) ;
#122 = LINE ( 'NONE', #12, #71 ) ;
#123 = CIRCLE ( 'NONE', #50, 4.000000000000000000 ) ;
#124 = EDGE_CURVE ( 'NONE', #326, #319, #345, .T. ) ;
#125 = DATE_AND_TIME ( #218, #170 ) ;
#126 = CARTESIAN_POINT ( 'NONE',  ( -2.299999999999999822, 2.816687638038912056E-16, 2.999999999999998668 ) ) ;
#127 = TOROIDAL_SURFACE ( 'NONE', #355, 2.299999999999999822, 0.2999999999999999889 ) ;
#128 = CC_DESIGN_PERSON_AND_ORGANIZATION_ASSIGNMENT ( #374, #112, ( #67 ) ) ;
#129 = DIRECTION ( 'NONE',  ( 1.000000000000000000, 0.000000000000000000, 0.000000000000000000 ) ) ;
#130 = CARTESIAN_POINT ( 'NONE',  ( 1.100000000000000089, 1.347111479062088257E-16, 203.0000000000000000 ) ) ;
#131 = FACE_OUTER_BOUND ( 'NONE', #208, .T. ) ;
#132 = DESIGN_CONTEXT ( 'detailed design', #228, 'design' ) ;
#133 = CARTESIAN_POINT ( 'NONE',  ( -2.000000000000000000, 0.000000000000000000, 203.0000000000000000 ) ) ;
#134 = ADVANCED_FACE ( 'NONE', ( #157, #7 ), #40, .T. ) ;
#135 = ORIENTED_EDGE ( 'NONE', *, *, #195, .T. ) ;
#136 = CIRCLE ( 'NONE', #158, 1.100000000000000089 ) ;
#137 = DIRECTION ( 'NONE',  ( 0.000000000000000000, 0.000000000000000000, 1.000000000000000000 ) ) ;
#138 = DIRECTION ( 'NONE',  ( -1.000000000000000000, 0.000000000000000000, 0.000000000000000000 ) ) ;
#139 = CIRCLE ( 'NONE', #294, 2.000000000000000000 ) ;
#140 = ADVANCED_FACE ( 'NONE', ( #191 ), #327, .T. ) ;
#141 = CARTESIAN_POINT ( 'NONE',  ( 0.000000000000000000, 0.000000000000000000, 203.0000000000000000 ) ) ;
#142 = EDGE_LOOP ( 'NONE', ( #356, #349, #178, #324 ) ) ;
#143 = PERSON_AND_ORGANIZATION ( #29, #363 ) ;
#144 = ORIENTED_EDGE ( 'NONE', *, *, #110, .F. ) ;
#145 = APPROVAL_ROLE ( '' ) ;
#146 = ORIENTED_EDGE ( 'NONE', *, *, #173, .F. ) ;
#147 = CARTESIAN_POINT ( 'NONE',  ( -4.000000000000000000, 0.000000000000000000, 0.000000000000000000 ) ) ;
#148 = ORIENTED_EDGE ( 'NONE', *, *, #279, .F. ) ;
#149 = ADVANCED_FACE ( 'NONE', ( #275 ), #96, .T. ) ;
#150 =( GEOMETRIC_REPRESENTATION_CONTEXT ( 3 ) GLOBAL_UNCERTAINTY_ASSIGNED_CONTEXT ( ( #49 ) ) GLOBAL_UNIT_ASSIGNED_CONTEXT ( ( #177, #230, #209 ) ) REPRESENTATION_CONTEXT ( 'NONE', 'WORKASPACE' ) );
#151 = DATE_AND_TIME ( #201, #114 ) ;
#152 = EDGE_LOOP ( 'NONE', ( #358, #206, #93, #322 ) ) ;
#153 = PERSON_AND_ORGANIZATION ( #29, #363 ) ;
#154 = EDGE_LOOP ( 'NONE', ( #113, #351 ) ) ;
#155 = LINE ( 'NONE', #366, #287 ) ;
#156 = CIRCLE ( 'NONE', #16, 0.2999999999999999334 ) ;
#157 = FACE_BOUND ( 'NONE', #293, .T. ) ;
#158 = AXIS2_PLACEMENT_3D ( 'NONE', #258, #339, #174 ) ;
#159 = CARTESIAN_POINT ( 'NONE',  ( 0.000000000000000000, 0.000000000000000000, 3.000000000000000000 ) ) ;
#160 = CLOSED_SHELL ( 'NONE', ( #54, #19, #257, #72, #140, #134, #289, #149, #352, #237, #211 ) ) ;
#161 = DIRECTION ( 'NONE',  ( -0.000000000000000000, -0.000000000000000000, -1.000000000000000000 ) ) ;
#162 = CYLINDRICAL_SURFACE ( 'NONE', #343, 1.100000000000000089 ) ;
#163 = VECTOR ( 'NONE', #200, 1000.000000000000000 ) ;
#164 = LOCAL_TIME ( 17, 50, 5.000000000000000000, #57 ) ;
#165 = DIRECTION ( 'NONE',  ( 0.000000000000000000, 0.000000000000000000, 1.000000000000000000 ) ) ;
#166 = CC_DESIGN_PERSON_AND_ORGANIZATION_ASSIGNMENT ( #143, #175, ( #325 ) ) ;
#167 = DIRECTION ( 'NONE',  ( 0.000000000000000000, 0.000000000000000000, 1.000000000000000000 ) ) ;
#168 = CARTESIAN_POINT ( 'NONE',  ( 2.299999999999999822, 0.000000000000000000, 3.299999999999997158 ) ) ;
#169 = EDGE_LOOP ( 'NONE', ( #224, #340 ) ) ;
#170 = LOCAL_TIME ( 17, 50, 5.000000000000000000, #333 ) ;
#171 = DIRECTION ( 'NONE',  ( 1.000000000000000000, 0.000000000000000000, -0.000000000000000000 ) ) ;
#172 = PRODUCT ( '9c71', '9c71', '', ( #292 ) ) ;
#173 = EDGE_CURVE ( 'NONE', #26, #180, #307, .T. ) ;
#174 = DIRECTION ( 'NONE',  ( 1.000000000000000000, 0.000000000000000000, 0.000000000000000000 ) ) ;
#175 = PERSON_AND_ORGANIZATION_ROLE ( 'classification_officer' ) ;
#176 = APPROVAL_PERSON_ORGANIZATION ( #377, #368, #296 ) ;
#177 =( LENGTH_UNIT ( ) NAMED_UNIT ( * ) SI_UNIT ( .MILLI., .METRE. ) );
#178 = ORIENTED_EDGE ( 'NONE', *, *, #173, .T. ) ;
#179 = PERSON_AND_ORGANIZATION ( #29, #363 ) ;
#180 = VERTEX_POINT ( 'NONE', #225 ) ;
#181 = DATE_TIME_ROLE ( 'creation_date' ) ;
#182 = ORIENTED_EDGE ( 'NONE', *, *, #364, .T. ) ;
#183 = AXIS2_PLACEMENT_3D ( 'NONE', #305, #161, #330 ) ;
#184 = DIRECTION ( 'NONE',  ( 0.000000000000000000, 0.000000000000000000, 1.000000000000000000 ) ) ;
#185 = ORIENTED_EDGE ( 'NONE', *, *, #43, .T. ) ;
#186 = EDGE_CURVE ( 'NONE', #62, #85, #252, .T. ) ;
#187 = EDGE_LOOP ( 'NONE', ( #2, #260 ) ) ;
#188 = FACE_OUTER_BOUND ( 'NONE', #88, .T. ) ;
#189 = AXIS2_PLACEMENT_3D ( 'NONE', #299, #59, #115 ) ;
#190 = LINE ( 'NONE', #243, #202 ) ;
#191 = FACE_OUTER_BOUND ( 'NONE', #321, .T. ) ;
#192 = EDGE_CURVE ( 'NONE', #18, #319, #226, .T. ) ;
#193 = DIRECTION ( 'NONE',  ( 1.000000000000000000, 0.000000000000000000, -0.000000000000000000 ) ) ;
#194 = CARTESIAN_POINT ( 'NONE',  ( 0.000000000000000000, 0.000000000000000000, 3.000000000000000000 ) ) ;
#195 = EDGE_CURVE ( 'NONE', #104, #378, #102, .T. ) ;
#196 = DIRECTION ( 'NONE',  ( 1.000000000000000000, 0.000000000000000000, 0.000000000000000000 ) ) ;
#197 = ORIENTED_EDGE ( 'NONE', *, *, #334, .T. ) ;
#198 = DIRECTION ( 'NONE',  ( 1.000000000000000000, 0.000000000000000000, 0.000000000000000000 ) ) ;
#199 = CYLINDRICAL_SURFACE ( 'NONE', #254, 1.100000000000000089 ) ;
#200 = DIRECTION ( 'NONE',  ( -0.000000000000000000, -0.000000000000000000, -1.000000000000000000 ) ) ;
#201 = CALENDAR_DATE ( 2022, 8, 7 ) ;
#202 = VECTOR ( 'NONE', #248, 1000.000000000000000 ) ;
#203 = ORIENTED_EDGE ( 'NONE', *, *, #82, .T. ) ;
#204 = LOCAL_TIME ( 17, 50, 5.000000000000000000, #270 ) ;
#205 = EDGE_CURVE ( 'NONE', #180, #34, #156, .T. ) ;
#206 = ORIENTED_EDGE ( 'NONE', *, *, #82, .F. ) ;
#207 = CALENDAR_DATE ( 2022, 8, 7 ) ;
#208 = EDGE_LOOP ( 'NONE', ( #90, #295 ) ) ;
#209 =( NAMED_UNIT ( * ) SI_UNIT ( $, .STERADIAN. ) SOLID_ANGLE_UNIT ( ) );
#210 = VERTEX_POINT ( 'NONE', #20 ) ;
#211 = ADVANCED_FACE ( 'NONE', ( #288 ), #199, .F. ) ;
#212 = EDGE_LOOP ( 'NONE', ( #241, #197, #58, #297 ) ) ;
#213 = CARTESIAN_POINT ( 'NONE',  ( 0.000000000000000000, 0.000000000000000000, 3.000000000000000000 ) ) ;
#214 = DIRECTION ( 'NONE',  ( -0.000000000000000000, -0.000000000000000000, -1.000000000000000000 ) ) ;
#215 = EDGE_CURVE ( 'NONE', #319, #326, #136, .T. ) ;
#216 = CC_DESIGN_SECURITY_CLASSIFICATION ( #325, ( #67 ) ) ;
#217 = CARTESIAN_POINT ( 'NONE',  ( 2.299999999999999822, 0.000000000000000000, 2.999999999999998668 ) ) ;
#218 = CALENDAR_DATE ( 2022, 8, 7 ) ;
#219 = CARTESIAN_POINT ( 'NONE',  ( 0.000000000000000000, 0.000000000000000000, 0.000000000000000000 ) ) ;
#220 = CARTESIAN_POINT ( 'NONE',  ( 0.000000000000000000, 0.000000000000000000, 3.299999999999997158 ) ) ;
#221 = CARTESIAN_POINT ( 'NONE',  ( 0.000000000000000000, 0.000000000000000000, 203.0000000000000000 ) ) ;
#222 = AXIS2_PLACEMENT_3D ( 'NONE', #194, #137, #14 ) ;
#223 = DIRECTION ( 'NONE',  ( 1.000000000000000000, 0.000000000000000000, 0.000000000000000000 ) ) ;
#224 = ORIENTED_EDGE ( 'NONE', *, *, #124, .F. ) ;
#225 = CARTESIAN_POINT ( 'NONE',  ( -2.000000000000000000, 0.000000000000000000, 3.299999999999997158 ) ) ;
#226 = LINE ( 'NONE', #256, #273 ) ;
#227 = LOCAL_TIME ( 17, 50, 5.000000000000000000, #55 ) ;
#228 = APPLICATION_CONTEXT ( 'configuration controlled 3d designs of mechanical parts and assemblies' ) ;
#229 = CARTESIAN_POINT ( 'NONE',  ( -1.100000000000000089, 0.000000000000000000, 203.0000000000000000 ) ) ;
#230 =( NAMED_UNIT ( * ) PLANE_ANGLE_UNIT ( ) SI_UNIT ( $, .RADIAN. ) );
#231 = VERTEX_POINT ( 'NONE', #314 ) ;
#232 = CC_DESIGN_DATE_AND_TIME_ASSIGNMENT ( #264, #181, ( #117 ) ) ;
#233 = PRODUCT_DEFINITION_SHAPE ( 'NONE', 'NONE',  #117 ) ;
#234 = ORIENTED_EDGE ( 'NONE', *, *, #315, .F. ) ;
#235 = CIRCLE ( 'NONE', #79, 0.2999999999999999334 ) ;
#236 = DIRECTION ( 'NONE',  ( 1.000000000000000000, 0.000000000000000000, 0.000000000000000000 ) ) ;
#237 = ADVANCED_FACE ( 'NONE', ( #52 ), #74, .F. ) ;
#238 = PERSON_AND_ORGANIZATION_ROLE ( 'creator' ) ;
#239 = CARTESIAN_POINT ( 'NONE',  ( 0.000000000000000000, 0.000000000000000000, 3.299999999999997158 ) ) ;
#240 = DATE_AND_TIME ( #118, #204 ) ;
#241 = ORIENTED_EDGE ( 'NONE', *, *, #192, .F. ) ;
#242 = DIRECTION ( 'NONE',  ( 0.000000000000000000, 0.000000000000000000, 1.000000000000000000 ) ) ;
#243 = CARTESIAN_POINT ( 'NONE',  ( -4.000000000000000000, 0.000000000000000000, 3.000000000000000000 ) ) ;
#244 = APPROVAL ( #323, 'NEURÈENÝ' ) ;
#245 = AXIS2_PLACEMENT_3D ( 'NONE', #159, #272, #41 ) ;
#246 = CARTESIAN_POINT ( 'NONE',  ( 0.000000000000000000, 0.000000000000000000, 3.000000000000000000 ) ) ;
#247 = AXIS2_PLACEMENT_3D ( 'NONE', #361, #39, #64 ) ;
#248 = DIRECTION ( 'NONE',  ( -0.000000000000000000, -0.000000000000000000, -1.000000000000000000 ) ) ;
#249 = DIRECTION ( 'NONE',  ( -0.000000000000000000, -0.000000000000000000, -1.000000000000000000 ) ) ;
#250 = PLANE ( 'NONE',  #308 ) ;
#251 = ORIENTED_EDGE ( 'NONE', *, *, #98, .F. ) ;
#252 = CIRCLE ( 'NONE', #222, 4.000000000000000000 ) ;
#253 = CARTESIAN_POINT ( 'NONE',  ( 1.100000000000000089, 1.347111479062088257E-16, 0.000000000000000000 ) ) ;
#254 = AXIS2_PLACEMENT_3D ( 'NONE', #21, #109, #138 ) ;
#255 = ORIENTED_EDGE ( 'NONE', *, *, #65, .F. ) ;
#256 = CARTESIAN_POINT ( 'NONE',  ( 1.100000000000000089, 1.347111479062088257E-16, 203.0000000000000000 ) ) ;
#257 = ADVANCED_FACE ( 'NONE', ( #106 ), #46, .T. ) ;
#258 = CARTESIAN_POINT ( 'NONE',  ( 0.000000000000000000, 0.000000000000000000, 0.000000000000000000 ) ) ;
#259 = PLANE ( 'NONE',  #274 ) ;
#260 = ORIENTED_EDGE ( 'NONE', *, *, #195, .F. ) ;
#261 = VECTOR ( 'NONE', #347, 1000.000000000000000 ) ;
#262 = APPROVAL_STATUS ( 'not_yet_approved' ) ;
#263 = ORIENTED_EDGE ( 'NONE', *, *, #9, .F. ) ;
#264 = DATE_AND_TIME ( #207, #227 ) ;
#265 = ORIENTED_EDGE ( 'NONE', *, *, #77, .T. ) ;
#266 = ORIENTED_EDGE ( 'NONE', *, *, #65, .T. ) ;
#267 = AXIS2_PLACEMENT_3D ( 'NONE', #141, #367, #80 ) ;
#268 = EDGE_CURVE ( 'NONE', #26, #231, #338, .T. ) ;
#269 = ORIENTED_EDGE ( 'NONE', *, *, #192, .T. ) ;
#270 = COORDINATED_UNIVERSAL_TIME_OFFSET ( 1, 0, .AHEAD. ) ;
#271 = ORIENTED_EDGE ( 'NONE', *, *, #205, .T. ) ;
#272 = DIRECTION ( 'NONE',  ( -0.000000000000000000, -0.000000000000000000, -1.000000000000000000 ) ) ;
#273 = VECTOR ( 'NONE', #75, 1000.000000000000000 ) ;
#274 = AXIS2_PLACEMENT_3D ( 'NONE', #51, #372, #171 ) ;
#275 = FACE_OUTER_BOUND ( 'NONE', #142, .T. ) ;
#276 = CARTESIAN_POINT ( 'NONE',  ( -4.000000000000000000, 0.000000000000000000, 3.000000000000000000 ) ) ;
#277 = SHAPE_DEFINITION_REPRESENTATION ( #233, #47 ) ;
#278 = CYLINDRICAL_SURFACE ( 'NONE', #245, 4.000000000000000000 ) ;
#279 = EDGE_CURVE ( 'NONE', #56, #63, #235, .T. ) ;
#280 = CARTESIAN_POINT ( 'NONE',  ( 0.000000000000000000, 0.000000000000000000, 203.0000000000000000 ) ) ;
#281 = DIRECTION ( 'NONE',  ( 1.000000000000000000, 0.000000000000000000, 0.000000000000000000 ) ) ;
#282 = FACE_BOUND ( 'NONE', #169, .T. ) ;
#283 = EDGE_LOOP ( 'NONE', ( #265, #269, #15, #234 ) ) ;
#284 = LINE ( 'NONE', #229, #261 ) ;
#285 = APPROVAL_PERSON_ORGANIZATION ( #179, #244, #145 ) ;
#286 = CARTESIAN_POINT ( 'NONE',  ( -2.299999999999999822, 2.816687638038912056E-16, 3.299999999999997158 ) ) ;
#287 = VECTOR ( 'NONE', #214, 1000.000000000000000 ) ;
#288 = FACE_OUTER_BOUND ( 'NONE', #212, .T. ) ;
#289 = ADVANCED_FACE ( 'NONE', ( #282, #78 ), #259, .F. ) ;
#290 = DATE_TIME_ROLE ( 'classification_date' ) ;
#291 = AXIS2_PLACEMENT_3D ( 'NONE', #107, #342, #196 ) ;
#292 = MECHANICAL_CONTEXT ( 'NONE', #3, 'mechanical' ) ;
#293 = EDGE_LOOP ( 'NONE', ( #111, #353 ) ) ;
#294 = AXIS2_PLACEMENT_3D ( 'NONE', #239, #92, #300 ) ;
#295 = ORIENTED_EDGE ( 'NONE', *, *, #110, .T. ) ;
#296 = APPROVAL_ROLE ( '' ) ;
#297 = ORIENTED_EDGE ( 'NONE', *, *, #124, .T. ) ;
#298 = CC_DESIGN_PERSON_AND_ORGANIZATION_ASSIGNMENT ( #53, #238, ( #67 ) ) ;
#299 = CARTESIAN_POINT ( 'NONE',  ( 0.000000000000000000, 0.000000000000000000, 0.000000000000000000 ) ) ;
#300 = DIRECTION ( 'NONE',  ( 1.000000000000000000, 0.000000000000000000, 0.000000000000000000 ) ) ;
#301 = CARTESIAN_POINT ( 'NONE',  ( 0.000000000000000000, 0.000000000000000000, 203.0000000000000000 ) ) ;
#302 = DIRECTION ( 'NONE',  ( 1.000000000000000000, 0.000000000000000000, 0.000000000000000000 ) ) ;
#303 = CC_DESIGN_APPROVAL ( #368, ( #117 ) ) ;
#304 = DIRECTION ( 'NONE',  ( 1.000000000000000000, 0.000000000000000000, 0.000000000000000000 ) ) ;
#305 = CARTESIAN_POINT ( 'NONE',  ( 0.000000000000000000, 0.000000000000000000, 203.0000000000000000 ) ) ;
#306 = AXIS2_PLACEMENT_3D ( 'NONE', #100, #69, #6 ) ;
#307 = LINE ( 'NONE', #133, #163 ) ;
#308 = AXIS2_PLACEMENT_3D ( 'NONE', #221, #310, #369 ) ;
#309 = CARTESIAN_POINT ( 'NONE',  ( 0.000000000000000000, 0.000000000000000000, 203.0000000000000000 ) ) ;
#310 = DIRECTION ( 'NONE',  ( 0.000000000000000000, 0.000000000000000000, 1.000000000000000000 ) ) ;
#311 = DIRECTION ( 'NONE',  ( 0.000000000000000000, -1.000000000000000000, 0.000000000000000000 ) ) ;
#312 = AXIS2_PLACEMENT_3D ( 'NONE', #301, #335, #129 ) ;
#313 = CC_DESIGN_APPROVAL ( #244, ( #67 ) ) ;
#314 = CARTESIAN_POINT ( 'NONE',  ( 2.000000000000000000, 2.449293598294706414E-16, 203.0000000000000000 ) ) ;
#315 = EDGE_CURVE ( 'NONE', #210, #326, #284, .T. ) ;
#316 = CIRCLE ( 'NONE', #328, 2.299999999999999822 ) ;
#317 = APPROVAL_DATE_TIME ( #151, #244 ) ;
#318 = CARTESIAN_POINT ( 'NONE',  ( 0.000000000000000000, 0.000000000000000000, 0.000000000000000000 ) ) ;
#319 = VERTEX_POINT ( 'NONE', #253 ) ;
#320 = AXIS2_PLACEMENT_3D ( 'NONE', #344, #44, #198 ) ;
#321 = EDGE_LOOP ( 'NONE', ( #373, #23, #266, #182 ) ) ;
#322 = ORIENTED_EDGE ( 'NONE', *, *, #1, .F. ) ;
#323 = APPROVAL_STATUS ( 'not_yet_approved' ) ;
#324 = ORIENTED_EDGE ( 'NONE', *, *, #9, .T. ) ;
#325 = SECURITY_CLASSIFICATION ( '', '', #350 ) ;
#326 = VERTEX_POINT ( 'NONE', #17 ) ;
#327 = CYLINDRICAL_SURFACE ( 'NONE', #247, 4.000000000000000000 ) ;
#328 = AXIS2_PLACEMENT_3D ( 'NONE', #381, #119, #236 ) ;
#329 = CIRCLE ( 'NONE', #357, 2.000000000000000000 ) ;
#330 = DIRECTION ( 'NONE',  ( -1.000000000000000000, 0.000000000000000000, 0.000000000000000000 ) ) ;
#331 = CIRCLE ( 'NONE', #312, 2.000000000000000000 ) ;
#332 = CIRCLE ( 'NONE', #379, 4.000000000000000000 ) ;
#333 = COORDINATED_UNIVERSAL_TIME_OFFSET ( 1, 0, .AHEAD. ) ;
#334 = EDGE_CURVE ( 'NONE', #18, #210, #86, .T. ) ;
#335 = DIRECTION ( 'NONE',  ( 0.000000000000000000, 0.000000000000000000, 1.000000000000000000 ) ) ;
#336 = DIRECTION ( 'NONE',  ( 1.000000000000000000, 0.000000000000000000, 0.000000000000000000 ) ) ;
#337 = DIRECTION ( 'NONE',  ( -0.000000000000000000, -0.000000000000000000, -1.000000000000000000 ) ) ;
#338 = CIRCLE ( 'NONE', #267, 2.000000000000000000 ) ;
#339 = DIRECTION ( 'NONE',  ( -0.000000000000000000, -0.000000000000000000, -1.000000000000000000 ) ) ;
#340 = ORIENTED_EDGE ( 'NONE', *, *, #215, .F. ) ;
#341 = CC_DESIGN_PERSON_AND_ORGANIZATION_ASSIGNMENT ( #84, #33, ( #172 ) ) ;
#342 = DIRECTION ( 'NONE',  ( 0.000000000000000000, 0.000000000000000000, 1.000000000000000000 ) ) ;
#343 = AXIS2_PLACEMENT_3D ( 'NONE', #280, #362, #4 ) ;
#344 = CARTESIAN_POINT ( 'NONE',  ( 0.000000000000000000, 0.000000000000000000, 0.000000000000000000 ) ) ;
#345 = CIRCLE ( 'NONE', #37, 1.100000000000000089 ) ;
#346 = DIRECTION ( 'NONE',  ( 1.224646799147353207E-16, 1.000000000000000000, -0.000000000000000000 ) ) ;
#347 = DIRECTION ( 'NONE',  ( 0.000000000000000000, 0.000000000000000000, -1.000000000000000000 ) ) ;
#348 = APPLICATION_PROTOCOL_DEFINITION ( 'international standard', 'config_control_design', 1994, #3 ) ;
#349 = ORIENTED_EDGE ( 'NONE', *, *, #268, .F. ) ;
#350 = SECURITY_CLASSIFICATION_LEVEL ( 'unclassified' ) ;
#351 = ORIENTED_EDGE ( 'NONE', *, *, #359, .T. ) ;
#352 = ADVANCED_FACE ( 'NONE', ( #13, #131 ), #250, .T. ) ;
#353 = ORIENTED_EDGE ( 'NONE', *, *, #1, .T. ) ;
#354 = DATE_AND_TIME ( #380, #164 ) ;
#355 = AXIS2_PLACEMENT_3D ( 'NONE', #360, #11, #336 ) ;
#356 = ORIENTED_EDGE ( 'NONE', *, *, #32, .F. ) ;
#357 = AXIS2_PLACEMENT_3D ( 'NONE', #220, #242, #95 ) ;
#358 = ORIENTED_EDGE ( 'NONE', *, *, #205, .F. ) ;
#359 = EDGE_CURVE ( 'NONE', #85, #62, #332, .T. ) ;
#360 = CARTESIAN_POINT ( 'NONE',  ( 0.000000000000000000, 0.000000000000000000, 3.299999999999997158 ) ) ;
#361 = CARTESIAN_POINT ( 'NONE',  ( 0.000000000000000000, 0.000000000000000000, 3.000000000000000000 ) ) ;
#362 = DIRECTION ( 'NONE',  ( 0.000000000000000000, 0.000000000000000000, -1.000000000000000000 ) ) ;
#363 = ORGANIZATION ( 'NEURÈENÝ', 'NEURÈENÝ', '' ) ;
#364 = EDGE_CURVE ( 'NONE', #378, #104, #123, .T. ) ;
#365 = DIRECTION ( 'NONE',  ( -0.000000000000000000, -0.000000000000000000, -1.000000000000000000 ) ) ;
#366 = CARTESIAN_POINT ( 'NONE',  ( 4.000000000000000000, 4.898587196589412829E-16, 3.000000000000000000 ) ) ;
#367 = DIRECTION ( 'NONE',  ( 0.000000000000000000, 0.000000000000000000, 1.000000000000000000 ) ) ;
#368 = APPROVAL ( #120, 'NEURÈENÝ' ) ;
#369 = DIRECTION ( 'NONE',  ( 1.000000000000000000, 0.000000000000000000, -0.000000000000000000 ) ) ;
#370 = DIRECTION ( 'NONE',  ( 0.000000000000000000, 0.000000000000000000, -1.000000000000000000 ) ) ;
#371 = DIRECTION ( 'NONE',  ( -1.000000000000000000, 1.224646799147353207E-16, 0.000000000000000000 ) ) ;
#372 = DIRECTION ( 'NONE',  ( 0.000000000000000000, 0.000000000000000000, 1.000000000000000000 ) ) ;
#373 = ORIENTED_EDGE ( 'NONE', *, *, #43, .F. ) ;
#374 = PERSON_AND_ORGANIZATION ( #29, #363 ) ;
#375 = EDGE_LOOP ( 'NONE', ( #263, #271, #251, #148 ) ) ;
#376 = PRODUCT_RELATED_PRODUCT_CATEGORY ( 'detail', '', ( #172 ) ) ;
#377 = PERSON_AND_ORGANIZATION ( #29, #363 ) ;
#378 = VERTEX_POINT ( 'NONE', #147 ) ;
#379 = AXIS2_PLACEMENT_3D ( 'NONE', #45, #167, #223 ) ;
#380 = CALENDAR_DATE ( 2022, 8, 7 ) ;
#381 = CARTESIAN_POINT ( 'NONE',  ( 0.000000000000000000, 0.000000000000000000, 3.000000000000000000 ) ) ;
ENDSEC;
END-ISO-10303-21;
