ISO-10303-21;
HEADER;
FILE_DESCRIPTION (( 'STEP AP203' ),
    '1' );
FILE_NAME ('c0b8.STEP',
    '2022-07-08T15:07:19',
    ( '' ),
    ( '' ),
    'SwSTEP 2.0',
    'SolidWorks 2019',
    '' );
FILE_SCHEMA (( 'CONFIG_CONTROL_DESIGN' ));
ENDSEC;

DATA;
#1 = CARTESIAN_POINT ( 'NONE',  ( 0.000000000000000000, 0.000000000000000000, 705.0000000000000000 ) ) ;
#2 = LOCAL_TIME ( 17, 7, 19.00000000000000000, #16 ) ;
#3 = DIRECTION ( 'NONE',  ( 1.000000000000000000, 0.000000000000000000, 0.000000000000000000 ) ) ;
#4 = DIRECTION ( 'NONE',  ( 0.000000000000000000, 0.000000000000000000, 1.000000000000000000 ) ) ;
#5 = DIRECTION ( 'NONE',  ( -0.000000000000000000, -0.000000000000000000, -1.000000000000000000 ) ) ;
#6 = VERTEX_POINT ( 'NONE', #23 ) ;
#7 = CARTESIAN_POINT ( 'NONE',  ( -2.600000000000000089, 0.000000000000000000, 0.000000000000000000 ) ) ;
#8 = CIRCLE ( 'NONE', #220, 7.000000000000000000 ) ;
#9 = CIRCLE ( 'NONE', #94, 4.500000000000000888 ) ;
#10 = ORIENTED_EDGE ( 'NONE', *, *, #374, .T. ) ;
#11 = DIRECTION ( 'NONE',  ( 0.000000000000000000, 0.000000000000000000, 1.000000000000000000 ) ) ;
#12 = ORIENTED_EDGE ( 'NONE', *, *, #31, .T. ) ;
#13 = APPROVAL_ROLE ( '' ) ;
#14 = CARTESIAN_POINT ( 'NONE',  ( 0.000000000000000000, 0.000000000000000000, 0.000000000000000000 ) ) ;
#15 = EDGE_CURVE ( 'NONE', #66, #190, #8, .T. ) ;
#16 = COORDINATED_UNIVERSAL_TIME_OFFSET ( 1, 0, .AHEAD. ) ;
#17 = EDGE_LOOP ( 'NONE', ( #363, #108, #34, #137 ) ) ;
#18 = APPLICATION_PROTOCOL_DEFINITION ( 'international standard', 'config_control_design', 1994, #311 ) ;
#19 = DIRECTION ( 'NONE',  ( 0.000000000000000000, 0.000000000000000000, 1.000000000000000000 ) ) ;
#20 = CC_DESIGN_PERSON_AND_ORGANIZATION_ASSIGNMENT ( #85, #112, ( #134 ) ) ;
#21 = VECTOR ( 'NONE', #178, 1000.000000000000000 ) ;
#22 = DIRECTION ( 'NONE',  ( -0.000000000000000000, -0.000000000000000000, -1.000000000000000000 ) ) ;
#23 = CARTESIAN_POINT ( 'NONE',  ( 2.600000000000000089, 3.184081677783118191E-16, 0.000000000000000000 ) ) ;
#24 = SHAPE_DEFINITION_REPRESENTATION ( #308, #183 ) ;
#25 = MANIFOLD_SOLID_BREP ( 'Odebrat vysunutím3', #115 ) ;
#26 = CYLINDRICAL_SURFACE ( 'NONE', #250, 4.000000000000000000 ) ;
#27 = CIRCLE ( 'NONE', #129, 0.5000000000000004441 ) ;
#28 = ADVANCED_FACE ( 'NONE', ( #225 ), #26, .T. ) ;
#29 = ORIENTED_EDGE ( 'NONE', *, *, #189, .T. ) ;
#30 = DIRECTION ( 'NONE',  ( 0.000000000000000000, 0.000000000000000000, -1.000000000000000000 ) ) ;
#31 = EDGE_CURVE ( 'NONE', #120, #190, #261, .T. ) ;
#32 = CARTESIAN_POINT ( 'NONE',  ( 4.000000000000000000, 4.898587196589412829E-16, 705.0000000000000000 ) ) ;
#33 = CARTESIAN_POINT ( 'NONE',  ( 2.600000000000000089, 3.184081677783118191E-16, 705.0000000000000000 ) ) ;
#34 = ORIENTED_EDGE ( 'NONE', *, *, #38, .T. ) ;
#35 = FACE_OUTER_BOUND ( 'NONE', #163, .T. ) ;
#36 = DIRECTION ( 'NONE',  ( 1.000000000000000000, 0.000000000000000000, 0.000000000000000000 ) ) ;
#37 = CARTESIAN_POINT ( 'NONE',  ( 0.000000000000000000, 0.000000000000000000, 0.000000000000000000 ) ) ;
#38 = EDGE_CURVE ( 'NONE', #160, #42, #27, .T. ) ;
#39 = EDGE_LOOP ( 'NONE', ( #313, #92 ) ) ;
#40 = CARTESIAN_POINT ( 'NONE',  ( -2.600000000000000089, 0.000000000000000000, 705.0000000000000000 ) ) ;
#41 = VECTOR ( 'NONE', #326, 1000.000000000000000 ) ;
#42 = VERTEX_POINT ( 'NONE', #283 ) ;
#43 = DIRECTION ( 'NONE',  ( 0.000000000000000000, 0.000000000000000000, 1.000000000000000000 ) ) ;
#44 = PRODUCT ( 'c0b8', 'c0b8', '', ( #128 ) ) ;
#45 = DIRECTION ( 'NONE',  ( -1.000000000000000000, 1.224646799147351482E-16, 0.000000000000000000 ) ) ;
#46 = CIRCLE ( 'NONE', #192, 4.000000000000000000 ) ;
#47 = PERSON_AND_ORGANIZATION ( #314, #329 ) ;
#48 = DIRECTION ( 'NONE',  ( 0.000000000000000000, 0.000000000000000000, 1.000000000000000000 ) ) ;
#49 = ADVANCED_FACE ( 'NONE', ( #188 ), #166, .F. ) ;
#50 = ORIENTED_EDGE ( 'NONE', *, *, #245, .F. ) ;
#51 = CALENDAR_DATE ( 2022, 8, 7 ) ;
#52 = DIRECTION ( 'NONE',  ( -0.000000000000000000, -0.000000000000000000, -1.000000000000000000 ) ) ;
#53 = CIRCLE ( 'NONE', #316, 7.000000000000000000 ) ;
#54 = CARTESIAN_POINT ( 'NONE',  ( 0.000000000000000000, 0.000000000000000000, 705.0000000000000000 ) ) ;
#55 = COORDINATED_UNIVERSAL_TIME_OFFSET ( 1, 0, .AHEAD. ) ;
#56 = CARTESIAN_POINT ( 'NONE',  ( 0.000000000000000000, 0.000000000000000000, 0.000000000000000000 ) ) ;
#57 = EDGE_CURVE ( 'NONE', #120, #267, #53, .T. ) ;
#58 = DIRECTION ( 'NONE',  ( 0.000000000000000000, 0.000000000000000000, 1.000000000000000000 ) ) ;
#59 = FACE_BOUND ( 'NONE', #207, .T. ) ;
#60 = EDGE_CURVE ( 'NONE', #42, #254, #9, .T. ) ;
#61 = LINE ( 'NONE', #97, #221 ) ;
#62 = CARTESIAN_POINT ( 'NONE',  ( 0.000000000000000000, 0.000000000000000000, 5.000000000000000000 ) ) ;
#63 = CARTESIAN_POINT ( 'NONE',  ( -7.000000000000000000, 0.000000000000000000, 5.000000000000000000 ) ) ;
#64 = CC_DESIGN_APPROVAL ( #281, ( #249 ) ) ;
#65 = CARTESIAN_POINT ( 'NONE',  ( 0.000000000000000000, 0.000000000000000000, 705.0000000000000000 ) ) ;
#66 = VERTEX_POINT ( 'NONE', #195 ) ;
#67 = DIRECTION ( 'NONE',  ( 1.000000000000000000, 0.000000000000000000, 0.000000000000000000 ) ) ;
#68 = CARTESIAN_POINT ( 'NONE',  ( -4.000000000000000000, 0.000000000000000000, 705.0000000000000000 ) ) ;
#69 = DIRECTION ( 'NONE',  ( 1.000000000000000000, 0.000000000000000000, 0.000000000000000000 ) ) ;
#70 = ORIENTED_EDGE ( 'NONE', *, *, #88, .T. ) ;
#71 = DATE_AND_TIME ( #338, #77 ) ;
#72 = CARTESIAN_POINT ( 'NONE',  ( -4.500000000000000888, 5.510910596163089556E-16, 5.499999999999949374 ) ) ;
#73 =( NAMED_UNIT ( * ) PLANE_ANGLE_UNIT ( ) SI_UNIT ( $, .RADIAN. ) );
#74 = CC_DESIGN_DATE_AND_TIME_ASSIGNMENT ( #107, #230, ( #345 ) ) ;
#75 = PERSON_AND_ORGANIZATION ( #314, #329 ) ;
#76 = PERSON_AND_ORGANIZATION ( #314, #329 ) ;
#77 = LOCAL_TIME ( 17, 7, 19.00000000000000000, #215 ) ;
#78 = ORIENTED_EDGE ( 'NONE', *, *, #257, .F. ) ;
#79 = CARTESIAN_POINT ( 'NONE',  ( 4.500000000000000888, 0.000000000000000000, 5.499999999999949374 ) ) ;
#80 = DIRECTION ( 'NONE',  ( 0.000000000000000000, 0.000000000000000000, -1.000000000000000000 ) ) ;
#81 = CIRCLE ( 'NONE', #157, 2.600000000000000089 ) ;
#82 = DIRECTION ( 'NONE',  ( -0.000000000000000000, -0.000000000000000000, -1.000000000000000000 ) ) ;
#83 = EDGE_CURVE ( 'NONE', #6, #335, #181, .T. ) ;
#84 = ORIENTED_EDGE ( 'NONE', *, *, #197, .T. ) ;
#85 = PERSON_AND_ORGANIZATION ( #314, #329 ) ;
#86 = DIRECTION ( 'NONE',  ( -1.000000000000000000, 0.000000000000000000, 0.000000000000000000 ) ) ;
#87 = CIRCLE ( 'NONE', #351, 2.600000000000000089 ) ;
#88 = EDGE_CURVE ( 'NONE', #98, #160, #201, .T. ) ;
#89 = DIRECTION ( 'NONE',  ( 1.000000000000000000, 0.000000000000000000, -0.000000000000000000 ) ) ;
#90 = CARTESIAN_POINT ( 'NONE',  ( 0.000000000000000000, 0.000000000000000000, 705.0000000000000000 ) ) ;
#91 = CARTESIAN_POINT ( 'NONE',  ( 7.000000000000000000, 8.572527594031473190E-16, 0.000000000000000000 ) ) ;
#92 = ORIENTED_EDGE ( 'NONE', *, *, #185, .F. ) ;
#93 = DIRECTION ( 'NONE',  ( -1.000000000000000000, 0.000000000000000000, 0.000000000000000000 ) ) ;
#94 = AXIS2_PLACEMENT_3D ( 'NONE', #224, #22, #347 ) ;
#95 = CARTESIAN_POINT ( 'NONE',  ( 4.000000000000000000, 4.898587196589412829E-16, 5.499999999999949374 ) ) ;
#96 = CC_DESIGN_DATE_AND_TIME_ASSIGNMENT ( #71, #306, ( #249 ) ) ;
#97 = CARTESIAN_POINT ( 'NONE',  ( -7.000000000000000000, 0.000000000000000000, 5.000000000000000000 ) ) ;
#98 = VERTEX_POINT ( 'NONE', #317 ) ;
#99 = PERSON_AND_ORGANIZATION_ROLE ( 'creator' ) ;
#100 = CALENDAR_DATE ( 2022, 8, 7 ) ;
#101 = EDGE_CURVE ( 'NONE', #190, #66, #200, .T. ) ;
#102 = AXIS2_PLACEMENT_3D ( 'NONE', #273, #113, #216 ) ;
#103 = EDGE_LOOP ( 'NONE', ( #353, #332 ) ) ;
#104 = ORIENTED_EDGE ( 'NONE', *, *, #31, .F. ) ;
#105 = AXIS2_PLACEMENT_3D ( 'NONE', #62, #266, #296 ) ;
#106 = DIRECTION ( 'NONE',  ( 0.000000000000000000, -1.000000000000000000, 0.000000000000000000 ) ) ;
#107 = DATE_AND_TIME ( #260, #358 ) ;
#108 = ORIENTED_EDGE ( 'NONE', *, *, #374, .F. ) ;
#109 = CARTESIAN_POINT ( 'NONE',  ( 7.000000000000000000, 8.572527594031473190E-16, 5.000000000000000000 ) ) ;
#110 = AXIS2_PLACEMENT_3D ( 'NONE', #14, #43, #158 ) ;
#111 = ORIENTED_EDGE ( 'NONE', *, *, #223, .F. ) ;
#112 = PERSON_AND_ORGANIZATION_ROLE ( 'creator' ) ;
#113 = DIRECTION ( 'NONE',  ( 0.000000000000000000, 0.000000000000000000, 1.000000000000000000 ) ) ;
#114 = FACE_OUTER_BOUND ( 'NONE', #286, .T. ) ;
#115 = CLOSED_SHELL ( 'NONE', ( #361, #148, #28, #165, #219, #136, #321, #127, #211, #370, #49 ) ) ;
#116 = AXIS2_PLACEMENT_3D ( 'NONE', #302, #309, #278 ) ;
#117 = CARTESIAN_POINT ( 'NONE',  ( 4.000000000000000000, 4.898587196589412829E-16, 705.0000000000000000 ) ) ;
#118 = CARTESIAN_POINT ( 'NONE',  ( -2.600000000000000089, 0.000000000000000000, 705.0000000000000000 ) ) ;
#119 = FACE_OUTER_BOUND ( 'NONE', #291, .T. ) ;
#120 = VERTEX_POINT ( 'NONE', #152 ) ;
#121 = PLANE ( 'NONE',  #232 ) ;
#122 = EDGE_CURVE ( 'NONE', #335, #6, #87, .T. ) ;
#123 = PLANE ( 'NONE',  #259 ) ;
#124 = AXIS2_PLACEMENT_3D ( 'NONE', #54, #288, #381 ) ;
#125 = VERTEX_POINT ( 'NONE', #33 ) ;
#126 = CARTESIAN_POINT ( 'NONE',  ( 0.000000000000000000, 0.000000000000000000, 5.000000000000000000 ) ) ;
#127 = ADVANCED_FACE ( 'NONE', ( #199 ), #263, .T. ) ;
#128 = MECHANICAL_CONTEXT ( 'NONE', #293, 'mechanical' ) ;
#129 = AXIS2_PLACEMENT_3D ( 'NONE', #79, #106, #80 ) ;
#130 = CC_DESIGN_APPROVAL ( #330, ( #345 ) ) ;
#131 = ORIENTED_EDGE ( 'NONE', *, *, #88, .F. ) ;
#132 = ORIENTED_EDGE ( 'NONE', *, *, #101, .T. ) ;
#133 = CIRCLE ( 'NONE', #102, 2.600000000000000089 ) ;
#134 = PRODUCT_DEFINITION_FORMATION_WITH_SPECIFIED_SOURCE ( 'LIBOVOLNÝ', '', #44, .NOT_KNOWN. ) ;
#135 = DIRECTION ( 'NONE',  ( 1.000000000000000000, 0.000000000000000000, 0.000000000000000000 ) ) ;
#136 = ADVANCED_FACE ( 'NONE', ( #231, #114 ), #123, .T. ) ;
#137 = ORIENTED_EDGE ( 'NONE', *, *, #229, .F. ) ;
#138 = CARTESIAN_POINT ( 'NONE',  ( 0.000000000000000000, 0.000000000000000000, 5.499999999999949374 ) ) ;
#139 = PERSON_AND_ORGANIZATION ( #314, #329 ) ;
#140 = DIRECTION ( 'NONE',  ( -1.000000000000000000, 0.000000000000000000, 0.000000000000000000 ) ) ;
#141 = DIRECTION ( 'NONE',  ( 1.000000000000000000, 0.000000000000000000, -0.000000000000000000 ) ) ;
#142 = LINE ( 'NONE', #328, #274 ) ;
#143 = AXIS2_PLACEMENT_3D ( 'NONE', #56, #52, #135 ) ;
#144 = CARTESIAN_POINT ( 'NONE',  ( 0.000000000000000000, 0.000000000000000000, 705.0000000000000000 ) ) ;
#145 = LOCAL_TIME ( 17, 7, 19.00000000000000000, #198 ) ;
#146 = CYLINDRICAL_SURFACE ( 'NONE', #105, 7.000000000000000000 ) ;
#147 = ORIENTED_EDGE ( 'NONE', *, *, #15, .F. ) ;
#148 = ADVANCED_FACE ( 'NONE', ( #175 ), #369, .F. ) ;
#149 = FACE_OUTER_BOUND ( 'NONE', #196, .T. ) ;
#150 = CARTESIAN_POINT ( 'NONE',  ( 0.000000000000000000, 0.000000000000000000, 0.000000000000000000 ) ) ;
#151 = CARTESIAN_POINT ( 'NONE',  ( 0.000000000000000000, 0.000000000000000000, 5.499999999999949374 ) ) ;
#152 = CARTESIAN_POINT ( 'NONE',  ( 7.000000000000000000, 8.572527594031473190E-16, 5.000000000000000000 ) ) ;
#153 = VECTOR ( 'NONE', #82, 1000.000000000000000 ) ;
#154 = CIRCLE ( 'NONE', #297, 4.000000000000000000 ) ;
#155 = EDGE_LOOP ( 'NONE', ( #78, #258, #10, #352 ) ) ;
#156 = PERSON_AND_ORGANIZATION ( #314, #329 ) ;
#157 = AXIS2_PLACEMENT_3D ( 'NONE', #362, #210, #334 ) ;
#158 = DIRECTION ( 'NONE',  ( 1.000000000000000000, 0.000000000000000000, 0.000000000000000000 ) ) ;
#159 = CC_DESIGN_PERSON_AND_ORGANIZATION_ASSIGNMENT ( #76, #280, ( #44 ) ) ;
#160 = VERTEX_POINT ( 'NONE', #95 ) ;
#161 = DATE_AND_TIME ( #312, #2 ) ;
#162 = VERTEX_POINT ( 'NONE', #117 ) ;
#163 = EDGE_LOOP ( 'NONE', ( #147, #187 ) ) ;
#164 = APPROVAL_PERSON_ORGANIZATION ( #47, #281, #368 ) ;
#165 = ADVANCED_FACE ( 'NONE', ( #119 ), #146, .T. ) ;
#166 = CYLINDRICAL_SURFACE ( 'NONE', #124, 2.600000000000000089 ) ;
#167 = APPROVAL_ROLE ( '' ) ;
#168 = DIRECTION ( 'NONE',  ( 1.000000000000000000, 0.000000000000000000, 0.000000000000000000 ) ) ;
#169 = DIRECTION ( 'NONE',  ( -0.000000000000000000, -0.000000000000000000, -1.000000000000000000 ) ) ;
#170 = DESIGN_CONTEXT ( 'detailed design', #311, 'design' ) ;
#171 = DIRECTION ( 'NONE',  ( -0.000000000000000000, -0.000000000000000000, -1.000000000000000000 ) ) ;
#172 = EDGE_CURVE ( 'NONE', #270, #125, #81, .T. ) ;
#173 = AXIS2_PLACEMENT_3D ( 'NONE', #151, #48, #180 ) ;
#174 = FACE_BOUND ( 'NONE', #39, .T. ) ;
#175 = FACE_OUTER_BOUND ( 'NONE', #212, .T. ) ;
#176 = VERTEX_POINT ( 'NONE', #68 ) ;
#177 = EDGE_LOOP ( 'NONE', ( #104, #226, #179, #247 ) ) ;
#178 = DIRECTION ( 'NONE',  ( -0.000000000000000000, -0.000000000000000000, -1.000000000000000000 ) ) ;
#179 = ORIENTED_EDGE ( 'NONE', *, *, #223, .T. ) ;
#180 = DIRECTION ( 'NONE',  ( 1.000000000000000000, 0.000000000000000000, 0.000000000000000000 ) ) ;
#181 = CIRCLE ( 'NONE', #143, 2.600000000000000089 ) ;
#182 = APPROVAL_PERSON_ORGANIZATION ( #377, #330, #167 ) ;
#183 = ADVANCED_BREP_SHAPE_REPRESENTATION ( 'c0b8', ( #25, #110 ), #372 ) ;
#184 =( LENGTH_UNIT ( ) NAMED_UNIT ( * ) SI_UNIT ( .MILLI., .METRE. ) );
#185 = EDGE_CURVE ( 'NONE', #125, #270, #133, .T. ) ;
#186 = AXIS2_PLACEMENT_3D ( 'NONE', #126, #203, #299 ) ;
#187 = ORIENTED_EDGE ( 'NONE', *, *, #101, .F. ) ;
#188 = FACE_OUTER_BOUND ( 'NONE', #349, .T. ) ;
#189 = EDGE_CURVE ( 'NONE', #98, #254, #264, .T. ) ;
#190 = VERTEX_POINT ( 'NONE', #91 ) ;
#191 = DIRECTION ( 'NONE',  ( 0.000000000000000000, 0.000000000000000000, 1.000000000000000000 ) ) ;
#192 = AXIS2_PLACEMENT_3D ( 'NONE', #295, #206, #67 ) ;
#193 = APPROVAL_PERSON_ORGANIZATION ( #156, #342, #13 ) ;
#194 = SECURITY_CLASSIFICATION_LEVEL ( 'unclassified' ) ;
#195 = CARTESIAN_POINT ( 'NONE',  ( -7.000000000000000000, 0.000000000000000000, 0.000000000000000000 ) ) ;
#196 = EDGE_LOOP ( 'NONE', ( #228, #214 ) ) ;
#197 = EDGE_CURVE ( 'NONE', #176, #98, #268, .T. ) ;
#198 = COORDINATED_UNIVERSAL_TIME_OFFSET ( 1, 0, .AHEAD. ) ;
#199 = FACE_OUTER_BOUND ( 'NONE', #376, .T. ) ;
#200 = CIRCLE ( 'NONE', #344, 7.000000000000000000 ) ;
#201 = CIRCLE ( 'NONE', #218, 4.000000000000000000 ) ;
#202 = DIRECTION ( 'NONE',  ( -0.000000000000000000, -0.000000000000000000, -1.000000000000000000 ) ) ;
#203 = DIRECTION ( 'NONE',  ( 0.000000000000000000, 0.000000000000000000, 1.000000000000000000 ) ) ;
#204 = CC_DESIGN_PERSON_AND_ORGANIZATION_ASSIGNMENT ( #355, #287, ( #345 ) ) ;
#205 = CARTESIAN_POINT ( 'NONE',  ( 0.000000000000000000, 0.000000000000000000, 5.000000000000000000 ) ) ;
#206 = DIRECTION ( 'NONE',  ( 0.000000000000000000, 0.000000000000000000, 1.000000000000000000 ) ) ;
#207 = EDGE_LOOP ( 'NONE', ( #341, #305 ) ) ;
#208 = AXIS2_PLACEMENT_3D ( 'NONE', #235, #327, #365 ) ;
#209 = DIRECTION ( 'NONE',  ( -1.000000000000000000, 0.000000000000000000, 0.000000000000000000 ) ) ;
#210 = DIRECTION ( 'NONE',  ( 0.000000000000000000, 0.000000000000000000, 1.000000000000000000 ) ) ;
#211 = ADVANCED_FACE ( 'NONE', ( #174, #149 ), #356, .T. ) ;
#212 = EDGE_LOOP ( 'NONE', ( #131, #29, #248, #371 ) ) ;
#213 = DIRECTION ( 'NONE',  ( -0.000000000000000000, -0.000000000000000000, -1.000000000000000000 ) ) ;
#214 = ORIENTED_EDGE ( 'NONE', *, *, #257, .T. ) ;
#215 = COORDINATED_UNIVERSAL_TIME_OFFSET ( 1, 0, .AHEAD. ) ;
#216 = DIRECTION ( 'NONE',  ( 1.000000000000000000, 0.000000000000000000, 0.000000000000000000 ) ) ;
#217 = APPROVAL_STATUS ( 'not_yet_approved' ) ;
#218 = AXIS2_PLACEMENT_3D ( 'NONE', #138, #191, #168 ) ;
#219 = ADVANCED_FACE ( 'NONE', ( #367 ), #234, .T. ) ;
#220 = AXIS2_PLACEMENT_3D ( 'NONE', #222, #58, #255 ) ;
#221 = VECTOR ( 'NONE', #213, 1000.000000000000000 ) ;
#222 = CARTESIAN_POINT ( 'NONE',  ( 0.000000000000000000, 0.000000000000000000, 0.000000000000000000 ) ) ;
#223 = EDGE_CURVE ( 'NONE', #267, #66, #61, .T. ) ;
#224 = CARTESIAN_POINT ( 'NONE',  ( 0.000000000000000000, 0.000000000000000000, 5.000000000000000000 ) ) ;
#225 = FACE_OUTER_BOUND ( 'NONE', #155, .T. ) ;
#226 = ORIENTED_EDGE ( 'NONE', *, *, #307, .F. ) ;
#227 = CIRCLE ( 'NONE', #186, 7.000000000000000000 ) ;
#228 = ORIENTED_EDGE ( 'NONE', *, *, #233, .T. ) ;
#229 = EDGE_CURVE ( 'NONE', #254, #42, #378, .T. ) ;
#230 = DATE_TIME_ROLE ( 'classification_date' ) ;
#231 = FACE_BOUND ( 'NONE', #103, .T. ) ;
#232 = AXIS2_PLACEMENT_3D ( 'NONE', #37, #11, #304 ) ;
#233 = EDGE_CURVE ( 'NONE', #176, #162, #46, .T. ) ;
#234 = CYLINDRICAL_SURFACE ( 'NONE', #357, 7.000000000000000000 ) ;
#235 = CARTESIAN_POINT ( 'NONE',  ( 0.000000000000000000, 0.000000000000000000, 5.499999999999949374 ) ) ;
#236 = CARTESIAN_POINT ( 'NONE',  ( -4.000000000000000000, 0.000000000000000000, 705.0000000000000000 ) ) ;
#237 = ORIENTED_EDGE ( 'NONE', *, *, #301, .T. ) ;
#238 = CYLINDRICAL_SURFACE ( 'NONE', #284, 2.600000000000000089 ) ;
#239 = ORIENTED_EDGE ( 'NONE', *, *, #354, .T. ) ;
#240 = VECTOR ( 'NONE', #30, 1000.000000000000000 ) ;
#241 = ORIENTED_EDGE ( 'NONE', *, *, #301, .F. ) ;
#242 = COORDINATED_UNIVERSAL_TIME_OFFSET ( 1, 0, .AHEAD. ) ;
#243 = APPROVAL_STATUS ( 'not_yet_approved' ) ;
#244 = AXIS2_PLACEMENT_3D ( 'NONE', #65, #171, #86 ) ;
#245 = EDGE_CURVE ( 'NONE', #162, #160, #294, .T. ) ;
#246 = DIRECTION ( 'NONE',  ( 1.224646799147353207E-16, 1.000000000000000000, -0.000000000000000000 ) ) ;
#247 = ORIENTED_EDGE ( 'NONE', *, *, #15, .T. ) ;
#248 = ORIENTED_EDGE ( 'NONE', *, *, #60, .F. ) ;
#249 = PRODUCT_DEFINITION ( 'NEZNÁMÝ', '', #134, #170 ) ;
#250 = AXIS2_PLACEMENT_3D ( 'NONE', #346, #169, #140 ) ;
#251 = LOCAL_TIME ( 17, 7, 19.00000000000000000, #242 ) ;
#252 = CARTESIAN_POINT ( 'NONE',  ( 0.000000000000000000, 0.000000000000000000, 5.000000000000000000 ) ) ;
#253 = DATE_AND_TIME ( #51, #145 ) ;
#254 = VERTEX_POINT ( 'NONE', #359 ) ;
#255 = DIRECTION ( 'NONE',  ( 1.000000000000000000, 0.000000000000000000, 0.000000000000000000 ) ) ;
#256 = PERSON_AND_ORGANIZATION_ROLE ( 'design_supplier' ) ;
#257 = EDGE_CURVE ( 'NONE', #162, #176, #154, .T. ) ;
#258 = ORIENTED_EDGE ( 'NONE', *, *, #245, .T. ) ;
#259 = AXIS2_PLACEMENT_3D ( 'NONE', #205, #325, #141 ) ;
#260 = CALENDAR_DATE ( 2022, 8, 7 ) ;
#261 = LINE ( 'NONE', #109, #153 ) ;
#262 = FACE_OUTER_BOUND ( 'NONE', #315, .T. ) ;
#263 = CYLINDRICAL_SURFACE ( 'NONE', #244, 4.000000000000000000 ) ;
#264 = CIRCLE ( 'NONE', #292, 0.5000000000000004441 ) ;
#265 = DIRECTION ( 'NONE',  ( 0.000000000000000000, 0.000000000000000000, 1.000000000000000000 ) ) ;
#266 = DIRECTION ( 'NONE',  ( -0.000000000000000000, -0.000000000000000000, -1.000000000000000000 ) ) ;
#267 = VERTEX_POINT ( 'NONE', #63 ) ;
#268 = LINE ( 'NONE', #236, #41 ) ;
#269 = DIRECTION ( 'NONE',  ( -0.000000000000000000, -0.000000000000000000, -1.000000000000000000 ) ) ;
#270 = VERTEX_POINT ( 'NONE', #118 ) ;
#271 = LINE ( 'NONE', #40, #240 ) ;
#272 = PRODUCT_RELATED_PRODUCT_CATEGORY ( 'detail', '', ( #44 ) ) ;
#273 = CARTESIAN_POINT ( 'NONE',  ( 0.000000000000000000, 0.000000000000000000, 705.0000000000000000 ) ) ;
#274 = VECTOR ( 'NONE', #360, 1000.000000000000000 ) ;
#275 = CARTESIAN_POINT ( 'NONE',  ( 0.000000000000000000, 0.000000000000000000, 5.000000000000000000 ) ) ;
#276 = ORIENTED_EDGE ( 'NONE', *, *, #122, .T. ) ;
#277 = CC_DESIGN_PERSON_AND_ORGANIZATION_ASSIGNMENT ( #139, #256, ( #134 ) ) ;
#278 = DIRECTION ( 'NONE',  ( 1.000000000000000000, 0.000000000000000000, 0.000000000000000000 ) ) ;
#279 = CIRCLE ( 'NONE', #116, 4.000000000000000000 ) ;
#280 = PERSON_AND_ORGANIZATION_ROLE ( 'design_owner' ) ;
#281 = APPROVAL ( #243, 'NEURÈENÝ' ) ;
#282 = ORIENTED_EDGE ( 'NONE', *, *, #233, .F. ) ;
#283 = CARTESIAN_POINT ( 'NONE',  ( 4.500000000000000888, 0.000000000000000000, 4.999999999999975131 ) ) ;
#284 = AXIS2_PLACEMENT_3D ( 'NONE', #1, #364, #93 ) ;
#285 = CC_DESIGN_SECURITY_CLASSIFICATION ( #345, ( #134 ) ) ;
#286 = EDGE_LOOP ( 'NONE', ( #300, #318 ) ) ;
#287 = PERSON_AND_ORGANIZATION_ROLE ( 'classification_officer' ) ;
#288 = DIRECTION ( 'NONE',  ( 0.000000000000000000, 0.000000000000000000, -1.000000000000000000 ) ) ;
#289 = DATE_AND_TIME ( #100, #251 ) ;
#290 = CARTESIAN_POINT ( 'NONE',  ( 0.000000000000000000, 0.000000000000000000, 0.000000000000000000 ) ) ;
#291 = EDGE_LOOP ( 'NONE', ( #379, #12, #132, #111 ) ) ;
#292 = AXIS2_PLACEMENT_3D ( 'NONE', #72, #246, #45 ) ;
#293 = APPLICATION_CONTEXT ( 'configuration controlled 3d designs of mechanical parts and assemblies' ) ;
#294 = LINE ( 'NONE', #32, #21 ) ;
#295 = CARTESIAN_POINT ( 'NONE',  ( 0.000000000000000000, 0.000000000000000000, 705.0000000000000000 ) ) ;
#296 = DIRECTION ( 'NONE',  ( -1.000000000000000000, 0.000000000000000000, 0.000000000000000000 ) ) ;
#297 = AXIS2_PLACEMENT_3D ( 'NONE', #90, #265, #324 ) ;
#298 = ORIENTED_EDGE ( 'NONE', *, *, #185, .T. ) ;
#299 = DIRECTION ( 'NONE',  ( 1.000000000000000000, 0.000000000000000000, 0.000000000000000000 ) ) ;
#300 = ORIENTED_EDGE ( 'NONE', *, *, #307, .T. ) ;
#301 = EDGE_CURVE ( 'NONE', #125, #6, #142, .T. ) ;
#302 = CARTESIAN_POINT ( 'NONE',  ( 0.000000000000000000, 0.000000000000000000, 5.499999999999949374 ) ) ;
#303 = DIRECTION ( 'NONE',  ( 0.000000000000000000, 0.000000000000000000, 1.000000000000000000 ) ) ;
#304 = DIRECTION ( 'NONE',  ( 1.000000000000000000, 0.000000000000000000, -0.000000000000000000 ) ) ;
#305 = ORIENTED_EDGE ( 'NONE', *, *, #83, .F. ) ;
#306 = DATE_TIME_ROLE ( 'creation_date' ) ;
#307 = EDGE_CURVE ( 'NONE', #267, #120, #227, .T. ) ;
#308 = PRODUCT_DEFINITION_SHAPE ( 'NONE', 'NONE',  #249 ) ;
#309 = DIRECTION ( 'NONE',  ( 0.000000000000000000, 0.000000000000000000, 1.000000000000000000 ) ) ;
#310 = AXIS2_PLACEMENT_3D ( 'NONE', #144, #4, #89 ) ;
#311 = APPLICATION_CONTEXT ( 'configuration controlled 3d designs of mechanical parts and assemblies' ) ;
#312 = CALENDAR_DATE ( 2022, 8, 7 ) ;
#313 = ORIENTED_EDGE ( 'NONE', *, *, #172, .F. ) ;
#314 = PERSON ( 'NEURÈENÝ', 'NEURÈENÝ', 'NEURÈENÝ', ('NEURÈENÝ'), ('NEURÈENÝ'), ('NEURÈENÝ') ) ;
#315 = EDGE_LOOP ( 'NONE', ( #375, #237, #319, #337 ) ) ;
#316 = AXIS2_PLACEMENT_3D ( 'NONE', #252, #19, #373 ) ;
#317 = CARTESIAN_POINT ( 'NONE',  ( -4.000000000000000000, 0.000000000000000000, 5.499999999999949374 ) ) ;
#318 = ORIENTED_EDGE ( 'NONE', *, *, #57, .T. ) ;
#319 = ORIENTED_EDGE ( 'NONE', *, *, #83, .T. ) ;
#320 = APPROVAL_DATE_TIME ( #253, #330 ) ;
#321 = ADVANCED_FACE ( 'NONE', ( #59, #35 ), #121, .F. ) ;
#322 = TOROIDAL_SURFACE ( 'NONE', #173, 4.500000000000000888, 0.5000000000000000000 ) ;
#323 = UNCERTAINTY_MEASURE_WITH_UNIT (LENGTH_MEASURE( 1.000000000000000082E-05 ), #184, 'distance_accuracy_value', 'NONE');
#324 = DIRECTION ( 'NONE',  ( 1.000000000000000000, 0.000000000000000000, 0.000000000000000000 ) ) ;
#325 = DIRECTION ( 'NONE',  ( 0.000000000000000000, 0.000000000000000000, 1.000000000000000000 ) ) ;
#326 = DIRECTION ( 'NONE',  ( -0.000000000000000000, -0.000000000000000000, -1.000000000000000000 ) ) ;
#327 = DIRECTION ( 'NONE',  ( 0.000000000000000000, 0.000000000000000000, 1.000000000000000000 ) ) ;
#328 = CARTESIAN_POINT ( 'NONE',  ( 2.600000000000000089, 3.184081677783118191E-16, 705.0000000000000000 ) ) ;
#329 = ORGANIZATION ( 'NEURÈENÝ', 'NEURÈENÝ', '' ) ;
#330 = APPROVAL ( #350, 'NEURÈENÝ' ) ;
#331 = CC_DESIGN_APPROVAL ( #342, ( #134 ) ) ;
#332 = ORIENTED_EDGE ( 'NONE', *, *, #229, .T. ) ;
#333 = FACE_OUTER_BOUND ( 'NONE', #17, .T. ) ;
#334 = DIRECTION ( 'NONE',  ( 1.000000000000000000, 0.000000000000000000, 0.000000000000000000 ) ) ;
#335 = VERTEX_POINT ( 'NONE', #7 ) ;
#336 = CARTESIAN_POINT ( 'NONE',  ( 0.000000000000000000, 0.000000000000000000, 5.000000000000000000 ) ) ;
#337 = ORIENTED_EDGE ( 'NONE', *, *, #354, .F. ) ;
#338 = CALENDAR_DATE ( 2022, 8, 7 ) ;
#339 = APPROVAL_DATE_TIME ( #161, #281 ) ;
#340 = APPLICATION_PROTOCOL_DEFINITION ( 'international standard', 'config_control_design', 1994, #293 ) ;
#341 = ORIENTED_EDGE ( 'NONE', *, *, #122, .F. ) ;
#342 = APPROVAL ( #217, 'NEURÈENÝ' ) ;
#343 =( NAMED_UNIT ( * ) SI_UNIT ( $, .STERADIAN. ) SOLID_ANGLE_UNIT ( ) );
#344 = AXIS2_PLACEMENT_3D ( 'NONE', #290, #303, #36 ) ;
#345 = SECURITY_CLASSIFICATION ( '', '', #194 ) ;
#346 = CARTESIAN_POINT ( 'NONE',  ( 0.000000000000000000, 0.000000000000000000, 705.0000000000000000 ) ) ;
#347 = DIRECTION ( 'NONE',  ( 1.000000000000000000, 0.000000000000000000, 0.000000000000000000 ) ) ;
#348 = CC_DESIGN_PERSON_AND_ORGANIZATION_ASSIGNMENT ( #75, #99, ( #249 ) ) ;
#349 = EDGE_LOOP ( 'NONE', ( #241, #298, #239, #276 ) ) ;
#350 = APPROVAL_STATUS ( 'not_yet_approved' ) ;
#351 = AXIS2_PLACEMENT_3D ( 'NONE', #150, #269, #3 ) ;
#352 = ORIENTED_EDGE ( 'NONE', *, *, #197, .F. ) ;
#353 = ORIENTED_EDGE ( 'NONE', *, *, #60, .T. ) ;
#354 = EDGE_CURVE ( 'NONE', #270, #335, #271, .T. ) ;
#355 = PERSON_AND_ORGANIZATION ( #314, #329 ) ;
#356 = PLANE ( 'NONE',  #310 ) ;
#357 = AXIS2_PLACEMENT_3D ( 'NONE', #275, #5, #209 ) ;
#358 = LOCAL_TIME ( 17, 7, 19.00000000000000000, #55 ) ;
#359 = CARTESIAN_POINT ( 'NONE',  ( -4.500000000000000888, 5.510910596163088569E-16, 4.999999999999975131 ) ) ;
#360 = DIRECTION ( 'NONE',  ( 0.000000000000000000, 0.000000000000000000, -1.000000000000000000 ) ) ;
#361 = ADVANCED_FACE ( 'NONE', ( #262 ), #238, .F. ) ;
#362 = CARTESIAN_POINT ( 'NONE',  ( 0.000000000000000000, 0.000000000000000000, 705.0000000000000000 ) ) ;
#363 = ORIENTED_EDGE ( 'NONE', *, *, #189, .F. ) ;
#364 = DIRECTION ( 'NONE',  ( 0.000000000000000000, 0.000000000000000000, -1.000000000000000000 ) ) ;
#365 = DIRECTION ( 'NONE',  ( 1.000000000000000000, 0.000000000000000000, 0.000000000000000000 ) ) ;
#366 = AXIS2_PLACEMENT_3D ( 'NONE', #336, #202, #69 ) ;
#367 = FACE_OUTER_BOUND ( 'NONE', #177, .T. ) ;
#368 = APPROVAL_ROLE ( '' ) ;
#369 = TOROIDAL_SURFACE ( 'NONE', #208, 4.500000000000000888, 0.5000000000000000000 ) ;
#370 = ADVANCED_FACE ( 'NONE', ( #333 ), #322, .F. ) ;
#371 = ORIENTED_EDGE ( 'NONE', *, *, #38, .F. ) ;
#372 =( GEOMETRIC_REPRESENTATION_CONTEXT ( 3 ) GLOBAL_UNCERTAINTY_ASSIGNED_CONTEXT ( ( #323 ) ) GLOBAL_UNIT_ASSIGNED_CONTEXT ( ( #184, #73, #343 ) ) REPRESENTATION_CONTEXT ( 'NONE', 'WORKASPACE' ) );
#373 = DIRECTION ( 'NONE',  ( 1.000000000000000000, 0.000000000000000000, 0.000000000000000000 ) ) ;
#374 = EDGE_CURVE ( 'NONE', #160, #98, #279, .T. ) ;
#375 = ORIENTED_EDGE ( 'NONE', *, *, #172, .T. ) ;
#376 = EDGE_LOOP ( 'NONE', ( #50, #282, #84, #70 ) ) ;
#377 = PERSON_AND_ORGANIZATION ( #314, #329 ) ;
#378 = CIRCLE ( 'NONE', #366, 4.500000000000000888 ) ;
#379 = ORIENTED_EDGE ( 'NONE', *, *, #57, .F. ) ;
#380 = APPROVAL_DATE_TIME ( #289, #342 ) ;
#381 = DIRECTION ( 'NONE',  ( -1.000000000000000000, 0.000000000000000000, 0.000000000000000000 ) ) ;
ENDSEC;
END-ISO-10303-21;
