ISO-10303-21;
HEADER;
FILE_DESCRIPTION (( 'STEP AP203' ),
    '1' );
FILE_NAME ('7c1c.STEP',
    '2022-07-08T15:10:04',
    ( '' ),
    ( '' ),
    'SwSTEP 2.0',
    'SolidWorks 2019',
    '' );
FILE_SCHEMA (( 'CONFIG_CONTROL_DESIGN' ));
ENDSEC;

DATA;
#1 = CC_DESIGN_DATE_AND_TIME_ASSIGNMENT ( #121, #271, ( #245 ) ) ;
#2 = ORIENTED_EDGE ( 'NONE', *, *, #270, .F. ) ;
#3 = TOROIDAL_SURFACE ( 'NONE', #380, 4.500000000000000888, 0.5000000000000000000 ) ;
#4 = COORDINATED_UNIVERSAL_TIME_OFFSET ( 1, 0, .AHEAD. ) ;
#5 = UNCERTAINTY_MEASURE_WITH_UNIT (LENGTH_MEASURE( 1.000000000000000082E-05 ), #24, 'distance_accuracy_value', 'NONE');
#6 = EDGE_LOOP ( 'NONE', ( #70, #338, #258, #226 ) ) ;
#7 = ADVANCED_FACE ( 'NONE', ( #101 ), #223, .T. ) ;
#8 = VERTEX_POINT ( 'NONE', #221 ) ;
#9 = AXIS2_PLACEMENT_3D ( 'NONE', #162, #72, #314 ) ;
#10 = AXIS2_PLACEMENT_3D ( 'NONE', #108, #147, #352 ) ;
#11 = CARTESIAN_POINT ( 'NONE',  ( 0.000000000000000000, 0.000000000000000000, 5.000000000000000000 ) ) ;
#12 = APPLICATION_CONTEXT ( 'configuration controlled 3d designs of mechanical parts and assemblies' ) ;
#13 = CARTESIAN_POINT ( 'NONE',  ( 0.000000000000000000, 0.000000000000000000, 5.500000000000005329 ) ) ;
#14 = CARTESIAN_POINT ( 'NONE',  ( -4.500000000000000888, 5.510910596163088569E-16, 5.000000000000002665 ) ) ;
#15 = CARTESIAN_POINT ( 'NONE',  ( 0.000000000000000000, 0.000000000000000000, 5.000000000000000000 ) ) ;
#16 = DIRECTION ( 'NONE',  ( 1.000000000000000000, 0.000000000000000000, 0.000000000000000000 ) ) ;
#17 = AXIS2_PLACEMENT_3D ( 'NONE', #100, #135, #371 ) ;
#18 = CARTESIAN_POINT ( 'NONE',  ( 0.000000000000000000, 0.000000000000000000, 5.000000000000000000 ) ) ;
#19 = DIRECTION ( 'NONE',  ( 1.000000000000000000, 0.000000000000000000, 0.000000000000000000 ) ) ;
#20 = EDGE_LOOP ( 'NONE', ( #169, #274 ) ) ;
#21 = ADVANCED_FACE ( 'NONE', ( #345 ), #42, .T. ) ;
#22 = DIRECTION ( 'NONE',  ( 1.000000000000000000, 0.000000000000000000, -0.000000000000000000 ) ) ;
#23 = DIRECTION ( 'NONE',  ( -0.000000000000000000, -0.000000000000000000, -1.000000000000000000 ) ) ;
#24 =( LENGTH_UNIT ( ) NAMED_UNIT ( * ) SI_UNIT ( .MILLI., .METRE. ) );
#25 = AXIS2_PLACEMENT_3D ( 'NONE', #350, #269, #265 ) ;
#26 = APPROVAL_PERSON_ORGANIZATION ( #292, #351, #322 ) ;
#27 =( NAMED_UNIT ( * ) SI_UNIT ( $, .STERADIAN. ) SOLID_ANGLE_UNIT ( ) );
#28 = DIRECTION ( 'NONE',  ( 1.000000000000000000, 0.000000000000000000, 0.000000000000000000 ) ) ;
#29 = ADVANCED_FACE ( 'NONE', ( #171 ), #109, .T. ) ;
#30 = CALENDAR_DATE ( 2022, 8, 7 ) ;
#31 = DIRECTION ( 'NONE',  ( 0.000000000000000000, 0.000000000000000000, 1.000000000000000000 ) ) ;
#32 = DIRECTION ( 'NONE',  ( 1.000000000000000000, 0.000000000000000000, 0.000000000000000000 ) ) ;
#33 = AXIS2_PLACEMENT_3D ( 'NONE', #210, #146, #32 ) ;
#34 = ORIENTED_EDGE ( 'NONE', *, *, #106, .T. ) ;
#35 = EDGE_CURVE ( 'NONE', #91, #298, #73, .T. ) ;
#36 = ORIENTED_EDGE ( 'NONE', *, *, #363, .F. ) ;
#37 = ORIENTED_EDGE ( 'NONE', *, *, #120, .F. ) ;
#38 = LOCAL_TIME ( 17, 10, 4.000000000000000000, #4 ) ;
#39 = PERSON_AND_ORGANIZATION ( #185, #240 ) ;
#40 = VERTEX_POINT ( 'NONE', #166 ) ;
#41 = DIRECTION ( 'NONE',  ( 0.000000000000000000, 0.000000000000000000, 1.000000000000000000 ) ) ;
#42 = CYLINDRICAL_SURFACE ( 'NONE', #224, 4.000000000000000000 ) ;
#43 = CARTESIAN_POINT ( 'NONE',  ( -2.600000000000000089, 0.000000000000000000, 105.0000000000000142 ) ) ;
#44 = DIRECTION ( 'NONE',  ( -0.000000000000000000, -0.000000000000000000, -1.000000000000000000 ) ) ;
#45 = DIRECTION ( 'NONE',  ( 0.000000000000000000, 0.000000000000000000, 1.000000000000000000 ) ) ;
#46 = VERTEX_POINT ( 'NONE', #14 ) ;
#47 = CARTESIAN_POINT ( 'NONE',  ( 0.000000000000000000, 0.000000000000000000, 5.000000000000000000 ) ) ;
#48 = ORIENTED_EDGE ( 'NONE', *, *, #35, .F. ) ;
#49 = CARTESIAN_POINT ( 'NONE',  ( -7.000000000000000000, 0.000000000000000000, 0.000000000000000000 ) ) ;
#50 = AXIS2_PLACEMENT_3D ( 'NONE', #18, #105, #200 ) ;
#51 = ORIENTED_EDGE ( 'NONE', *, *, #270, .T. ) ;
#52 = EDGE_CURVE ( 'NONE', #144, #211, #316, .T. ) ;
#53 = PERSON_AND_ORGANIZATION_ROLE ( 'design_owner' ) ;
#54 = EDGE_CURVE ( 'NONE', #40, #302, #178, .T. ) ;
#55 = DIRECTION ( 'NONE',  ( 0.000000000000000000, 0.000000000000000000, 1.000000000000000000 ) ) ;
#56 = APPROVAL_DATE_TIME ( #116, #351 ) ;
#57 = DIRECTION ( 'NONE',  ( 1.000000000000000000, 0.000000000000000000, 0.000000000000000000 ) ) ;
#58 = CALENDAR_DATE ( 2022, 8, 7 ) ;
#59 = APPROVAL_PERSON_ORGANIZATION ( #39, #249, #156 ) ;
#60 = ADVANCED_FACE ( 'NONE', ( #315, #81 ), #138, .F. ) ;
#61 = PERSON_AND_ORGANIZATION ( #185, #240 ) ;
#62 = VERTEX_POINT ( 'NONE', #198 ) ;
#63 = ORIENTED_EDGE ( 'NONE', *, *, #99, .F. ) ;
#64 = APPROVAL_ROLE ( '' ) ;
#65 = APPROVAL ( #273, 'NEURÈENÝ' ) ;
#66 = ADVANCED_BREP_SHAPE_REPRESENTATION ( '7c1c', ( #155, #133 ), #291 ) ;
#67 = ORIENTED_EDGE ( 'NONE', *, *, #54, .F. ) ;
#68 = CIRCLE ( 'NONE', #288, 2.600000000000000089 ) ;
#69 = LOCAL_TIME ( 17, 10, 4.000000000000000000, #266 ) ;
#70 = ORIENTED_EDGE ( 'NONE', *, *, #134, .F. ) ;
#71 = DIRECTION ( 'NONE',  ( 0.000000000000000000, 0.000000000000000000, 1.000000000000000000 ) ) ;
#72 = DIRECTION ( 'NONE',  ( 1.224646799147353207E-16, 1.000000000000000000, -0.000000000000000000 ) ) ;
#73 = LINE ( 'NONE', #287, #207 ) ;
#74 = CARTESIAN_POINT ( 'NONE',  ( 4.500000000000000888, 0.000000000000000000, 5.000000000000002665 ) ) ;
#75 = DIRECTION ( 'NONE',  ( 1.000000000000000000, 0.000000000000000000, -0.000000000000000000 ) ) ;
#76 = ORIENTED_EDGE ( 'NONE', *, *, #134, .T. ) ;
#77 = DIRECTION ( 'NONE',  ( -1.000000000000000000, 0.000000000000000000, 0.000000000000000000 ) ) ;
#78 = CC_DESIGN_DATE_AND_TIME_ASSIGNMENT ( #260, #376, ( #337 ) ) ;
#79 = CARTESIAN_POINT ( 'NONE',  ( 0.000000000000000000, 0.000000000000000000, 0.000000000000000000 ) ) ;
#80 = PLANE ( 'NONE',  #94 ) ;
#81 = FACE_OUTER_BOUND ( 'NONE', #250, .T. ) ;
#82 = DIRECTION ( 'NONE',  ( 1.000000000000000000, 0.000000000000000000, 0.000000000000000000 ) ) ;
#83 = CC_DESIGN_PERSON_AND_ORGANIZATION_ASSIGNMENT ( #216, #327, ( #112 ) ) ;
#84 = DIRECTION ( 'NONE',  ( 1.000000000000000000, 0.000000000000000000, 0.000000000000000000 ) ) ;
#85 = CIRCLE ( 'NONE', #233, 2.600000000000000089 ) ;
#86 = CARTESIAN_POINT ( 'NONE',  ( 0.000000000000000000, 0.000000000000000000, 105.0000000000000142 ) ) ;
#87 = LOCAL_TIME ( 17, 10, 4.000000000000000000, #296 ) ;
#88 = DIRECTION ( 'NONE',  ( 1.000000000000000000, 0.000000000000000000, 0.000000000000000000 ) ) ;
#89 = CALENDAR_DATE ( 2022, 8, 7 ) ;
#90 = ORIENTED_EDGE ( 'NONE', *, *, #208, .T. ) ;
#91 = VERTEX_POINT ( 'NONE', #343 ) ;
#92 = ADVANCED_FACE ( 'NONE', ( #174 ), #236, .F. ) ;
#93 = EDGE_LOOP ( 'NONE', ( #282, #51, #36, #67 ) ) ;
#94 = AXIS2_PLACEMENT_3D ( 'NONE', #262, #114, #22 ) ;
#95 = CARTESIAN_POINT ( 'NONE',  ( 0.000000000000000000, 0.000000000000000000, 105.0000000000000142 ) ) ;
#96 = ORIENTED_EDGE ( 'NONE', *, *, #243, .F. ) ;
#97 = DIRECTION ( 'NONE',  ( -0.000000000000000000, -0.000000000000000000, -1.000000000000000000 ) ) ;
#98 = ORIENTED_EDGE ( 'NONE', *, *, #205, .T. ) ;
#99 = EDGE_CURVE ( 'NONE', #211, #144, #85, .T. ) ;
#100 = CARTESIAN_POINT ( 'NONE',  ( 0.000000000000000000, 0.000000000000000000, 5.000000000000000000 ) ) ;
#101 = FACE_OUTER_BOUND ( 'NONE', #366, .T. ) ;
#102 = CIRCLE ( 'NONE', #321, 4.000000000000000000 ) ;
#103 = LOCAL_TIME ( 17, 10, 4.000000000000000000, #152 ) ;
#104 = DIRECTION ( 'NONE',  ( 1.000000000000000000, 0.000000000000000000, 0.000000000000000000 ) ) ;
#105 = DIRECTION ( 'NONE',  ( -0.000000000000000000, -0.000000000000000000, -1.000000000000000000 ) ) ;
#106 = EDGE_CURVE ( 'NONE', #298, #154, #299, .T. ) ;
#107 = LINE ( 'NONE', #137, #110 ) ;
#108 = CARTESIAN_POINT ( 'NONE',  ( 0.000000000000000000, 0.000000000000000000, 5.000000000000000000 ) ) ;
#109 = CYLINDRICAL_SURFACE ( 'NONE', #332, 4.000000000000000000 ) ;
#110 = VECTOR ( 'NONE', #97, 1000.000000000000000 ) ;
#111 = DIRECTION ( 'NONE',  ( 0.000000000000000000, 0.000000000000000000, 1.000000000000000000 ) ) ;
#112 = PRODUCT_DEFINITION_FORMATION_WITH_SPECIFIED_SOURCE ( 'LIBOVOLNÝ', '', #227, .NOT_KNOWN. ) ;
#113 = DIRECTION ( 'NONE',  ( 0.000000000000000000, 0.000000000000000000, 1.000000000000000000 ) ) ;
#114 = DIRECTION ( 'NONE',  ( 0.000000000000000000, 0.000000000000000000, 1.000000000000000000 ) ) ;
#115 = CARTESIAN_POINT ( 'NONE',  ( 0.000000000000000000, 0.000000000000000000, 5.500000000000005329 ) ) ;
#116 = DATE_AND_TIME ( #58, #69 ) ;
#117 = CARTESIAN_POINT ( 'NONE',  ( 0.000000000000000000, 0.000000000000000000, 0.000000000000000000 ) ) ;
#118 = APPLICATION_PROTOCOL_DEFINITION ( 'international standard', 'config_control_design', 1994, #12 ) ;
#119 = CIRCLE ( 'NONE', #251, 4.000000000000000000 ) ;
#120 = EDGE_CURVE ( 'NONE', #62, #154, #263, .T. ) ;
#121 = DATE_AND_TIME ( #89, #103 ) ;
#122 = ORIENTED_EDGE ( 'NONE', *, *, #106, .F. ) ;
#123 = CLOSED_SHELL ( 'NONE', ( #92, #125, #21, #283, #7, #370, #60, #29, #305, #168, #312 ) ) ;
#124 = EDGE_LOOP ( 'NONE', ( #377, #246, #229, #277 ) ) ;
#125 = ADVANCED_FACE ( 'NONE', ( #323 ), #203, .F. ) ;
#126 = APPROVAL_DATE_TIME ( #241, #249 ) ;
#127 = EDGE_LOOP ( 'NONE', ( #2, #301, #244, #136 ) ) ;
#128 = SECURITY_CLASSIFICATION_LEVEL ( 'unclassified' ) ;
#129 = ORIENTED_EDGE ( 'NONE', *, *, #99, .T. ) ;
#130 = APPLICATION_CONTEXT ( 'configuration controlled 3d designs of mechanical parts and assemblies' ) ;
#131 = ORIENTED_EDGE ( 'NONE', *, *, #208, .F. ) ;
#132 = VECTOR ( 'NONE', #201, 1000.000000000000000 ) ;
#133 = AXIS2_PLACEMENT_3D ( 'NONE', #145, #31, #82 ) ;
#134 = EDGE_CURVE ( 'NONE', #330, #368, #119, .T. ) ;
#135 = DIRECTION ( 'NONE',  ( -0.000000000000000000, -0.000000000000000000, -1.000000000000000000 ) ) ;
#136 = ORIENTED_EDGE ( 'NONE', *, *, #231, .F. ) ;
#137 = CARTESIAN_POINT ( 'NONE',  ( -4.000000000000000000, 0.000000000000000000, 105.0000000000000142 ) ) ;
#138 = PLANE ( 'NONE',  #362 ) ;
#139 = DIRECTION ( 'NONE',  ( 1.000000000000000000, 0.000000000000000000, 0.000000000000000000 ) ) ;
#140 = DIRECTION ( 'NONE',  ( -0.000000000000000000, -0.000000000000000000, -1.000000000000000000 ) ) ;
#141 = AXIS2_PLACEMENT_3D ( 'NONE', #303, #228, #104 ) ;
#142 = AXIS2_PLACEMENT_3D ( 'NONE', #225, #342, #77 ) ;
#143 = DIRECTION ( 'NONE',  ( -0.000000000000000000, -0.000000000000000000, -1.000000000000000000 ) ) ;
#144 = VERTEX_POINT ( 'NONE', #150 ) ;
#145 = CARTESIAN_POINT ( 'NONE',  ( 0.000000000000000000, 0.000000000000000000, 0.000000000000000000 ) ) ;
#146 = DIRECTION ( 'NONE',  ( 0.000000000000000000, 0.000000000000000000, 1.000000000000000000 ) ) ;
#147 = DIRECTION ( 'NONE',  ( -0.000000000000000000, -0.000000000000000000, -1.000000000000000000 ) ) ;
#148 = CIRCLE ( 'NONE', #10, 4.500000000000000888 ) ;
#149 = APPROVAL_STATUS ( 'not_yet_approved' ) ;
#150 = CARTESIAN_POINT ( 'NONE',  ( -2.600000000000000089, 0.000000000000000000, 0.000000000000000000 ) ) ;
#151 = DIRECTION ( 'NONE',  ( 0.000000000000000000, 0.000000000000000000, -1.000000000000000000 ) ) ;
#152 = COORDINATED_UNIVERSAL_TIME_OFFSET ( 1, 0, .AHEAD. ) ;
#153 = APPROVAL_STATUS ( 'not_yet_approved' ) ;
#154 = VERTEX_POINT ( 'NONE', #209 ) ;
#155 = MANIFOLD_SOLID_BREP ( 'Odebrat vysunutím3', #123 ) ;
#156 = APPROVAL_ROLE ( '' ) ;
#157 = EDGE_CURVE ( 'NONE', #330, #40, #294, .T. ) ;
#158 = ORIENTED_EDGE ( 'NONE', *, *, #379, .F. ) ;
#159 = CALENDAR_DATE ( 2022, 8, 7 ) ;
#160 = ORIENTED_EDGE ( 'NONE', *, *, #254, .F. ) ;
#161 = VERTEX_POINT ( 'NONE', #43 ) ;
#162 = CARTESIAN_POINT ( 'NONE',  ( -4.500000000000000888, 5.510910596163089556E-16, 5.500000000000005329 ) ) ;
#163 = DIRECTION ( 'NONE',  ( 0.000000000000000000, -1.000000000000000000, 0.000000000000000000 ) ) ;
#164 = AXIS2_PLACEMENT_3D ( 'NONE', #11, #194, #339 ) ;
#165 = AXIS2_PLACEMENT_3D ( 'NONE', #268, #111, #88 ) ;
#166 = CARTESIAN_POINT ( 'NONE',  ( 4.000000000000000000, 4.898587196589412829E-16, 5.500000000000005329 ) ) ;
#167 = LINE ( 'NONE', #199, #275 ) ;
#168 = ADVANCED_FACE ( 'NONE', ( #192 ), #3, .F. ) ;
#169 = ORIENTED_EDGE ( 'NONE', *, *, #363, .T. ) ;
#170 = DIRECTION ( 'NONE',  ( 1.000000000000000000, 0.000000000000000000, 0.000000000000000000 ) ) ;
#171 = FACE_OUTER_BOUND ( 'NONE', #124, .T. ) ;
#172 = AXIS2_PLACEMENT_3D ( 'NONE', #15, #45, #139 ) ;
#173 = PLANE ( 'NONE',  #325 ) ;
#174 = FACE_OUTER_BOUND ( 'NONE', #272, .T. ) ;
#175 = MECHANICAL_CONTEXT ( 'NONE', #12, 'mechanical' ) ;
#176 = EDGE_CURVE ( 'NONE', #368, #8, #107, .T. ) ;
#177 = PERSON_AND_ORGANIZATION ( #185, #240 ) ;
#178 = CIRCLE ( 'NONE', #195, 0.5000000000000004441 ) ;
#179 = PERSON_AND_ORGANIZATION ( #185, #240 ) ;
#180 = AXIS2_PLACEMENT_3D ( 'NONE', #115, #113, #320 ) ;
#181 = CIRCLE ( 'NONE', #276, 2.600000000000000089 ) ;
#182 = CC_DESIGN_SECURITY_CLASSIFICATION ( #245, ( #112 ) ) ;
#183 = PRODUCT_DEFINITION_SHAPE ( 'NONE', 'NONE',  #337 ) ;
#184 = EDGE_LOOP ( 'NONE', ( #98, #76 ) ) ;
#185 = PERSON ( 'NEURÈENÝ', 'NEURÈENÝ', 'NEURÈENÝ', ('NEURÈENÝ'), ('NEURÈENÝ'), ('NEURÈENÝ') ) ;
#186 = DESIGN_CONTEXT ( 'detailed design', #130, 'design' ) ;
#187 = CIRCLE ( 'NONE', #17, 4.500000000000000888 ) ;
#188 = EDGE_LOOP ( 'NONE', ( #158, #160 ) ) ;
#189 = APPROVAL_PERSON_ORGANIZATION ( #61, #65, #64 ) ;
#190 = ORIENTED_EDGE ( 'NONE', *, *, #191, .T. ) ;
#191 = EDGE_CURVE ( 'NONE', #161, #144, #167, .T. ) ;
#192 = FACE_OUTER_BOUND ( 'NONE', #127, .T. ) ;
#193 = ORIENTED_EDGE ( 'NONE', *, *, #329, .F. ) ;
#194 = DIRECTION ( 'NONE',  ( -0.000000000000000000, -0.000000000000000000, -1.000000000000000000 ) ) ;
#195 = AXIS2_PLACEMENT_3D ( 'NONE', #313, #163, #256 ) ;
#196 = CIRCLE ( 'NONE', #364, 7.000000000000000000 ) ;
#197 = DIRECTION ( 'NONE',  ( 0.000000000000000000, 0.000000000000000000, 1.000000000000000000 ) ) ;
#198 = CARTESIAN_POINT ( 'NONE',  ( 7.000000000000000000, 8.572527594031473190E-16, 5.000000000000000000 ) ) ;
#199 = CARTESIAN_POINT ( 'NONE',  ( -2.600000000000000089, 0.000000000000000000, 105.0000000000000142 ) ) ;
#200 = DIRECTION ( 'NONE',  ( -1.000000000000000000, 0.000000000000000000, 0.000000000000000000 ) ) ;
#201 = DIRECTION ( 'NONE',  ( -0.000000000000000000, -0.000000000000000000, -1.000000000000000000 ) ) ;
#202 = DIRECTION ( 'NONE',  ( -0.000000000000000000, -0.000000000000000000, -1.000000000000000000 ) ) ;
#203 = TOROIDAL_SURFACE ( 'NONE', #180, 4.500000000000000888, 0.5000000000000000000 ) ;
#204 = CARTESIAN_POINT ( 'NONE',  ( 2.600000000000000089, 3.184081677783118191E-16, 105.0000000000000142 ) ) ;
#205 = EDGE_CURVE ( 'NONE', #368, #330, #102, .T. ) ;
#206 = CARTESIAN_POINT ( 'NONE',  ( 0.000000000000000000, 0.000000000000000000, 105.0000000000000142 ) ) ;
#207 = VECTOR ( 'NONE', #143, 1000.000000000000000 ) ;
#208 = EDGE_CURVE ( 'NONE', #154, #298, #372, .T. ) ;
#209 = CARTESIAN_POINT ( 'NONE',  ( 7.000000000000000000, 8.572527594031473190E-16, 0.000000000000000000 ) ) ;
#210 = CARTESIAN_POINT ( 'NONE',  ( 0.000000000000000000, 0.000000000000000000, 0.000000000000000000 ) ) ;
#211 = VERTEX_POINT ( 'NONE', #220 ) ;
#212 = CC_DESIGN_PERSON_AND_ORGANIZATION_ASSIGNMENT ( #358, #215, ( #112 ) ) ;
#213 = DATE_AND_TIME ( #278, #38 ) ;
#214 = EDGE_LOOP ( 'NONE', ( #219, #355 ) ) ;
#215 = PERSON_AND_ORGANIZATION_ROLE ( 'creator' ) ;
#216 = PERSON_AND_ORGANIZATION ( #185, #240 ) ;
#217 = ORIENTED_EDGE ( 'NONE', *, *, #324, .F. ) ;
#218 = FACE_BOUND ( 'NONE', #188, .T. ) ;
#219 = ORIENTED_EDGE ( 'NONE', *, *, #324, .T. ) ;
#220 = CARTESIAN_POINT ( 'NONE',  ( 2.600000000000000089, 3.184081677783118191E-16, 0.000000000000000000 ) ) ;
#221 = CARTESIAN_POINT ( 'NONE',  ( -4.000000000000000000, 0.000000000000000000, 5.500000000000005329 ) ) ;
#222 = DIRECTION ( 'NONE',  ( 1.000000000000000000, 0.000000000000000000, 0.000000000000000000 ) ) ;
#223 = CYLINDRICAL_SURFACE ( 'NONE', #50, 7.000000000000000000 ) ;
#224 = AXIS2_PLACEMENT_3D ( 'NONE', #255, #44, #261 ) ;
#225 = CARTESIAN_POINT ( 'NONE',  ( 0.000000000000000000, 0.000000000000000000, 105.0000000000000142 ) ) ;
#226 = ORIENTED_EDGE ( 'NONE', *, *, #176, .F. ) ;
#227 = PRODUCT ( '7c1c', '7c1c', '', ( #175 ) ) ;
#228 = DIRECTION ( 'NONE',  ( 0.000000000000000000, 0.000000000000000000, 1.000000000000000000 ) ) ;
#229 = ORIENTED_EDGE ( 'NONE', *, *, #176, .T. ) ;
#230 = FACE_BOUND ( 'NONE', #20, .T. ) ;
#231 = EDGE_CURVE ( 'NONE', #46, #302, #187, .T. ) ;
#232 = DIRECTION ( 'NONE',  ( -1.000000000000000000, 0.000000000000000000, 0.000000000000000000 ) ) ;
#233 = AXIS2_PLACEMENT_3D ( 'NONE', #117, #318, #28 ) ;
#234 = CIRCLE ( 'NONE', #307, 4.000000000000000000 ) ;
#235 = CARTESIAN_POINT ( 'NONE',  ( 2.600000000000000089, 3.184081677783118191E-16, 105.0000000000000142 ) ) ;
#236 = CYLINDRICAL_SURFACE ( 'NONE', #25, 2.600000000000000089 ) ;
#237 = CARTESIAN_POINT ( 'NONE',  ( 0.000000000000000000, 0.000000000000000000, 5.500000000000005329 ) ) ;
#238 = CIRCLE ( 'NONE', #172, 7.000000000000000000 ) ;
#239 = DIRECTION ( 'NONE',  ( 1.000000000000000000, 0.000000000000000000, 0.000000000000000000 ) ) ;
#240 = ORGANIZATION ( 'NEURÈENÝ', 'NEURÈENÝ', '' ) ;
#241 = DATE_AND_TIME ( #159, #87 ) ;
#242 = SHAPE_DEFINITION_REPRESENTATION ( #183, #66 ) ;
#243 = EDGE_CURVE ( 'NONE', #62, #91, #238, .T. ) ;
#244 = ORIENTED_EDGE ( 'NONE', *, *, #54, .T. ) ;
#245 = SECURITY_CLASSIFICATION ( '', '', #128 ) ;
#246 = ORIENTED_EDGE ( 'NONE', *, *, #205, .F. ) ;
#247 = PERSON_AND_ORGANIZATION ( #185, #240 ) ;
#248 = ORIENTED_EDGE ( 'NONE', *, *, #191, .F. ) ;
#249 = APPROVAL ( #153, 'NEURÈENÝ' ) ;
#250 = EDGE_LOOP ( 'NONE', ( #122, #131 ) ) ;
#251 = AXIS2_PLACEMENT_3D ( 'NONE', #86, #55, #57 ) ;
#252 = CIRCLE ( 'NONE', #165, 4.000000000000000000 ) ;
#253 = DIRECTION ( 'NONE',  ( 1.000000000000000000, 0.000000000000000000, -0.000000000000000000 ) ) ;
#254 = EDGE_CURVE ( 'NONE', #331, #161, #68, .T. ) ;
#255 = CARTESIAN_POINT ( 'NONE',  ( 0.000000000000000000, 0.000000000000000000, 105.0000000000000142 ) ) ;
#256 = DIRECTION ( 'NONE',  ( 0.000000000000000000, 0.000000000000000000, -1.000000000000000000 ) ) ;
#257 = CARTESIAN_POINT ( 'NONE',  ( 0.000000000000000000, 0.000000000000000000, 105.0000000000000142 ) ) ;
#258 = ORIENTED_EDGE ( 'NONE', *, *, #353, .T. ) ;
#259 = CC_DESIGN_PERSON_AND_ORGANIZATION_ASSIGNMENT ( #177, #53, ( #227 ) ) ;
#260 = DATE_AND_TIME ( #30, #349 ) ;
#261 = DIRECTION ( 'NONE',  ( -1.000000000000000000, 0.000000000000000000, 0.000000000000000000 ) ) ;
#262 = CARTESIAN_POINT ( 'NONE',  ( 0.000000000000000000, 0.000000000000000000, 5.000000000000000000 ) ) ;
#263 = LINE ( 'NONE', #267, #281 ) ;
#264 = DIRECTION ( 'NONE',  ( 0.000000000000000000, 0.000000000000000000, 1.000000000000000000 ) ) ;
#265 = DIRECTION ( 'NONE',  ( -1.000000000000000000, 0.000000000000000000, 0.000000000000000000 ) ) ;
#266 = COORDINATED_UNIVERSAL_TIME_OFFSET ( 1, 0, .AHEAD. ) ;
#267 = CARTESIAN_POINT ( 'NONE',  ( 7.000000000000000000, 8.572527594031473190E-16, 5.000000000000000000 ) ) ;
#268 = CARTESIAN_POINT ( 'NONE',  ( 0.000000000000000000, 0.000000000000000000, 5.500000000000005329 ) ) ;
#269 = DIRECTION ( 'NONE',  ( 0.000000000000000000, 0.000000000000000000, -1.000000000000000000 ) ) ;
#270 = EDGE_CURVE ( 'NONE', #8, #46, #347, .T. ) ;
#271 = DATE_TIME_ROLE ( 'classification_date' ) ;
#272 = EDGE_LOOP ( 'NONE', ( #304, #360, #129, #248 ) ) ;
#273 = APPROVAL_STATUS ( 'not_yet_approved' ) ;
#274 = ORIENTED_EDGE ( 'NONE', *, *, #231, .T. ) ;
#275 = VECTOR ( 'NONE', #306, 1000.000000000000000 ) ;
#276 = AXIS2_PLACEMENT_3D ( 'NONE', #206, #378, #239 ) ;
#277 = ORIENTED_EDGE ( 'NONE', *, *, #356, .T. ) ;
#278 = CALENDAR_DATE ( 2022, 8, 7 ) ;
#279 = ORIENTED_EDGE ( 'NONE', *, *, #254, .T. ) ;
#280 = FACE_OUTER_BOUND ( 'NONE', #308, .T. ) ;
#281 = VECTOR ( 'NONE', #23, 1000.000000000000000 ) ;
#282 = ORIENTED_EDGE ( 'NONE', *, *, #356, .F. ) ;
#283 = ADVANCED_FACE ( 'NONE', ( #280 ), #344, .T. ) ;
#284 = ORIENTED_EDGE ( 'NONE', *, *, #52, .F. ) ;
#285 = DIRECTION ( 'NONE',  ( 1.000000000000000000, 0.000000000000000000, 0.000000000000000000 ) ) ;
#286 = LINE ( 'NONE', #235, #300 ) ;
#287 = CARTESIAN_POINT ( 'NONE',  ( -7.000000000000000000, 0.000000000000000000, 5.000000000000000000 ) ) ;
#288 = AXIS2_PLACEMENT_3D ( 'NONE', #367, #71, #222 ) ;
#289 = CC_DESIGN_PERSON_AND_ORGANIZATION_ASSIGNMENT ( #247, #354, ( #245 ) ) ;
#290 = APPLICATION_PROTOCOL_DEFINITION ( 'international standard', 'config_control_design', 1994, #130 ) ;
#291 =( GEOMETRIC_REPRESENTATION_CONTEXT ( 3 ) GLOBAL_UNCERTAINTY_ASSIGNED_CONTEXT ( ( #5 ) ) GLOBAL_UNIT_ASSIGNED_CONTEXT ( ( #24, #317, #27 ) ) REPRESENTATION_CONTEXT ( 'NONE', 'WORKASPACE' ) );
#292 = PERSON_AND_ORGANIZATION ( #185, #240 ) ;
#293 = PERSON_AND_ORGANIZATION_ROLE ( 'creator' ) ;
#294 = LINE ( 'NONE', #374, #132 ) ;
#295 = COORDINATED_UNIVERSAL_TIME_OFFSET ( 1, 0, .AHEAD. ) ;
#296 = COORDINATED_UNIVERSAL_TIME_OFFSET ( 1, 0, .AHEAD. ) ;
#297 = PRODUCT_RELATED_PRODUCT_CATEGORY ( 'detail', '', ( #227 ) ) ;
#298 = VERTEX_POINT ( 'NONE', #49 ) ;
#299 = CIRCLE ( 'NONE', #33, 7.000000000000000000 ) ;
#300 = VECTOR ( 'NONE', #151, 1000.000000000000000 ) ;
#301 = ORIENTED_EDGE ( 'NONE', *, *, #353, .F. ) ;
#302 = VERTEX_POINT ( 'NONE', #74 ) ;
#303 = CARTESIAN_POINT ( 'NONE',  ( 0.000000000000000000, 0.000000000000000000, 0.000000000000000000 ) ) ;
#304 = ORIENTED_EDGE ( 'NONE', *, *, #379, .T. ) ;
#305 = ADVANCED_FACE ( 'NONE', ( #218, #365 ), #173, .T. ) ;
#306 = DIRECTION ( 'NONE',  ( 0.000000000000000000, 0.000000000000000000, -1.000000000000000000 ) ) ;
#307 = AXIS2_PLACEMENT_3D ( 'NONE', #237, #264, #84 ) ;
#308 = EDGE_LOOP ( 'NONE', ( #96, #328, #90, #48 ) ) ;
#309 = CYLINDRICAL_SURFACE ( 'NONE', #142, 2.600000000000000089 ) ;
#310 = DIRECTION ( 'NONE',  ( 0.000000000000000000, 0.000000000000000000, 1.000000000000000000 ) ) ;
#311 = FACE_OUTER_BOUND ( 'NONE', #334, .T. ) ;
#312 = ADVANCED_FACE ( 'NONE', ( #311 ), #309, .F. ) ;
#313 = CARTESIAN_POINT ( 'NONE',  ( 4.500000000000000888, 0.000000000000000000, 5.500000000000005329 ) ) ;
#314 = DIRECTION ( 'NONE',  ( -1.000000000000000000, 1.224646799147351482E-16, 0.000000000000000000 ) ) ;
#315 = FACE_BOUND ( 'NONE', #336, .T. ) ;
#316 = CIRCLE ( 'NONE', #357, 2.600000000000000089 ) ;
#317 =( NAMED_UNIT ( * ) PLANE_ANGLE_UNIT ( ) SI_UNIT ( $, .RADIAN. ) );
#318 = DIRECTION ( 'NONE',  ( -0.000000000000000000, -0.000000000000000000, -1.000000000000000000 ) ) ;
#319 = CARTESIAN_POINT ( 'NONE',  ( 4.000000000000000000, 4.898587196589412829E-16, 105.0000000000000142 ) ) ;
#320 = DIRECTION ( 'NONE',  ( 1.000000000000000000, 0.000000000000000000, 0.000000000000000000 ) ) ;
#321 = AXIS2_PLACEMENT_3D ( 'NONE', #257, #41, #19 ) ;
#322 = APPROVAL_ROLE ( '' ) ;
#323 = FACE_OUTER_BOUND ( 'NONE', #93, .T. ) ;
#324 = EDGE_CURVE ( 'NONE', #91, #62, #196, .T. ) ;
#325 = AXIS2_PLACEMENT_3D ( 'NONE', #95, #197, #253 ) ;
#326 = CC_DESIGN_APPROVAL ( #65, ( #245 ) ) ;
#327 = PERSON_AND_ORGANIZATION_ROLE ( 'design_supplier' ) ;
#328 = ORIENTED_EDGE ( 'NONE', *, *, #120, .T. ) ;
#329 = EDGE_CURVE ( 'NONE', #331, #211, #286, .T. ) ;
#330 = VERTEX_POINT ( 'NONE', #319 ) ;
#331 = VERTEX_POINT ( 'NONE', #204 ) ;
#332 = AXIS2_PLACEMENT_3D ( 'NONE', #348, #140, #232 ) ;
#333 = CC_DESIGN_APPROVAL ( #249, ( #112 ) ) ;
#334 = EDGE_LOOP ( 'NONE', ( #193, #279, #190, #361 ) ) ;
#335 = DIRECTION ( 'NONE',  ( 0.000000000000000000, 0.000000000000000000, 1.000000000000000000 ) ) ;
#336 = EDGE_LOOP ( 'NONE', ( #284, #63 ) ) ;
#337 = PRODUCT_DEFINITION ( 'NEZNÁMÝ', '', #112, #186 ) ;
#338 = ORIENTED_EDGE ( 'NONE', *, *, #157, .T. ) ;
#339 = DIRECTION ( 'NONE',  ( -1.000000000000000000, 0.000000000000000000, 0.000000000000000000 ) ) ;
#340 = CARTESIAN_POINT ( 'NONE',  ( 0.000000000000000000, 0.000000000000000000, 0.000000000000000000 ) ) ;
#341 = CC_DESIGN_PERSON_AND_ORGANIZATION_ASSIGNMENT ( #179, #293, ( #337 ) ) ;
#342 = DIRECTION ( 'NONE',  ( 0.000000000000000000, 0.000000000000000000, -1.000000000000000000 ) ) ;
#343 = CARTESIAN_POINT ( 'NONE',  ( -7.000000000000000000, 0.000000000000000000, 5.000000000000000000 ) ) ;
#344 = CYLINDRICAL_SURFACE ( 'NONE', #164, 7.000000000000000000 ) ;
#345 = FACE_OUTER_BOUND ( 'NONE', #6, .T. ) ;
#346 = FACE_OUTER_BOUND ( 'NONE', #214, .T. ) ;
#347 = CIRCLE ( 'NONE', #9, 0.5000000000000004441 ) ;
#348 = CARTESIAN_POINT ( 'NONE',  ( 0.000000000000000000, 0.000000000000000000, 105.0000000000000142 ) ) ;
#349 = LOCAL_TIME ( 17, 10, 4.000000000000000000, #295 ) ;
#350 = CARTESIAN_POINT ( 'NONE',  ( 0.000000000000000000, 0.000000000000000000, 105.0000000000000142 ) ) ;
#351 = APPROVAL ( #149, 'NEURÈENÝ' ) ;
#352 = DIRECTION ( 'NONE',  ( 1.000000000000000000, 0.000000000000000000, 0.000000000000000000 ) ) ;
#353 = EDGE_CURVE ( 'NONE', #40, #8, #234, .T. ) ;
#354 = PERSON_AND_ORGANIZATION_ROLE ( 'classification_officer' ) ;
#355 = ORIENTED_EDGE ( 'NONE', *, *, #243, .T. ) ;
#356 = EDGE_CURVE ( 'NONE', #8, #40, #252, .T. ) ;
#357 = AXIS2_PLACEMENT_3D ( 'NONE', #79, #202, #16 ) ;
#358 = PERSON_AND_ORGANIZATION ( #185, #240 ) ;
#359 = APPROVAL_DATE_TIME ( #213, #65 ) ;
#360 = ORIENTED_EDGE ( 'NONE', *, *, #329, .T. ) ;
#361 = ORIENTED_EDGE ( 'NONE', *, *, #52, .T. ) ;
#362 = AXIS2_PLACEMENT_3D ( 'NONE', #340, #310, #75 ) ;
#363 = EDGE_CURVE ( 'NONE', #302, #46, #148, .T. ) ;
#364 = AXIS2_PLACEMENT_3D ( 'NONE', #47, #335, #170 ) ;
#365 = FACE_OUTER_BOUND ( 'NONE', #184, .T. ) ;
#366 = EDGE_LOOP ( 'NONE', ( #37, #217, #375, #34 ) ) ;
#367 = CARTESIAN_POINT ( 'NONE',  ( 0.000000000000000000, 0.000000000000000000, 105.0000000000000142 ) ) ;
#368 = VERTEX_POINT ( 'NONE', #381 ) ;
#369 = DIRECTION ( 'NONE',  ( 0.000000000000000000, 0.000000000000000000, 1.000000000000000000 ) ) ;
#370 = ADVANCED_FACE ( 'NONE', ( #230, #346 ), #80, .T. ) ;
#371 = DIRECTION ( 'NONE',  ( 1.000000000000000000, 0.000000000000000000, 0.000000000000000000 ) ) ;
#372 = CIRCLE ( 'NONE', #141, 7.000000000000000000 ) ;
#373 = CC_DESIGN_APPROVAL ( #351, ( #337 ) ) ;
#374 = CARTESIAN_POINT ( 'NONE',  ( 4.000000000000000000, 4.898587196589412829E-16, 105.0000000000000142 ) ) ;
#375 = ORIENTED_EDGE ( 'NONE', *, *, #35, .T. ) ;
#376 = DATE_TIME_ROLE ( 'creation_date' ) ;
#377 = ORIENTED_EDGE ( 'NONE', *, *, #157, .F. ) ;
#378 = DIRECTION ( 'NONE',  ( 0.000000000000000000, 0.000000000000000000, 1.000000000000000000 ) ) ;
#379 = EDGE_CURVE ( 'NONE', #161, #331, #181, .T. ) ;
#380 = AXIS2_PLACEMENT_3D ( 'NONE', #13, #369, #285 ) ;
#381 = CARTESIAN_POINT ( 'NONE',  ( -4.000000000000000000, 0.000000000000000000, 105.0000000000000142 ) ) ;
ENDSEC;
END-ISO-10303-21;
