ISO-10303-21;
HEADER;
FILE_DESCRIPTION (( 'STEP AP203' ),
    '1' );
FILE_NAME ('c25e.STEP',
    '2022-07-08T14:57:21',
    ( '' ),
    ( '' ),
    'SwSTEP 2.0',
    'SolidWorks 2019',
    '' );
FILE_SCHEMA (( 'CONFIG_CONTROL_DESIGN' ));
ENDSEC;

DATA;
#1 = LINE ( 'NONE', #352, #175 ) ;
#2 = EDGE_CURVE ( 'NONE', #59, #30, #192, .T. ) ;
#3 = CALENDAR_DATE ( 2022, 8, 7 ) ;
#4 =( GEOMETRIC_REPRESENTATION_CONTEXT ( 3 ) GLOBAL_UNCERTAINTY_ASSIGNED_CONTEXT ( ( #185 ) ) GLOBAL_UNIT_ASSIGNED_CONTEXT ( ( #34, #259, #182 ) ) REPRESENTATION_CONTEXT ( 'NONE', 'WORKASPACE' ) );
#5 = DIRECTION ( 'NONE',  ( 0.000000000000000000, 0.000000000000000000, -1.000000000000000000 ) ) ;
#6 = APPROVAL ( #19, 'NEURÈENÝ' ) ;
#7 = DIRECTION ( 'NONE',  ( -1.000000000000000000, 0.000000000000000000, 0.000000000000000000 ) ) ;
#8 = APPLICATION_PROTOCOL_DEFINITION ( 'international standard', 'config_control_design', 1994, #345 ) ;
#9 = CC_DESIGN_APPROVAL ( #23, ( #261 ) ) ;
#10 = COORDINATED_UNIVERSAL_TIME_OFFSET ( 1, 0, .AHEAD. ) ;
#11 = COORDINATED_UNIVERSAL_TIME_OFFSET ( 1, 0, .AHEAD. ) ;
#12 = EDGE_CURVE ( 'NONE', #30, #369, #25, .T. ) ;
#13 = LINE ( 'NONE', #79, #64 ) ;
#14 = AXIS2_PLACEMENT_3D ( 'NONE', #96, #287, #291 ) ;
#15 = EDGE_LOOP ( 'NONE', ( #307, #337, #51, #49 ) ) ;
#16 = CARTESIAN_POINT ( 'NONE',  ( 0.000000000000000000, 0.000000000000000000, 0.000000000000000000 ) ) ;
#17 = CALENDAR_DATE ( 2022, 8, 7 ) ;
#18 = ORIENTED_EDGE ( 'NONE', *, *, #332, .F. ) ;
#19 = APPROVAL_STATUS ( 'not_yet_approved' ) ;
#20 = FACE_BOUND ( 'NONE', #335, .T. ) ;
#21 = ADVANCED_FACE ( 'NONE', ( #20, #340 ), #306, .T. ) ;
#22 = APPROVAL_STATUS ( 'not_yet_approved' ) ;
#23 = APPROVAL ( #264, 'NEURÈENÝ' ) ;
#24 = CARTESIAN_POINT ( 'NONE',  ( 5.500000000000000000, 0.000000000000000000, 5.500000000000005329 ) ) ;
#25 = CIRCLE ( 'NONE', #208, 5.000000000000000000 ) ;
#26 = ORIENTED_EDGE ( 'NONE', *, *, #314, .F. ) ;
#27 = DATE_AND_TIME ( #73, #68 ) ;
#28 = CARTESIAN_POINT ( 'NONE',  ( -3.000000000000000444, 0.000000000000000000, 0.000000000000000000 ) ) ;
#29 = DIRECTION ( 'NONE',  ( 0.000000000000000000, 0.000000000000000000, 1.000000000000000000 ) ) ;
#30 = VERTEX_POINT ( 'NONE', #334 ) ;
#31 = CARTESIAN_POINT ( 'NONE',  ( 0.000000000000000000, 0.000000000000000000, 0.000000000000000000 ) ) ;
#32 = DIRECTION ( 'NONE',  ( 1.000000000000000000, 0.000000000000000000, 0.000000000000000000 ) ) ;
#33 = VERTEX_POINT ( 'NONE', #366 ) ;
#34 =( LENGTH_UNIT ( ) NAMED_UNIT ( * ) SI_UNIT ( .MILLI., .METRE. ) );
#35 = DIRECTION ( 'NONE',  ( -0.000000000000000000, -0.000000000000000000, -1.000000000000000000 ) ) ;
#36 = EDGE_CURVE ( 'NONE', #80, #63, #276, .T. ) ;
#37 = PERSON_AND_ORGANIZATION_ROLE ( 'design_owner' ) ;
#38 = EDGE_CURVE ( 'NONE', #87, #143, #105, .T. ) ;
#39 = DIRECTION ( 'NONE',  ( 1.000000000000000000, 0.000000000000000000, 0.000000000000000000 ) ) ;
#40 = CC_DESIGN_APPROVAL ( #6, ( #265 ) ) ;
#41 = PERSON_AND_ORGANIZATION_ROLE ( 'creator' ) ;
#42 = ORIENTED_EDGE ( 'NONE', *, *, #138, .T. ) ;
#43 = ORIENTED_EDGE ( 'NONE', *, *, #376, .T. ) ;
#44 = DIRECTION ( 'NONE',  ( 1.224646799147353207E-16, 1.000000000000000000, -0.000000000000000000 ) ) ;
#45 = VERTEX_POINT ( 'NONE', #266 ) ;
#46 = CIRCLE ( 'NONE', #358, 8.000000000000000000 ) ;
#47 = DIRECTION ( 'NONE',  ( 1.000000000000000000, 0.000000000000000000, -0.000000000000000000 ) ) ;
#48 = ORIENTED_EDGE ( 'NONE', *, *, #60, .F. ) ;
#49 = ORIENTED_EDGE ( 'NONE', *, *, #219, .F. ) ;
#50 = CARTESIAN_POINT ( 'NONE',  ( 0.000000000000000000, 0.000000000000000000, 5.500000000000005329 ) ) ;
#51 = ORIENTED_EDGE ( 'NONE', *, *, #12, .T. ) ;
#52 = APPROVAL_DATE_TIME ( #193, #23 ) ;
#53 = PRODUCT_DEFINITION_SHAPE ( 'NONE', 'NONE',  #261 ) ;
#54 = FACE_OUTER_BOUND ( 'NONE', #231, .T. ) ;
#55 = ORGANIZATION ( 'NEURÈENÝ', 'NEURÈENÝ', '' ) ;
#56 = DIRECTION ( 'NONE',  ( -1.000000000000000000, 0.000000000000000000, 0.000000000000000000 ) ) ;
#57 = DIRECTION ( 'NONE',  ( 1.000000000000000000, 0.000000000000000000, 0.000000000000000000 ) ) ;
#58 = PRODUCT_RELATED_PRODUCT_CATEGORY ( 'detail', '', ( #225 ) ) ;
#59 = VERTEX_POINT ( 'NONE', #165 ) ;
#60 = EDGE_CURVE ( 'NONE', #369, #33, #84, .T. ) ;
#61 = CARTESIAN_POINT ( 'NONE',  ( 0.000000000000000000, 0.000000000000000000, 305.0000000000000000 ) ) ;
#62 = APPROVAL_PERSON_ORGANIZATION ( #375, #76, #300 ) ;
#63 = VERTEX_POINT ( 'NONE', #367 ) ;
#64 = VECTOR ( 'NONE', #242, 1000.000000000000000 ) ;
#65 = CARTESIAN_POINT ( 'NONE',  ( -5.000000000000000000, 0.000000000000000000, 5.500000000000005329 ) ) ;
#66 = CC_DESIGN_PERSON_AND_ORGANIZATION_ASSIGNMENT ( #270, #232, ( #265 ) ) ;
#67 = CARTESIAN_POINT ( 'NONE',  ( 0.000000000000000000, 0.000000000000000000, 5.000000000000000000 ) ) ;
#68 = LOCAL_TIME ( 16, 57, 21.00000000000000000, #311 ) ;
#69 = DIRECTION ( 'NONE',  ( 0.000000000000000000, 0.000000000000000000, 1.000000000000000000 ) ) ;
#70 = ADVANCED_FACE ( 'NONE', ( #336 ), #333, .F. ) ;
#71 = CARTESIAN_POINT ( 'NONE',  ( 0.000000000000000000, 0.000000000000000000, 5.000000000000000000 ) ) ;
#72 = CIRCLE ( 'NONE', #146, 8.000000000000000000 ) ;
#73 = CALENDAR_DATE ( 2022, 8, 7 ) ;
#74 = APPLICATION_CONTEXT ( 'configuration controlled 3d designs of mechanical parts and assemblies' ) ;
#75 = CARTESIAN_POINT ( 'NONE',  ( -8.000000000000000000, 0.000000000000000000, 5.000000000000000000 ) ) ;
#76 = APPROVAL ( #22, 'NEURÈENÝ' ) ;
#77 = CARTESIAN_POINT ( 'NONE',  ( 5.000000000000000000, 6.123233995736766282E-16, 305.0000000000000000 ) ) ;
#78 = ORIENTED_EDGE ( 'NONE', *, *, #353, .T. ) ;
#79 = CARTESIAN_POINT ( 'NONE',  ( 8.000000000000000000, 9.797174393178825657E-16, 5.000000000000000000 ) ) ;
#80 = VERTEX_POINT ( 'NONE', #186 ) ;
#81 = LOCAL_TIME ( 16, 57, 21.00000000000000000, #349 ) ;
#82 = VERTEX_POINT ( 'NONE', #102 ) ;
#83 = SECURITY_CLASSIFICATION_LEVEL ( 'unclassified' ) ;
#84 = CIRCLE ( 'NONE', #122, 0.5000000000000004441 ) ;
#85 = DIRECTION ( 'NONE',  ( -1.000000000000000000, 1.224646799147351482E-16, 0.000000000000000000 ) ) ;
#86 = DIRECTION ( 'NONE',  ( 1.000000000000000000, 0.000000000000000000, 0.000000000000000000 ) ) ;
#87 = VERTEX_POINT ( 'NONE', #215 ) ;
#88 = PERSON_AND_ORGANIZATION ( #286, #55 ) ;
#89 = CARTESIAN_POINT ( 'NONE',  ( 0.000000000000000000, 0.000000000000000000, 305.0000000000000000 ) ) ;
#90 = PERSON_AND_ORGANIZATION ( #286, #55 ) ;
#91 = DIRECTION ( 'NONE',  ( 0.000000000000000000, 0.000000000000000000, -1.000000000000000000 ) ) ;
#92 = DIRECTION ( 'NONE',  ( -1.000000000000000000, 0.000000000000000000, 0.000000000000000000 ) ) ;
#93 = EDGE_LOOP ( 'NONE', ( #371, #374, #258, #246 ) ) ;
#94 = DIRECTION ( 'NONE',  ( 1.000000000000000000, 0.000000000000000000, 0.000000000000000000 ) ) ;
#95 = CIRCLE ( 'NONE', #290, 3.000000000000000444 ) ;
#96 = CARTESIAN_POINT ( 'NONE',  ( 0.000000000000000000, 0.000000000000000000, 0.000000000000000000 ) ) ;
#97 = APPLICATION_PROTOCOL_DEFINITION ( 'international standard', 'config_control_design', 1994, #74 ) ;
#98 = AXIS2_PLACEMENT_3D ( 'NONE', #152, #177, #39 ) ;
#99 = CARTESIAN_POINT ( 'NONE',  ( 5.500000000000000000, 0.000000000000000000, 5.000000000000002665 ) ) ;
#100 = EDGE_CURVE ( 'NONE', #45, #82, #13, .T. ) ;
#101 = DATE_AND_TIME ( #17, #260 ) ;
#102 = CARTESIAN_POINT ( 'NONE',  ( 8.000000000000000000, 9.797174393178825657E-16, 0.000000000000000000 ) ) ;
#103 = LINE ( 'NONE', #188, #170 ) ;
#104 = VECTOR ( 'NONE', #159, 1000.000000000000000 ) ;
#105 = LINE ( 'NONE', #75, #288 ) ;
#106 = EDGE_LOOP ( 'NONE', ( #166, #293 ) ) ;
#107 = DIRECTION ( 'NONE',  ( 1.000000000000000000, 0.000000000000000000, 0.000000000000000000 ) ) ;
#108 = ORIENTED_EDGE ( 'NONE', *, *, #238, .T. ) ;
#109 = CIRCLE ( 'NONE', #117, 0.5000000000000004441 ) ;
#110 = LOCAL_TIME ( 16, 57, 21.00000000000000000, #11 ) ;
#111 = ORIENTED_EDGE ( 'NONE', *, *, #341, .T. ) ;
#112 = EDGE_CURVE ( 'NONE', #80, #301, #103, .T. ) ;
#113 = DIRECTION ( 'NONE',  ( 1.000000000000000000, 0.000000000000000000, -0.000000000000000000 ) ) ;
#114 = DATE_TIME_ROLE ( 'creation_date' ) ;
#115 = FACE_OUTER_BOUND ( 'NONE', #93, .T. ) ;
#116 = ORIENTED_EDGE ( 'NONE', *, *, #195, .F. ) ;
#117 = AXIS2_PLACEMENT_3D ( 'NONE', #24, #321, #317 ) ;
#118 = DIRECTION ( 'NONE',  ( 0.000000000000000000, 0.000000000000000000, 1.000000000000000000 ) ) ;
#119 = CC_DESIGN_APPROVAL ( #76, ( #280 ) ) ;
#120 = ORIENTED_EDGE ( 'NONE', *, *, #327, .T. ) ;
#121 = CARTESIAN_POINT ( 'NONE',  ( 0.000000000000000000, 0.000000000000000000, 5.000000000000000000 ) ) ;
#122 = AXIS2_PLACEMENT_3D ( 'NONE', #271, #44, #85 ) ;
#123 = ORIENTED_EDGE ( 'NONE', *, *, #341, .F. ) ;
#124 = CARTESIAN_POINT ( 'NONE',  ( 0.000000000000000000, 0.000000000000000000, 305.0000000000000000 ) ) ;
#125 = CARTESIAN_POINT ( 'NONE',  ( 0.000000000000000000, 0.000000000000000000, 0.000000000000000000 ) ) ;
#126 = AXIS2_PLACEMENT_3D ( 'NONE', #71, #329, #212 ) ;
#127 = CARTESIAN_POINT ( 'NONE',  ( 0.000000000000000000, 0.000000000000000000, 0.000000000000000000 ) ) ;
#128 = EDGE_CURVE ( 'NONE', #204, #301, #201, .T. ) ;
#129 = CARTESIAN_POINT ( 'NONE',  ( 0.000000000000000000, 0.000000000000000000, 5.000000000000000000 ) ) ;
#130 = ADVANCED_FACE ( 'NONE', ( #220 ), #145, .T. ) ;
#131 = AXIS2_PLACEMENT_3D ( 'NONE', #171, #91, #56 ) ;
#132 = AXIS2_PLACEMENT_3D ( 'NONE', #67, #357, #360 ) ;
#133 = EDGE_LOOP ( 'NONE', ( #48, #315, #297, #190 ) ) ;
#134 = DIRECTION ( 'NONE',  ( -0.000000000000000000, -0.000000000000000000, -1.000000000000000000 ) ) ;
#135 = ORIENTED_EDGE ( 'NONE', *, *, #347, .F. ) ;
#136 = APPROVAL_DATE_TIME ( #101, #6 ) ;
#137 = EDGE_LOOP ( 'NONE', ( #140, #299 ) ) ;
#138 = EDGE_CURVE ( 'NONE', #63, #204, #1, .T. ) ;
#139 = SHAPE_DEFINITION_REPRESENTATION ( #53, #262 ) ;
#140 = ORIENTED_EDGE ( 'NONE', *, *, #36, .F. ) ;
#141 = CALENDAR_DATE ( 2022, 8, 7 ) ;
#142 = CARTESIAN_POINT ( 'NONE',  ( 3.000000000000000444, 3.673940397442060361E-16, 0.000000000000000000 ) ) ;
#143 = VERTEX_POINT ( 'NONE', #169 ) ;
#144 = DATE_TIME_ROLE ( 'classification_date' ) ;
#145 = CYLINDRICAL_SURFACE ( 'NONE', #180, 5.000000000000000000 ) ;
#146 = AXIS2_PLACEMENT_3D ( 'NONE', #125, #150, #240 ) ;
#147 = FACE_OUTER_BOUND ( 'NONE', #133, .T. ) ;
#148 = ORIENTED_EDGE ( 'NONE', *, *, #128, .T. ) ;
#149 = CYLINDRICAL_SURFACE ( 'NONE', #161, 5.000000000000000000 ) ;
#150 = DIRECTION ( 'NONE',  ( 0.000000000000000000, 0.000000000000000000, 1.000000000000000000 ) ) ;
#151 = ADVANCED_FACE ( 'NONE', ( #279 ), #174, .F. ) ;
#152 = CARTESIAN_POINT ( 'NONE',  ( 0.000000000000000000, 0.000000000000000000, 5.000000000000000000 ) ) ;
#153 = CARTESIAN_POINT ( 'NONE',  ( 0.000000000000000000, 0.000000000000000000, 0.000000000000000000 ) ) ;
#154 = DIRECTION ( 'NONE',  ( 0.000000000000000000, 0.000000000000000000, 1.000000000000000000 ) ) ;
#155 = VECTOR ( 'NONE', #249, 1000.000000000000000 ) ;
#156 = CIRCLE ( 'NONE', #292, 3.000000000000000444 ) ;
#157 = ADVANCED_FACE ( 'NONE', ( #277, #202 ), #275, .F. ) ;
#158 = CC_DESIGN_PERSON_AND_ORGANIZATION_ASSIGNMENT ( #355, #37, ( #225 ) ) ;
#159 = DIRECTION ( 'NONE',  ( -0.000000000000000000, -0.000000000000000000, -1.000000000000000000 ) ) ;
#160 = ORIENTED_EDGE ( 'NONE', *, *, #100, .F. ) ;
#161 = AXIS2_PLACEMENT_3D ( 'NONE', #124, #235, #350 ) ;
#162 = CIRCLE ( 'NONE', #254, 5.000000000000000000 ) ;
#163 = DIRECTION ( 'NONE',  ( 0.000000000000000000, 0.000000000000000000, -1.000000000000000000 ) ) ;
#164 = EDGE_LOOP ( 'NONE', ( #120, #216 ) ) ;
#165 = CARTESIAN_POINT ( 'NONE',  ( 5.000000000000000000, 6.123233995736766282E-16, 305.0000000000000000 ) ) ;
#166 = ORIENTED_EDGE ( 'NONE', *, *, #353, .F. ) ;
#167 = DIRECTION ( 'NONE',  ( 0.000000000000000000, 0.000000000000000000, 1.000000000000000000 ) ) ;
#168 = VERTEX_POINT ( 'NONE', #206 ) ;
#169 = CARTESIAN_POINT ( 'NONE',  ( -8.000000000000000000, 0.000000000000000000, 0.000000000000000000 ) ) ;
#170 = VECTOR ( 'NONE', #163, 1000.000000000000000 ) ;
#171 = CARTESIAN_POINT ( 'NONE',  ( 0.000000000000000000, 0.000000000000000000, 305.0000000000000000 ) ) ;
#172 = PLANE ( 'NONE',  #319 ) ;
#173 = AXIS2_PLACEMENT_3D ( 'NONE', #61, #5, #7 ) ;
#174 = CYLINDRICAL_SURFACE ( 'NONE', #131, 3.000000000000000444 ) ;
#175 = VECTOR ( 'NONE', #257, 1000.000000000000000 ) ;
#176 = DIRECTION ( 'NONE',  ( 0.000000000000000000, 0.000000000000000000, 1.000000000000000000 ) ) ;
#177 = DIRECTION ( 'NONE',  ( -0.000000000000000000, -0.000000000000000000, -1.000000000000000000 ) ) ;
#178 = CARTESIAN_POINT ( 'NONE',  ( 0.000000000000000000, 0.000000000000000000, 305.0000000000000000 ) ) ;
#179 = DIRECTION ( 'NONE',  ( 1.000000000000000000, 0.000000000000000000, 0.000000000000000000 ) ) ;
#180 = AXIS2_PLACEMENT_3D ( 'NONE', #230, #346, #92 ) ;
#181 = ADVANCED_FACE ( 'NONE', ( #115 ), #149, .T. ) ;
#182 =( NAMED_UNIT ( * ) SI_UNIT ( $, .STERADIAN. ) SOLID_ANGLE_UNIT ( ) );
#183 = EDGE_CURVE ( 'NONE', #369, #30, #363, .T. ) ;
#184 = APPROVAL_ROLE ( '' ) ;
#185 = UNCERTAINTY_MEASURE_WITH_UNIT (LENGTH_MEASURE( 1.000000000000000082E-05 ), #34, 'distance_accuracy_value', 'NONE');
#186 = CARTESIAN_POINT ( 'NONE',  ( -3.000000000000000444, 0.000000000000000000, 305.0000000000000000 ) ) ;
#187 = DIRECTION ( 'NONE',  ( 0.000000000000000000, 0.000000000000000000, 1.000000000000000000 ) ) ;
#188 = CARTESIAN_POINT ( 'NONE',  ( -3.000000000000000444, 0.000000000000000000, 305.0000000000000000 ) ) ;
#189 = DIRECTION ( 'NONE',  ( 0.000000000000000000, 0.000000000000000000, 1.000000000000000000 ) ) ;
#190 = ORIENTED_EDGE ( 'NONE', *, *, #376, .F. ) ;
#191 = CLOSED_SHELL ( 'NONE', ( #313, #70, #130, #324, #305, #21, #157, #181, #213, #228, #151 ) ) ;
#192 = LINE ( 'NONE', #77, #104 ) ;
#193 = DATE_AND_TIME ( #3, #274 ) ;
#194 = DIRECTION ( 'NONE',  ( 0.000000000000000000, 0.000000000000000000, 1.000000000000000000 ) ) ;
#195 = EDGE_CURVE ( 'NONE', #30, #318, #109, .T. ) ;
#196 = DATE_AND_TIME ( #229, #81 ) ;
#197 = CC_DESIGN_PERSON_AND_ORGANIZATION_ASSIGNMENT ( #330, #223, ( #261 ) ) ;
#198 = AXIS2_PLACEMENT_3D ( 'NONE', #153, #154, #356 ) ;
#199 = DIRECTION ( 'NONE',  ( 0.000000000000000000, 0.000000000000000000, 1.000000000000000000 ) ) ;
#200 = DATE_AND_TIME ( #141, #110 ) ;
#201 = CIRCLE ( 'NONE', #283, 3.000000000000000444 ) ;
#202 = FACE_OUTER_BOUND ( 'NONE', #282, .T. ) ;
#203 = DIRECTION ( 'NONE',  ( 1.000000000000000000, 0.000000000000000000, 0.000000000000000000 ) ) ;
#204 = VERTEX_POINT ( 'NONE', #142 ) ;
#205 = AXIS2_PLACEMENT_3D ( 'NONE', #381, #118, #32 ) ;
#206 = CARTESIAN_POINT ( 'NONE',  ( -5.000000000000000000, 0.000000000000000000, 305.0000000000000000 ) ) ;
#207 = ORIENTED_EDGE ( 'NONE', *, *, #112, .T. ) ;
#208 = AXIS2_PLACEMENT_3D ( 'NONE', #224, #189, #364 ) ;
#209 = DIRECTION ( 'NONE',  ( 1.000000000000000000, 0.000000000000000000, 0.000000000000000000 ) ) ;
#210 = MECHANICAL_CONTEXT ( 'NONE', #74, 'mechanical' ) ;
#211 = AXIS2_PLACEMENT_3D ( 'NONE', #284, #194, #57 ) ;
#212 = DIRECTION ( 'NONE',  ( 1.000000000000000000, 0.000000000000000000, 0.000000000000000000 ) ) ;
#213 = ADVANCED_FACE ( 'NONE', ( #248, #226 ), #172, .T. ) ;
#214 = APPROVAL_ROLE ( '' ) ;
#215 = CARTESIAN_POINT ( 'NONE',  ( -8.000000000000000000, 0.000000000000000000, 5.000000000000000000 ) ) ;
#216 = ORIENTED_EDGE ( 'NONE', *, *, #278, .T. ) ;
#217 = ORIENTED_EDGE ( 'NONE', *, *, #38, .T. ) ;
#218 = DIRECTION ( 'NONE',  ( -0.000000000000000000, -0.000000000000000000, -1.000000000000000000 ) ) ;
#219 = EDGE_CURVE ( 'NONE', #168, #369, #351, .T. ) ;
#220 = FACE_OUTER_BOUND ( 'NONE', #15, .T. ) ;
#221 = ORIENTED_EDGE ( 'NONE', *, *, #314, .T. ) ;
#222 = CIRCLE ( 'NONE', #14, 8.000000000000000000 ) ;
#223 = PERSON_AND_ORGANIZATION_ROLE ( 'creator' ) ;
#224 = CARTESIAN_POINT ( 'NONE',  ( 0.000000000000000000, 0.000000000000000000, 5.500000000000005329 ) ) ;
#225 = PRODUCT ( 'c25e', 'c25e', '', ( #210 ) ) ;
#226 = FACE_OUTER_BOUND ( 'NONE', #164, .T. ) ;
#227 = ORIENTED_EDGE ( 'NONE', *, *, #347, .T. ) ;
#228 = ADVANCED_FACE ( 'NONE', ( #147 ), #368, .F. ) ;
#229 = CALENDAR_DATE ( 2022, 8, 7 ) ;
#230 = CARTESIAN_POINT ( 'NONE',  ( 0.000000000000000000, 0.000000000000000000, 305.0000000000000000 ) ) ;
#231 = EDGE_LOOP ( 'NONE', ( #160, #135, #217, #221 ) ) ;
#232 = PERSON_AND_ORGANIZATION_ROLE ( 'classification_officer' ) ;
#233 = DIRECTION ( 'NONE',  ( 1.000000000000000000, 0.000000000000000000, -0.000000000000000000 ) ) ;
#234 = DIRECTION ( 'NONE',  ( -0.000000000000000000, -0.000000000000000000, -1.000000000000000000 ) ) ;
#235 = DIRECTION ( 'NONE',  ( -0.000000000000000000, -0.000000000000000000, -1.000000000000000000 ) ) ;
#236 = CARTESIAN_POINT ( 'NONE',  ( 0.000000000000000000, 0.000000000000000000, 5.000000000000000000 ) ) ;
#237 = CC_DESIGN_PERSON_AND_ORGANIZATION_ASSIGNMENT ( #88, #41, ( #280 ) ) ;
#238 = EDGE_CURVE ( 'NONE', #63, #80, #95, .T. ) ;
#239 = MANIFOLD_SOLID_BREP ( 'Odebrat vysunutím3', #191 ) ;
#240 = DIRECTION ( 'NONE',  ( 1.000000000000000000, 0.000000000000000000, 0.000000000000000000 ) ) ;
#241 = DESIGN_CONTEXT ( 'detailed design', #345, 'design' ) ;
#242 = DIRECTION ( 'NONE',  ( -0.000000000000000000, -0.000000000000000000, -1.000000000000000000 ) ) ;
#243 = CIRCLE ( 'NONE', #211, 5.000000000000000000 ) ;
#244 = EDGE_CURVE ( 'NONE', #45, #87, #354, .T. ) ;
#245 = ORIENTED_EDGE ( 'NONE', *, *, #100, .T. ) ;
#246 = ORIENTED_EDGE ( 'NONE', *, *, #183, .T. ) ;
#247 = EDGE_LOOP ( 'NONE', ( #250, #309, #18, #116 ) ) ;
#248 = FACE_BOUND ( 'NONE', #137, .T. ) ;
#249 = DIRECTION ( 'NONE',  ( -0.000000000000000000, -0.000000000000000000, -1.000000000000000000 ) ) ;
#250 = ORIENTED_EDGE ( 'NONE', *, *, #183, .F. ) ;
#251 = FACE_OUTER_BOUND ( 'NONE', #339, .T. ) ;
#252 = ORIENTED_EDGE ( 'NONE', *, *, #244, .T. ) ;
#253 = CC_DESIGN_PERSON_AND_ORGANIZATION_ASSIGNMENT ( #361, #273, ( #280 ) ) ;
#254 = AXIS2_PLACEMENT_3D ( 'NONE', #178, #322, #289 ) ;
#255 = CARTESIAN_POINT ( 'NONE',  ( -5.000000000000000000, 0.000000000000000000, 305.0000000000000000 ) ) ;
#256 = ORIENTED_EDGE ( 'NONE', *, *, #38, .F. ) ;
#257 = DIRECTION ( 'NONE',  ( 0.000000000000000000, 0.000000000000000000, -1.000000000000000000 ) ) ;
#258 = ORIENTED_EDGE ( 'NONE', *, *, #219, .T. ) ;
#259 =( NAMED_UNIT ( * ) PLANE_ANGLE_UNIT ( ) SI_UNIT ( $, .RADIAN. ) );
#260 = LOCAL_TIME ( 16, 57, 21.00000000000000000, #304 ) ;
#261 = PRODUCT_DEFINITION ( 'NEZNÁMÝ', '', #280, #241 ) ;
#262 = ADVANCED_BREP_SHAPE_REPRESENTATION ( 'c25e', ( #239, #198 ), #4 ) ;
#263 = AXIS2_PLACEMENT_3D ( 'NONE', #31, #29, #233 ) ;
#264 = APPROVAL_STATUS ( 'not_yet_approved' ) ;
#265 = SECURITY_CLASSIFICATION ( '', '', #83 ) ;
#266 = CARTESIAN_POINT ( 'NONE',  ( 8.000000000000000000, 9.797174393178825657E-16, 5.000000000000000000 ) ) ;
#267 = EDGE_LOOP ( 'NONE', ( #272, #108, #207, #78 ) ) ;
#268 = AXIS2_PLACEMENT_3D ( 'NONE', #316, #372, #94 ) ;
#269 = DIRECTION ( 'NONE',  ( 1.000000000000000000, 0.000000000000000000, 0.000000000000000000 ) ) ;
#270 = PERSON_AND_ORGANIZATION ( #286, #55 ) ;
#271 = CARTESIAN_POINT ( 'NONE',  ( -5.500000000000000000, 6.735557395310442023E-16, 5.500000000000005329 ) ) ;
#272 = ORIENTED_EDGE ( 'NONE', *, *, #138, .F. ) ;
#273 = PERSON_AND_ORGANIZATION_ROLE ( 'design_supplier' ) ;
#274 = LOCAL_TIME ( 16, 57, 21.00000000000000000, #10 ) ;
#275 = PLANE ( 'NONE',  #263 ) ;
#276 = CIRCLE ( 'NONE', #365, 3.000000000000000444 ) ;
#277 = FACE_BOUND ( 'NONE', #106, .T. ) ;
#278 = EDGE_CURVE ( 'NONE', #59, #168, #243, .T. ) ;
#279 = FACE_OUTER_BOUND ( 'NONE', #267, .T. ) ;
#280 = PRODUCT_DEFINITION_FORMATION_WITH_SPECIFIED_SOURCE ( 'LIBOVOLNÝ', '', #225, .NOT_KNOWN. ) ;
#281 = CARTESIAN_POINT ( 'NONE',  ( 0.000000000000000000, 0.000000000000000000, 305.0000000000000000 ) ) ;
#282 = EDGE_LOOP ( 'NONE', ( #26, #123 ) ) ;
#283 = AXIS2_PLACEMENT_3D ( 'NONE', #16, #134, #107 ) ;
#284 = CARTESIAN_POINT ( 'NONE',  ( 0.000000000000000000, 0.000000000000000000, 305.0000000000000000 ) ) ;
#285 = CYLINDRICAL_SURFACE ( 'NONE', #132, 8.000000000000000000 ) ;
#286 = PERSON ( 'NEURÈENÝ', 'NEURÈENÝ', 'NEURÈENÝ', ('NEURÈENÝ'), ('NEURÈENÝ'), ('NEURÈENÝ') ) ;
#287 = DIRECTION ( 'NONE',  ( 0.000000000000000000, 0.000000000000000000, 1.000000000000000000 ) ) ;
#288 = VECTOR ( 'NONE', #218, 1000.000000000000000 ) ;
#289 = DIRECTION ( 'NONE',  ( 1.000000000000000000, 0.000000000000000000, 0.000000000000000000 ) ) ;
#290 = AXIS2_PLACEMENT_3D ( 'NONE', #89, #199, #203 ) ;
#291 = DIRECTION ( 'NONE',  ( 1.000000000000000000, 0.000000000000000000, 0.000000000000000000 ) ) ;
#292 = AXIS2_PLACEMENT_3D ( 'NONE', #127, #35, #179 ) ;
#293 = ORIENTED_EDGE ( 'NONE', *, *, #128, .F. ) ;
#294 = ORIENTED_EDGE ( 'NONE', *, *, #36, .T. ) ;
#295 = DIRECTION ( 'NONE',  ( 0.000000000000000000, 0.000000000000000000, 1.000000000000000000 ) ) ;
#296 = ORIENTED_EDGE ( 'NONE', *, *, #244, .F. ) ;
#297 = ORIENTED_EDGE ( 'NONE', *, *, #195, .T. ) ;
#298 = AXIS2_PLACEMENT_3D ( 'NONE', #342, #377, #86 ) ;
#299 = ORIENTED_EDGE ( 'NONE', *, *, #238, .F. ) ;
#300 = APPROVAL_ROLE ( '' ) ;
#301 = VERTEX_POINT ( 'NONE', #28 ) ;
#302 = EDGE_LOOP ( 'NONE', ( #227, #252 ) ) ;
#303 = CC_DESIGN_DATE_AND_TIME_ASSIGNMENT ( #196, #114, ( #261 ) ) ;
#304 = COORDINATED_UNIVERSAL_TIME_OFFSET ( 1, 0, .AHEAD. ) ;
#305 = ADVANCED_FACE ( 'NONE', ( #54 ), #308, .T. ) ;
#306 = PLANE ( 'NONE',  #373 ) ;
#307 = ORIENTED_EDGE ( 'NONE', *, *, #278, .F. ) ;
#308 = CYLINDRICAL_SURFACE ( 'NONE', #338, 8.000000000000000000 ) ;
#309 = ORIENTED_EDGE ( 'NONE', *, *, #60, .T. ) ;
#310 = CIRCLE ( 'NONE', #126, 5.500000000000000000 ) ;
#311 = COORDINATED_UNIVERSAL_TIME_OFFSET ( 1, 0, .AHEAD. ) ;
#312 = DIRECTION ( 'NONE',  ( -1.000000000000000000, 0.000000000000000000, 0.000000000000000000 ) ) ;
#313 = ADVANCED_FACE ( 'NONE', ( #251 ), #380, .F. ) ;
#314 = EDGE_CURVE ( 'NONE', #143, #82, #72, .T. ) ;
#315 = ORIENTED_EDGE ( 'NONE', *, *, #12, .F. ) ;
#316 = CARTESIAN_POINT ( 'NONE',  ( 0.000000000000000000, 0.000000000000000000, 5.500000000000005329 ) ) ;
#317 = DIRECTION ( 'NONE',  ( 0.000000000000000000, 0.000000000000000000, -1.000000000000000000 ) ) ;
#318 = VERTEX_POINT ( 'NONE', #99 ) ;
#319 = AXIS2_PLACEMENT_3D ( 'NONE', #281, #176, #113 ) ;
#320 = CC_DESIGN_SECURITY_CLASSIFICATION ( #265, ( #280 ) ) ;
#321 = DIRECTION ( 'NONE',  ( 0.000000000000000000, -1.000000000000000000, 0.000000000000000000 ) ) ;
#322 = DIRECTION ( 'NONE',  ( 0.000000000000000000, 0.000000000000000000, 1.000000000000000000 ) ) ;
#323 = FACE_OUTER_BOUND ( 'NONE', #348, .T. ) ;
#324 = ADVANCED_FACE ( 'NONE', ( #323 ), #285, .T. ) ;
#325 = CIRCLE ( 'NONE', #98, 5.500000000000000000 ) ;
#326 = APPROVAL_PERSON_ORGANIZATION ( #359, #23, #184 ) ;
#327 = EDGE_CURVE ( 'NONE', #168, #59, #162, .T. ) ;
#328 = AXIS2_PLACEMENT_3D ( 'NONE', #50, #167, #362 ) ;
#329 = DIRECTION ( 'NONE',  ( -0.000000000000000000, -0.000000000000000000, -1.000000000000000000 ) ) ;
#330 = PERSON_AND_ORGANIZATION ( #286, #55 ) ;
#331 = CARTESIAN_POINT ( 'NONE',  ( 0.000000000000000000, 0.000000000000000000, 305.0000000000000000 ) ) ;
#332 = EDGE_CURVE ( 'NONE', #318, #33, #310, .T. ) ;
#333 = TOROIDAL_SURFACE ( 'NONE', #328, 5.500000000000000000, 0.5000000000000000000 ) ;
#334 = CARTESIAN_POINT ( 'NONE',  ( 5.000000000000000000, 6.123233995736766282E-16, 5.500000000000005329 ) ) ;
#335 = EDGE_LOOP ( 'NONE', ( #378, #43 ) ) ;
#336 = FACE_OUTER_BOUND ( 'NONE', #247, .T. ) ;
#337 = ORIENTED_EDGE ( 'NONE', *, *, #2, .T. ) ;
#338 = AXIS2_PLACEMENT_3D ( 'NONE', #121, #234, #312 ) ;
#339 = EDGE_LOOP ( 'NONE', ( #294, #42, #148, #343 ) ) ;
#340 = FACE_OUTER_BOUND ( 'NONE', #302, .T. ) ;
#341 = EDGE_CURVE ( 'NONE', #82, #143, #222, .T. ) ;
#342 = CARTESIAN_POINT ( 'NONE',  ( 0.000000000000000000, 0.000000000000000000, 5.000000000000000000 ) ) ;
#343 = ORIENTED_EDGE ( 'NONE', *, *, #112, .F. ) ;
#344 = APPROVAL_DATE_TIME ( #27, #76 ) ;
#345 = APPLICATION_CONTEXT ( 'configuration controlled 3d designs of mechanical parts and assemblies' ) ;
#346 = DIRECTION ( 'NONE',  ( -0.000000000000000000, -0.000000000000000000, -1.000000000000000000 ) ) ;
#347 = EDGE_CURVE ( 'NONE', #87, #45, #46, .T. ) ;
#348 = EDGE_LOOP ( 'NONE', ( #296, #245, #111, #256 ) ) ;
#349 = COORDINATED_UNIVERSAL_TIME_OFFSET ( 1, 0, .AHEAD. ) ;
#350 = DIRECTION ( 'NONE',  ( -1.000000000000000000, 0.000000000000000000, 0.000000000000000000 ) ) ;
#351 = LINE ( 'NONE', #255, #155 ) ;
#352 = CARTESIAN_POINT ( 'NONE',  ( 3.000000000000000444, 3.673940397442060361E-16, 305.0000000000000000 ) ) ;
#353 = EDGE_CURVE ( 'NONE', #301, #204, #156, .T. ) ;
#354 = CIRCLE ( 'NONE', #298, 8.000000000000000000 ) ;
#355 = PERSON_AND_ORGANIZATION ( #286, #55 ) ;
#356 = DIRECTION ( 'NONE',  ( 1.000000000000000000, 0.000000000000000000, 0.000000000000000000 ) ) ;
#357 = DIRECTION ( 'NONE',  ( -0.000000000000000000, -0.000000000000000000, -1.000000000000000000 ) ) ;
#358 = AXIS2_PLACEMENT_3D ( 'NONE', #236, #69, #209 ) ;
#359 = PERSON_AND_ORGANIZATION ( #286, #55 ) ;
#360 = DIRECTION ( 'NONE',  ( -1.000000000000000000, 0.000000000000000000, 0.000000000000000000 ) ) ;
#361 = PERSON_AND_ORGANIZATION ( #286, #55 ) ;
#362 = DIRECTION ( 'NONE',  ( 1.000000000000000000, 0.000000000000000000, 0.000000000000000000 ) ) ;
#363 = CIRCLE ( 'NONE', #268, 5.000000000000000000 ) ;
#364 = DIRECTION ( 'NONE',  ( 1.000000000000000000, 0.000000000000000000, 0.000000000000000000 ) ) ;
#365 = AXIS2_PLACEMENT_3D ( 'NONE', #331, #295, #269 ) ;
#366 = CARTESIAN_POINT ( 'NONE',  ( -5.500000000000000000, 6.735557395310442023E-16, 5.000000000000002665 ) ) ;
#367 = CARTESIAN_POINT ( 'NONE',  ( 3.000000000000000444, 3.673940397442060361E-16, 305.0000000000000000 ) ) ;
#368 = TOROIDAL_SURFACE ( 'NONE', #205, 5.500000000000000000, 0.5000000000000000000 ) ;
#369 = VERTEX_POINT ( 'NONE', #65 ) ;
#370 = APPROVAL_PERSON_ORGANIZATION ( #90, #6, #214 ) ;
#371 = ORIENTED_EDGE ( 'NONE', *, *, #2, .F. ) ;
#372 = DIRECTION ( 'NONE',  ( 0.000000000000000000, 0.000000000000000000, 1.000000000000000000 ) ) ;
#373 = AXIS2_PLACEMENT_3D ( 'NONE', #129, #187, #47 ) ;
#374 = ORIENTED_EDGE ( 'NONE', *, *, #327, .F. ) ;
#375 = PERSON_AND_ORGANIZATION ( #286, #55 ) ;
#376 = EDGE_CURVE ( 'NONE', #33, #318, #325, .T. ) ;
#377 = DIRECTION ( 'NONE',  ( 0.000000000000000000, 0.000000000000000000, 1.000000000000000000 ) ) ;
#378 = ORIENTED_EDGE ( 'NONE', *, *, #332, .T. ) ;
#379 = CC_DESIGN_DATE_AND_TIME_ASSIGNMENT ( #200, #144, ( #265 ) ) ;
#380 = CYLINDRICAL_SURFACE ( 'NONE', #173, 3.000000000000000444 ) ;
#381 = CARTESIAN_POINT ( 'NONE',  ( 0.000000000000000000, 0.000000000000000000, 5.500000000000005329 ) ) ;
ENDSEC;
END-ISO-10303-21;
