ISO-10303-21;
HEADER;
FILE_DESCRIPTION (( 'STEP AP203' ),
    '1' );
FILE_NAME ('5d9e.STEP',
    '2022-07-08T14:19:14',
    ( '' ),
    ( '' ),
    'SwSTEP 2.0',
    'SolidWorks 2019',
    '' );
FILE_SCHEMA (( 'CONFIG_CONTROL_DESIGN' ));
ENDSEC;

DATA;
#1 =( NAMED_UNIT ( * ) PLANE_ANGLE_UNIT ( ) SI_UNIT ( $, .RADIAN. ) );
#2 = DIRECTION ( 'NONE',  ( -1.000000000000000000, 0.000000000000000000, 0.000000000000000000 ) ) ;
#3 = ORIENTED_EDGE ( 'NONE', *, *, #315, .F. ) ;
#4 = CIRCLE ( 'NONE', #59, 8.000000000000000000 ) ;
#5 = CC_DESIGN_APPROVAL ( #214, ( #279 ) ) ;
#6 = EDGE_CURVE ( 'NONE', #236, #358, #224, .T. ) ;
#7 = CARTESIAN_POINT ( 'NONE',  ( 0.000000000000000000, 0.000000000000000000, 307.0000000000000000 ) ) ;
#8 = CALENDAR_DATE ( 2022, 8, 7 ) ;
#9 = EDGE_CURVE ( 'NONE', #50, #160, #312, .T. ) ;
#10 = CARTESIAN_POINT ( 'NONE',  ( 6.000000000000000888, 7.347880794884120722E-16, 307.0000000000000000 ) ) ;
#11 = AXIS2_PLACEMENT_3D ( 'NONE', #347, #61, #83 ) ;
#12 = ORIENTED_EDGE ( 'NONE', *, *, #180, .F. ) ;
#13 = COORDINATED_UNIVERSAL_TIME_OFFSET ( 1, 0, .AHEAD. ) ;
#14 = EDGE_LOOP ( 'NONE', ( #373, #203, #174, #268 ) ) ;
#15 = FACE_OUTER_BOUND ( 'NONE', #341, .T. ) ;
#16 = CC_DESIGN_PERSON_AND_ORGANIZATION_ASSIGNMENT ( #90, #198, ( #279 ) ) ;
#17 = CARTESIAN_POINT ( 'NONE',  ( 0.000000000000000000, 0.000000000000000000, 7.699999999999985079 ) ) ;
#18 = CIRCLE ( 'NONE', #138, 8.699999999999999289 ) ;
#19 = ORIENTED_EDGE ( 'NONE', *, *, #185, .T. ) ;
#20 = CARTESIAN_POINT ( 'NONE',  ( -6.000000000000000888, 0.000000000000000000, 0.000000000000000000 ) ) ;
#21 = FACE_OUTER_BOUND ( 'NONE', #128, .T. ) ;
#22 = CARTESIAN_POINT ( 'NONE',  ( 11.00000000000000000, 1.347111479062088405E-15, 7.000000000000000000 ) ) ;
#23 = EDGE_CURVE ( 'NONE', #75, #300, #86, .T. ) ;
#24 = CARTESIAN_POINT ( 'NONE',  ( 6.000000000000000888, 7.347880794884120722E-16, 0.000000000000000000 ) ) ;
#25 = APPLICATION_CONTEXT ( 'configuration controlled 3d designs of mechanical parts and assemblies' ) ;
#26 = AXIS2_PLACEMENT_3D ( 'NONE', #246, #108, #225 ) ;
#27 = CC_DESIGN_PERSON_AND_ORGANIZATION_ASSIGNMENT ( #49, #213, ( #215 ) ) ;
#28 = VECTOR ( 'NONE', #141, 1000.000000000000000 ) ;
#29 = CC_DESIGN_SECURITY_CLASSIFICATION ( #143, ( #215 ) ) ;
#30 = DIRECTION ( 'NONE',  ( 0.000000000000000000, 0.000000000000000000, 1.000000000000000000 ) ) ;
#31 = DIRECTION ( 'NONE',  ( 0.000000000000000000, 0.000000000000000000, 1.000000000000000000 ) ) ;
#32 = CYLINDRICAL_SURFACE ( 'NONE', #299, 8.000000000000000000 ) ;
#33 = EDGE_CURVE ( 'NONE', #243, #50, #4, .T. ) ;
#34 = COORDINATED_UNIVERSAL_TIME_OFFSET ( 1, 0, .AHEAD. ) ;
#35 = DIRECTION ( 'NONE',  ( 1.000000000000000000, 0.000000000000000000, 0.000000000000000000 ) ) ;
#36 = EDGE_LOOP ( 'NONE', ( #184, #337 ) ) ;
#37 = DATE_AND_TIME ( #8, #201 ) ;
#38 = DIRECTION ( 'NONE',  ( -1.000000000000000000, 0.000000000000000000, 0.000000000000000000 ) ) ;
#39 = ORIENTED_EDGE ( 'NONE', *, *, #66, .F. ) ;
#40 = DATE_AND_TIME ( #129, #114 ) ;
#41 = CARTESIAN_POINT ( 'NONE',  ( -8.699999999999999289, 1.065442715258197248E-15, 7.699999999999985079 ) ) ;
#42 = VERTEX_POINT ( 'NONE', #85 ) ;
#43 = DATE_AND_TIME ( #264, #254 ) ;
#44 = AXIS2_PLACEMENT_3D ( 'NONE', #47, #263, #167 ) ;
#45 = DIRECTION ( 'NONE',  ( 1.000000000000000000, 0.000000000000000000, 0.000000000000000000 ) ) ;
#46 = LOCAL_TIME ( 16, 19, 14.00000000000000000, #63 ) ;
#47 = CARTESIAN_POINT ( 'NONE',  ( 0.000000000000000000, 0.000000000000000000, 0.000000000000000000 ) ) ;
#48 = EDGE_CURVE ( 'NONE', #296, #42, #253, .T. ) ;
#49 = PERSON_AND_ORGANIZATION ( #267, #278 ) ;
#50 = VERTEX_POINT ( 'NONE', #310 ) ;
#51 = DIRECTION ( 'NONE',  ( -1.000000000000000000, 0.000000000000000000, 0.000000000000000000 ) ) ;
#52 = VECTOR ( 'NONE', #276, 1000.000000000000000 ) ;
#53 = DIRECTION ( 'NONE',  ( 1.000000000000000000, 0.000000000000000000, 0.000000000000000000 ) ) ;
#54 = CC_DESIGN_DATE_AND_TIME_ASSIGNMENT ( #288, #211, ( #279 ) ) ;
#55 = CARTESIAN_POINT ( 'NONE',  ( -11.00000000000000000, 0.000000000000000000, 7.000000000000000000 ) ) ;
#56 = CARTESIAN_POINT ( 'NONE',  ( 0.000000000000000000, 0.000000000000000000, 7.699999999999985079 ) ) ;
#57 = PRODUCT ( '5d9e', '5d9e', '', ( #206 ) ) ;
#58 = CARTESIAN_POINT ( 'NONE',  ( 0.000000000000000000, 0.000000000000000000, 0.000000000000000000 ) ) ;
#59 = AXIS2_PLACEMENT_3D ( 'NONE', #192, #314, #283 ) ;
#60 = APPROVAL_PERSON_ORGANIZATION ( #178, #330, #234 ) ;
#61 = DIRECTION ( 'NONE',  ( 0.000000000000000000, 0.000000000000000000, 1.000000000000000000 ) ) ;
#62 = AXIS2_PLACEMENT_3D ( 'NONE', #222, #343, #81 ) ;
#63 = COORDINATED_UNIVERSAL_TIME_OFFSET ( 1, 0, .AHEAD. ) ;
#64 = DIRECTION ( 'NONE',  ( -0.000000000000000000, -0.000000000000000000, -1.000000000000000000 ) ) ;
#65 = VERTEX_POINT ( 'NONE', #247 ) ;
#66 = EDGE_CURVE ( 'NONE', #75, #42, #112, .T. ) ;
#67 = CARTESIAN_POINT ( 'NONE',  ( -8.000000000000000000, 0.000000000000000000, 307.0000000000000000 ) ) ;
#68 = VERTEX_POINT ( 'NONE', #317 ) ;
#69 = ORIENTED_EDGE ( 'NONE', *, *, #48, .T. ) ;
#70 = CIRCLE ( 'NONE', #342, 8.699999999999999289 ) ;
#71 = CARTESIAN_POINT ( 'NONE',  ( 0.000000000000000000, 0.000000000000000000, 307.0000000000000000 ) ) ;
#72 = ORIENTED_EDGE ( 'NONE', *, *, #91, .F. ) ;
#73 = ORIENTED_EDGE ( 'NONE', *, *, #107, .T. ) ;
#74 = DIRECTION ( 'NONE',  ( -0.000000000000000000, -0.000000000000000000, -1.000000000000000000 ) ) ;
#75 = VERTEX_POINT ( 'NONE', #22 ) ;
#76 = ORIENTED_EDGE ( 'NONE', *, *, #204, .T. ) ;
#77 = EDGE_CURVE ( 'NONE', #118, #65, #18, .T. ) ;
#78 = DIRECTION ( 'NONE',  ( -0.000000000000000000, -0.000000000000000000, -1.000000000000000000 ) ) ;
#79 = AXIS2_PLACEMENT_3D ( 'NONE', #120, #95, #173 ) ;
#80 = ORIENTED_EDGE ( 'NONE', *, *, #287, .F. ) ;
#81 = DIRECTION ( 'NONE',  ( 0.000000000000000000, 0.000000000000000000, -1.000000000000000000 ) ) ;
#82 = ADVANCED_BREP_SHAPE_REPRESENTATION ( '5d9e', ( #321, #377 ), #199 ) ;
#83 = DIRECTION ( 'NONE',  ( 1.000000000000000000, 0.000000000000000000, 0.000000000000000000 ) ) ;
#84 = EDGE_CURVE ( 'NONE', #160, #65, #301, .T. ) ;
#85 = CARTESIAN_POINT ( 'NONE',  ( 11.00000000000000000, 1.347111479062088405E-15, 0.000000000000000000 ) ) ;
#86 = CIRCLE ( 'NONE', #169, 11.00000000000000000 ) ;
#87 = AXIS2_PLACEMENT_3D ( 'NONE', #311, #219, #53 ) ;
#88 = FACE_OUTER_BOUND ( 'NONE', #177, .T. ) ;
#89 = DIRECTION ( 'NONE',  ( 1.000000000000000000, 0.000000000000000000, 0.000000000000000000 ) ) ;
#90 = PERSON_AND_ORGANIZATION ( #267, #278 ) ;
#91 = EDGE_CURVE ( 'NONE', #160, #306, #207, .T. ) ;
#92 = AXIS2_PLACEMENT_3D ( 'NONE', #359, #64, #38 ) ;
#93 = FACE_OUTER_BOUND ( 'NONE', #103, .T. ) ;
#94 = CYLINDRICAL_SURFACE ( 'NONE', #346, 8.000000000000000000 ) ;
#95 = DIRECTION ( 'NONE',  ( 0.000000000000000000, 0.000000000000000000, -1.000000000000000000 ) ) ;
#96 = EDGE_LOOP ( 'NONE', ( #100, #115, #239, #181 ) ) ;
#97 = ADVANCED_FACE ( 'NONE', ( #93 ), #295, .T. ) ;
#98 = LOCAL_TIME ( 16, 19, 14.00000000000000000, #34 ) ;
#99 = APPROVAL_DATE_TIME ( #40, #245 ) ;
#100 = ORIENTED_EDGE ( 'NONE', *, *, #204, .F. ) ;
#101 = DIRECTION ( 'NONE',  ( 0.000000000000000000, 0.000000000000000000, 1.000000000000000000 ) ) ;
#102 = ADVANCED_FACE ( 'NONE', ( #322, #175 ), #286, .T. ) ;
#103 = EDGE_LOOP ( 'NONE', ( #308, #182, #218, #244 ) ) ;
#104 = AXIS2_PLACEMENT_3D ( 'NONE', #58, #228, #189 ) ;
#105 = CIRCLE ( 'NONE', #126, 11.00000000000000000 ) ;
#106 = ORIENTED_EDGE ( 'NONE', *, *, #23, .T. ) ;
#107 = EDGE_CURVE ( 'NONE', #243, #306, #151, .T. ) ;
#108 = DIRECTION ( 'NONE',  ( 0.000000000000000000, 0.000000000000000000, 1.000000000000000000 ) ) ;
#109 = AXIS2_PLACEMENT_3D ( 'NONE', #352, #381, #35 ) ;
#110 = DIRECTION ( 'NONE',  ( 1.000000000000000000, 0.000000000000000000, 0.000000000000000000 ) ) ;
#111 = PLANE ( 'NONE',  #26 ) ;
#112 = LINE ( 'NONE', #280, #28 ) ;
#113 = AXIS2_PLACEMENT_3D ( 'NONE', #196, #372, #190 ) ;
#114 = LOCAL_TIME ( 16, 19, 14.00000000000000000, #332 ) ;
#115 = ORIENTED_EDGE ( 'NONE', *, *, #180, .T. ) ;
#116 = CARTESIAN_POINT ( 'NONE',  ( 0.000000000000000000, 0.000000000000000000, 0.000000000000000000 ) ) ;
#117 = CARTESIAN_POINT ( 'NONE',  ( 8.000000000000000000, 9.797174393178825657E-16, 7.699999999999985079 ) ) ;
#118 = VERTEX_POINT ( 'NONE', #146 ) ;
#119 = AXIS2_PLACEMENT_3D ( 'NONE', #305, #187, #51 ) ;
#120 = CARTESIAN_POINT ( 'NONE',  ( 0.000000000000000000, 0.000000000000000000, 307.0000000000000000 ) ) ;
#121 = PRODUCT_RELATED_PRODUCT_CATEGORY ( 'detail', '', ( #57 ) ) ;
#122 = DIRECTION ( 'NONE',  ( 1.000000000000000000, 0.000000000000000000, -0.000000000000000000 ) ) ;
#123 = APPROVAL_STATUS ( 'not_yet_approved' ) ;
#124 = CARTESIAN_POINT ( 'NONE',  ( 0.000000000000000000, 0.000000000000000000, 7.000000000000000000 ) ) ;
#125 = ORIENTED_EDGE ( 'NONE', *, *, #274, .F. ) ;
#126 = AXIS2_PLACEMENT_3D ( 'NONE', #154, #205, #257 ) ;
#127 = FACE_BOUND ( 'NONE', #258, .T. ) ;
#128 = EDGE_LOOP ( 'NONE', ( #12, #72, #339, #371 ) ) ;
#129 = CALENDAR_DATE ( 2022, 8, 7 ) ;
#130 = EDGE_CURVE ( 'NONE', #325, #68, #150, .T. ) ;
#131 = EDGE_LOOP ( 'NONE', ( #152, #137 ) ) ;
#132 = PERSON_AND_ORGANIZATION_ROLE ( 'classification_officer' ) ;
#133 = DIRECTION ( 'NONE',  ( -1.000000000000000000, 1.224646799147353207E-16, 0.000000000000000000 ) ) ;
#134 = DIRECTION ( 'NONE',  ( 1.000000000000000000, 0.000000000000000000, 0.000000000000000000 ) ) ;
#135 = ORIENTED_EDGE ( 'NONE', *, *, #338, .T. ) ;
#136 = CC_DESIGN_DATE_AND_TIME_ASSIGNMENT ( #37, #362, ( #143 ) ) ;
#137 = ORIENTED_EDGE ( 'NONE', *, *, #77, .T. ) ;
#138 = AXIS2_PLACEMENT_3D ( 'NONE', #348, #197, #110 ) ;
#139 = CARTESIAN_POINT ( 'NONE',  ( 0.000000000000000000, 0.000000000000000000, 7.000000000000000000 ) ) ;
#140 = ADVANCED_FACE ( 'NONE', ( #324 ), #255, .F. ) ;
#141 = DIRECTION ( 'NONE',  ( -0.000000000000000000, -0.000000000000000000, -1.000000000000000000 ) ) ;
#142 = DIRECTION ( 'NONE',  ( -1.000000000000000000, 0.000000000000000000, 0.000000000000000000 ) ) ;
#143 = SECURITY_CLASSIFICATION ( '', '', #360 ) ;
#144 = ADVANCED_FACE ( 'NONE', ( #289 ), #32, .T. ) ;
#145 = FACE_OUTER_BOUND ( 'NONE', #364, .T. ) ;
#146 = CARTESIAN_POINT ( 'NONE',  ( -8.699999999999999289, 1.065442715258197248E-15, 6.999999999999992006 ) ) ;
#147 = DATE_AND_TIME ( #380, #98 ) ;
#148 = EDGE_CURVE ( 'NONE', #42, #296, #105, .T. ) ;
#149 = ORIENTED_EDGE ( 'NONE', *, *, #162, .F. ) ;
#150 = CIRCLE ( 'NONE', #109, 6.000000000000000888 ) ;
#151 = LINE ( 'NONE', #67, #361 ) ;
#152 = ORIENTED_EDGE ( 'NONE', *, *, #156, .T. ) ;
#153 = PERSON_AND_ORGANIZATION_ROLE ( 'creator' ) ;
#154 = CARTESIAN_POINT ( 'NONE',  ( 0.000000000000000000, 0.000000000000000000, 0.000000000000000000 ) ) ;
#155 = FACE_OUTER_BOUND ( 'NONE', #96, .T. ) ;
#156 = EDGE_CURVE ( 'NONE', #65, #118, #70, .T. ) ;
#157 = CIRCLE ( 'NONE', #353, 8.000000000000000000 ) ;
#158 = LINE ( 'NONE', #10, #194 ) ;
#159 = FACE_OUTER_BOUND ( 'NONE', #36, .T. ) ;
#160 = VERTEX_POINT ( 'NONE', #117 ) ;
#161 = COORDINATED_UNIVERSAL_TIME_OFFSET ( 1, 0, .AHEAD. ) ;
#162 = EDGE_CURVE ( 'NONE', #50, #243, #157, .T. ) ;
#163 = ORIENTED_EDGE ( 'NONE', *, *, #9, .F. ) ;
#164 = DESIGN_CONTEXT ( 'detailed design', #25, 'design' ) ;
#165 = EDGE_LOOP ( 'NONE', ( #270, #335, #135, #200 ) ) ;
#166 = CARTESIAN_POINT ( 'NONE',  ( -6.000000000000000888, 0.000000000000000000, 307.0000000000000000 ) ) ;
#167 = DIRECTION ( 'NONE',  ( 1.000000000000000000, 0.000000000000000000, 0.000000000000000000 ) ) ;
#168 = DIRECTION ( 'NONE',  ( 0.000000000000000000, 0.000000000000000000, 1.000000000000000000 ) ) ;
#169 = AXIS2_PLACEMENT_3D ( 'NONE', #139, #345, #379 ) ;
#170 = CIRCLE ( 'NONE', #171, 0.6999999999999992895 ) ;
#171 = AXIS2_PLACEMENT_3D ( 'NONE', #41, #240, #133 ) ;
#172 = CALENDAR_DATE ( 2022, 8, 7 ) ;
#173 = DIRECTION ( 'NONE',  ( -1.000000000000000000, 0.000000000000000000, 0.000000000000000000 ) ) ;
#174 = ORIENTED_EDGE ( 'NONE', *, *, #287, .T. ) ;
#175 = FACE_OUTER_BOUND ( 'NONE', #251, .T. ) ;
#176 = AXIS2_PLACEMENT_3D ( 'NONE', #179, #216, #238 ) ;
#177 = EDGE_LOOP ( 'NONE', ( #186, #210 ) ) ;
#178 = PERSON_AND_ORGANIZATION ( #267, #278 ) ;
#179 = CARTESIAN_POINT ( 'NONE',  ( 0.000000000000000000, 0.000000000000000000, 307.0000000000000000 ) ) ;
#180 = EDGE_CURVE ( 'NONE', #306, #118, #170, .T. ) ;
#181 = ORIENTED_EDGE ( 'NONE', *, *, #84, .F. ) ;
#182 = ORIENTED_EDGE ( 'NONE', *, *, #66, .T. ) ;
#183 = AXIS2_PLACEMENT_3D ( 'NONE', #259, #272, #45 ) ;
#184 = ORIENTED_EDGE ( 'NONE', *, *, #33, .T. ) ;
#185 = EDGE_CURVE ( 'NONE', #300, #296, #366, .T. ) ;
#186 = ORIENTED_EDGE ( 'NONE', *, *, #48, .F. ) ;
#187 = DIRECTION ( 'NONE',  ( 0.000000000000000000, 0.000000000000000000, -1.000000000000000000 ) ) ;
#188 = ORIENTED_EDGE ( 'NONE', *, *, #9, .T. ) ;
#189 = DIRECTION ( 'NONE',  ( 1.000000000000000000, 0.000000000000000000, 0.000000000000000000 ) ) ;
#190 = DIRECTION ( 'NONE',  ( 1.000000000000000000, 0.000000000000000000, 0.000000000000000000 ) ) ;
#191 = ADVANCED_FACE ( 'NONE', ( #155 ), #368, .F. ) ;
#192 = CARTESIAN_POINT ( 'NONE',  ( 0.000000000000000000, 0.000000000000000000, 307.0000000000000000 ) ) ;
#193 = CARTESIAN_POINT ( 'NONE',  ( -8.000000000000000000, 0.000000000000000000, 307.0000000000000000 ) ) ;
#194 = VECTOR ( 'NONE', #302, 1000.000000000000000 ) ;
#195 = EDGE_CURVE ( 'NONE', #68, #358, #158, .T. ) ;
#196 = CARTESIAN_POINT ( 'NONE',  ( 0.000000000000000000, 0.000000000000000000, 0.000000000000000000 ) ) ;
#197 = DIRECTION ( 'NONE',  ( -0.000000000000000000, -0.000000000000000000, -1.000000000000000000 ) ) ;
#198 = PERSON_AND_ORGANIZATION_ROLE ( 'creator' ) ;
#199 =( GEOMETRIC_REPRESENTATION_CONTEXT ( 3 ) GLOBAL_UNCERTAINTY_ASSIGNED_CONTEXT ( ( #307 ) ) GLOBAL_UNIT_ASSIGNED_CONTEXT ( ( #202, #1, #378 ) ) REPRESENTATION_CONTEXT ( 'NONE', 'WORKASPACE' ) );
#200 = ORIENTED_EDGE ( 'NONE', *, *, #6, .T. ) ;
#201 = LOCAL_TIME ( 16, 19, 14.00000000000000000, #161 ) ;
#202 =( LENGTH_UNIT ( ) NAMED_UNIT ( * ) SI_UNIT ( .MILLI., .METRE. ) );
#203 = ORIENTED_EDGE ( 'NONE', *, *, #195, .T. ) ;
#204 = EDGE_CURVE ( 'NONE', #306, #160, #284, .T. ) ;
#205 = DIRECTION ( 'NONE',  ( 0.000000000000000000, 0.000000000000000000, 1.000000000000000000 ) ) ;
#206 = MECHANICAL_CONTEXT ( 'NONE', #356, 'mechanical' ) ;
#207 = CIRCLE ( 'NONE', #237, 8.000000000000000000 ) ;
#208 = PERSON_AND_ORGANIZATION ( #267, #278 ) ;
#209 = ADVANCED_FACE ( 'NONE', ( #127, #159 ), #266, .T. ) ;
#210 = ORIENTED_EDGE ( 'NONE', *, *, #148, .F. ) ;
#211 = DATE_TIME_ROLE ( 'creation_date' ) ;
#212 = CARTESIAN_POINT ( 'NONE',  ( 0.000000000000000000, 0.000000000000000000, 7.000000000000000000 ) ) ;
#213 = PERSON_AND_ORGANIZATION_ROLE ( 'design_supplier' ) ;
#214 = APPROVAL ( #248, 'NEURÈENÝ' ) ;
#215 = PRODUCT_DEFINITION_FORMATION_WITH_SPECIFIED_SOURCE ( 'LIBOVOLNÝ', '', #57, .NOT_KNOWN. ) ;
#216 = DIRECTION ( 'NONE',  ( 0.000000000000000000, 0.000000000000000000, 1.000000000000000000 ) ) ;
#217 = DIRECTION ( 'NONE',  ( -1.000000000000000000, 0.000000000000000000, 0.000000000000000000 ) ) ;
#218 = ORIENTED_EDGE ( 'NONE', *, *, #148, .T. ) ;
#219 = DIRECTION ( 'NONE',  ( 0.000000000000000000, 0.000000000000000000, 1.000000000000000000 ) ) ;
#220 = ORIENTED_EDGE ( 'NONE', *, *, #91, .T. ) ;
#221 = CIRCLE ( 'NONE', #113, 6.000000000000000888 ) ;
#222 = CARTESIAN_POINT ( 'NONE',  ( 8.699999999999999289, 0.000000000000000000, 7.699999999999985079 ) ) ;
#223 = CARTESIAN_POINT ( 'NONE',  ( 0.000000000000000000, 0.000000000000000000, 7.699999999999985079 ) ) ;
#224 = CIRCLE ( 'NONE', #44, 6.000000000000000888 ) ;
#225 = DIRECTION ( 'NONE',  ( 1.000000000000000000, 0.000000000000000000, -0.000000000000000000 ) ) ;
#226 = AXIS2_PLACEMENT_3D ( 'NONE', #357, #30, #122 ) ;
#227 = DIRECTION ( 'NONE',  ( 0.000000000000000000, 0.000000000000000000, 1.000000000000000000 ) ) ;
#228 = DIRECTION ( 'NONE',  ( 0.000000000000000000, 0.000000000000000000, 1.000000000000000000 ) ) ;
#229 = CARTESIAN_POINT ( 'NONE',  ( 0.000000000000000000, 0.000000000000000000, 307.0000000000000000 ) ) ;
#230 = ADVANCED_FACE ( 'NONE', ( #15 ), #262, .T. ) ;
#231 = CIRCLE ( 'NONE', #87, 11.00000000000000000 ) ;
#232 = DIRECTION ( 'NONE',  ( -0.000000000000000000, -0.000000000000000000, -1.000000000000000000 ) ) ;
#233 = ADVANCED_FACE ( 'NONE', ( #241 ), #367, .F. ) ;
#234 = APPROVAL_ROLE ( '' ) ;
#235 = DIRECTION ( 'NONE',  ( -0.000000000000000000, -0.000000000000000000, -1.000000000000000000 ) ) ;
#236 = VERTEX_POINT ( 'NONE', #20 ) ;
#237 = AXIS2_PLACEMENT_3D ( 'NONE', #56, #168, #277 ) ;
#238 = DIRECTION ( 'NONE',  ( 1.000000000000000000, 0.000000000000000000, -0.000000000000000000 ) ) ;
#239 = ORIENTED_EDGE ( 'NONE', *, *, #156, .F. ) ;
#240 = DIRECTION ( 'NONE',  ( 1.224646799147353207E-16, 1.000000000000000000, -0.000000000000000000 ) ) ;
#241 = FACE_OUTER_BOUND ( 'NONE', #14, .T. ) ;
#242 = AXIS2_PLACEMENT_3D ( 'NONE', #212, #74, #217 ) ;
#243 = VERTEX_POINT ( 'NONE', #193 ) ;
#244 = ORIENTED_EDGE ( 'NONE', *, *, #185, .F. ) ;
#245 = APPROVAL ( #123, 'NEURÈENÝ' ) ;
#246 = CARTESIAN_POINT ( 'NONE',  ( 0.000000000000000000, 0.000000000000000000, 0.000000000000000000 ) ) ;
#247 = CARTESIAN_POINT ( 'NONE',  ( 8.699999999999999289, 0.000000000000000000, 6.999999999999992006 ) ) ;
#248 = APPROVAL_STATUS ( 'not_yet_approved' ) ;
#249 = PERSON_AND_ORGANIZATION_ROLE ( 'design_owner' ) ;
#250 = DIRECTION ( 'NONE',  ( -0.000000000000000000, -0.000000000000000000, -1.000000000000000000 ) ) ;
#251 = EDGE_LOOP ( 'NONE', ( #303, #106 ) ) ;
#252 = APPROVAL_DATE_TIME ( #147, #214 ) ;
#253 = CIRCLE ( 'NONE', #104, 11.00000000000000000 ) ;
#254 = LOCAL_TIME ( 16, 19, 14.00000000000000000, #13 ) ;
#255 = CYLINDRICAL_SURFACE ( 'NONE', #79, 6.000000000000000888 ) ;
#256 = PERSON_AND_ORGANIZATION ( #267, #278 ) ;
#257 = DIRECTION ( 'NONE',  ( 1.000000000000000000, 0.000000000000000000, 0.000000000000000000 ) ) ;
#258 = EDGE_LOOP ( 'NONE', ( #331, #125 ) ) ;
#259 = CARTESIAN_POINT ( 'NONE',  ( 0.000000000000000000, 0.000000000000000000, 7.699999999999985079 ) ) ;
#260 = EDGE_LOOP ( 'NONE', ( #320, #80 ) ) ;
#261 = VECTOR ( 'NONE', #78, 1000.000000000000000 ) ;
#262 = CYLINDRICAL_SURFACE ( 'NONE', #242, 11.00000000000000000 ) ;
#263 = DIRECTION ( 'NONE',  ( -0.000000000000000000, -0.000000000000000000, -1.000000000000000000 ) ) ;
#264 = CALENDAR_DATE ( 2022, 8, 7 ) ;
#265 = ADVANCED_FACE ( 'NONE', ( #376, #88 ), #111, .F. ) ;
#266 = PLANE ( 'NONE',  #176 ) ;
#267 = PERSON ( 'NEURÈENÝ', 'NEURÈENÝ', 'NEURÈENÝ', ('NEURÈENÝ'), ('NEURÈENÝ'), ('NEURÈENÝ') ) ;
#268 = ORIENTED_EDGE ( 'NONE', *, *, #338, .F. ) ;
#269 = APPROVAL_ROLE ( '' ) ;
#270 = ORIENTED_EDGE ( 'NONE', *, *, #195, .F. ) ;
#271 = CIRCLE ( 'NONE', #11, 6.000000000000000888 ) ;
#272 = DIRECTION ( 'NONE',  ( 0.000000000000000000, 0.000000000000000000, 1.000000000000000000 ) ) ;
#273 = ORIENTED_EDGE ( 'NONE', *, *, #33, .F. ) ;
#274 = EDGE_CURVE ( 'NONE', #68, #325, #271, .T. ) ;
#275 = PRODUCT_DEFINITION_SHAPE ( 'NONE', 'NONE',  #279 ) ;
#276 = DIRECTION ( 'NONE',  ( 0.000000000000000000, 0.000000000000000000, -1.000000000000000000 ) ) ;
#277 = DIRECTION ( 'NONE',  ( 1.000000000000000000, 0.000000000000000000, 0.000000000000000000 ) ) ;
#278 = ORGANIZATION ( 'NEURÈENÝ', 'NEURÈENÝ', '' ) ;
#279 = PRODUCT_DEFINITION ( 'NEZNÁMÝ', '', #215, #164 ) ;
#280 = CARTESIAN_POINT ( 'NONE',  ( 11.00000000000000000, 1.347111479062088405E-15, 7.000000000000000000 ) ) ;
#281 = CARTESIAN_POINT ( 'NONE',  ( 8.000000000000000000, 9.797174393178825657E-16, 307.0000000000000000 ) ) ;
#282 = CARTESIAN_POINT ( 'NONE',  ( -8.000000000000000000, 0.000000000000000000, 7.699999999999985079 ) ) ;
#283 = DIRECTION ( 'NONE',  ( 1.000000000000000000, 0.000000000000000000, 0.000000000000000000 ) ) ;
#284 = CIRCLE ( 'NONE', #316, 8.000000000000000000 ) ;
#285 = CC_DESIGN_APPROVAL ( #245, ( #143 ) ) ;
#286 = PLANE ( 'NONE',  #226 ) ;
#287 = EDGE_CURVE ( 'NONE', #358, #236, #221, .T. ) ;
#288 = DATE_AND_TIME ( #172, #46 ) ;
#289 = FACE_OUTER_BOUND ( 'NONE', #369, .T. ) ;
#290 = PERSON_AND_ORGANIZATION ( #267, #278 ) ;
#291 = DIRECTION ( 'NONE',  ( -0.000000000000000000, -0.000000000000000000, -1.000000000000000000 ) ) ;
#292 = DIRECTION ( 'NONE',  ( 1.000000000000000000, 0.000000000000000000, 0.000000000000000000 ) ) ;
#293 = AXIS2_PLACEMENT_3D ( 'NONE', #223, #31, #350 ) ;
#294 = APPLICATION_PROTOCOL_DEFINITION ( 'international standard', 'config_control_design', 1994, #356 ) ;
#295 = CYLINDRICAL_SURFACE ( 'NONE', #92, 11.00000000000000000 ) ;
#296 = VERTEX_POINT ( 'NONE', #374 ) ;
#297 = PERSON_AND_ORGANIZATION ( #267, #278 ) ;
#298 = DIRECTION ( 'NONE',  ( 1.000000000000000000, 0.000000000000000000, 0.000000000000000000 ) ) ;
#299 = AXIS2_PLACEMENT_3D ( 'NONE', #7, #250, #2 ) ;
#300 = VERTEX_POINT ( 'NONE', #55 ) ;
#301 = CIRCLE ( 'NONE', #62, 0.7000000000000000666 ) ;
#302 = DIRECTION ( 'NONE',  ( 0.000000000000000000, 0.000000000000000000, -1.000000000000000000 ) ) ;
#303 = ORIENTED_EDGE ( 'NONE', *, *, #315, .T. ) ;
#304 = APPROVAL_DATE_TIME ( #43, #330 ) ;
#305 = CARTESIAN_POINT ( 'NONE',  ( 0.000000000000000000, 0.000000000000000000, 307.0000000000000000 ) ) ;
#306 = VERTEX_POINT ( 'NONE', #282 ) ;
#307 = UNCERTAINTY_MEASURE_WITH_UNIT (LENGTH_MEASURE( 1.000000000000000082E-05 ), #202, 'distance_accuracy_value', 'NONE');
#308 = ORIENTED_EDGE ( 'NONE', *, *, #23, .F. ) ;
#309 = CC_DESIGN_APPROVAL ( #330, ( #215 ) ) ;
#310 = CARTESIAN_POINT ( 'NONE',  ( 8.000000000000000000, 9.797174393178825657E-16, 307.0000000000000000 ) ) ;
#311 = CARTESIAN_POINT ( 'NONE',  ( 0.000000000000000000, 0.000000000000000000, 7.000000000000000000 ) ) ;
#312 = LINE ( 'NONE', #281, #333 ) ;
#313 = CARTESIAN_POINT ( 'NONE',  ( -6.000000000000000888, 0.000000000000000000, 307.0000000000000000 ) ) ;
#314 = DIRECTION ( 'NONE',  ( 0.000000000000000000, 0.000000000000000000, 1.000000000000000000 ) ) ;
#315 = EDGE_CURVE ( 'NONE', #300, #75, #231, .T. ) ;
#316 = AXIS2_PLACEMENT_3D ( 'NONE', #17, #101, #134 ) ;
#317 = CARTESIAN_POINT ( 'NONE',  ( 6.000000000000000888, 7.347880794884120722E-16, 307.0000000000000000 ) ) ;
#318 = APPROVAL_ROLE ( '' ) ;
#319 = CLOSED_SHELL ( 'NONE', ( #233, #191, #144, #97, #230, #102, #265, #370, #209, #349, #140 ) ) ;
#320 = ORIENTED_EDGE ( 'NONE', *, *, #6, .F. ) ;
#321 = MANIFOLD_SOLID_BREP ( 'Odebrat vysunutím3', #319 ) ;
#322 = FACE_BOUND ( 'NONE', #131, .T. ) ;
#323 = CC_DESIGN_PERSON_AND_ORGANIZATION_ASSIGNMENT ( #256, #153, ( #215 ) ) ;
#324 = FACE_OUTER_BOUND ( 'NONE', #165, .T. ) ;
#325 = VERTEX_POINT ( 'NONE', #313 ) ;
#326 = APPROVAL_PERSON_ORGANIZATION ( #208, #245, #269 ) ;
#327 = SHAPE_DEFINITION_REPRESENTATION ( #275, #82 ) ;
#328 = CARTESIAN_POINT ( 'NONE',  ( -11.00000000000000000, 0.000000000000000000, 7.000000000000000000 ) ) ;
#329 = ORIENTED_EDGE ( 'NONE', *, *, #107, .F. ) ;
#330 = APPROVAL ( #365, 'NEURÈENÝ' ) ;
#331 = ORIENTED_EDGE ( 'NONE', *, *, #130, .F. ) ;
#332 = COORDINATED_UNIVERSAL_TIME_OFFSET ( 1, 0, .AHEAD. ) ;
#333 = VECTOR ( 'NONE', #344, 1000.000000000000000 ) ;
#334 = APPROVAL_PERSON_ORGANIZATION ( #354, #214, #318 ) ;
#335 = ORIENTED_EDGE ( 'NONE', *, *, #274, .T. ) ;
#336 = DIRECTION ( 'NONE',  ( 0.000000000000000000, 0.000000000000000000, 1.000000000000000000 ) ) ;
#337 = ORIENTED_EDGE ( 'NONE', *, *, #162, .T. ) ;
#338 = EDGE_CURVE ( 'NONE', #325, #236, #340, .T. ) ;
#339 = ORIENTED_EDGE ( 'NONE', *, *, #84, .T. ) ;
#340 = LINE ( 'NONE', #166, #52 ) ;
#341 = EDGE_LOOP ( 'NONE', ( #39, #3, #19, #69 ) ) ;
#342 = AXIS2_PLACEMENT_3D ( 'NONE', #124, #235, #89 ) ;
#343 = DIRECTION ( 'NONE',  ( 0.000000000000000000, -1.000000000000000000, 0.000000000000000000 ) ) ;
#344 = DIRECTION ( 'NONE',  ( -0.000000000000000000, -0.000000000000000000, -1.000000000000000000 ) ) ;
#345 = DIRECTION ( 'NONE',  ( 0.000000000000000000, 0.000000000000000000, 1.000000000000000000 ) ) ;
#346 = AXIS2_PLACEMENT_3D ( 'NONE', #71, #232, #142 ) ;
#347 = CARTESIAN_POINT ( 'NONE',  ( 0.000000000000000000, 0.000000000000000000, 307.0000000000000000 ) ) ;
#348 = CARTESIAN_POINT ( 'NONE',  ( 0.000000000000000000, 0.000000000000000000, 7.000000000000000000 ) ) ;
#349 = ADVANCED_FACE ( 'NONE', ( #21 ), #375, .F. ) ;
#350 = DIRECTION ( 'NONE',  ( 1.000000000000000000, 0.000000000000000000, 0.000000000000000000 ) ) ;
#351 = APPLICATION_PROTOCOL_DEFINITION ( 'international standard', 'config_control_design', 1994, #25 ) ;
#352 = CARTESIAN_POINT ( 'NONE',  ( 0.000000000000000000, 0.000000000000000000, 307.0000000000000000 ) ) ;
#353 = AXIS2_PLACEMENT_3D ( 'NONE', #229, #336, #298 ) ;
#354 = PERSON_AND_ORGANIZATION ( #267, #278 ) ;
#355 = CC_DESIGN_PERSON_AND_ORGANIZATION_ASSIGNMENT ( #290, #249, ( #57 ) ) ;
#356 = APPLICATION_CONTEXT ( 'configuration controlled 3d designs of mechanical parts and assemblies' ) ;
#357 = CARTESIAN_POINT ( 'NONE',  ( 0.000000000000000000, 0.000000000000000000, 7.000000000000000000 ) ) ;
#358 = VERTEX_POINT ( 'NONE', #24 ) ;
#359 = CARTESIAN_POINT ( 'NONE',  ( 0.000000000000000000, 0.000000000000000000, 7.000000000000000000 ) ) ;
#360 = SECURITY_CLASSIFICATION_LEVEL ( 'unclassified' ) ;
#361 = VECTOR ( 'NONE', #291, 1000.000000000000000 ) ;
#362 = DATE_TIME_ROLE ( 'classification_date' ) ;
#363 = CC_DESIGN_PERSON_AND_ORGANIZATION_ASSIGNMENT ( #297, #132, ( #143 ) ) ;
#364 = EDGE_LOOP ( 'NONE', ( #163, #273, #73, #76 ) ) ;
#365 = APPROVAL_STATUS ( 'not_yet_approved' ) ;
#366 = LINE ( 'NONE', #328, #261 ) ;
#367 = CYLINDRICAL_SURFACE ( 'NONE', #119, 6.000000000000000888 ) ;
#368 = TOROIDAL_SURFACE ( 'NONE', #183, 8.699999999999999289, 0.6999999999999999556 ) ;
#369 = EDGE_LOOP ( 'NONE', ( #149, #188, #220, #329 ) ) ;
#370 = ADVANCED_FACE ( 'NONE', ( #145 ), #94, .T. ) ;
#371 = ORIENTED_EDGE ( 'NONE', *, *, #77, .F. ) ;
#372 = DIRECTION ( 'NONE',  ( -0.000000000000000000, -0.000000000000000000, -1.000000000000000000 ) ) ;
#373 = ORIENTED_EDGE ( 'NONE', *, *, #130, .T. ) ;
#374 = CARTESIAN_POINT ( 'NONE',  ( -11.00000000000000000, 0.000000000000000000, 0.000000000000000000 ) ) ;
#375 = TOROIDAL_SURFACE ( 'NONE', #293, 8.699999999999999289, 0.6999999999999999556 ) ;
#376 = FACE_BOUND ( 'NONE', #260, .T. ) ;
#377 = AXIS2_PLACEMENT_3D ( 'NONE', #116, #227, #292 ) ;
#378 =( NAMED_UNIT ( * ) SI_UNIT ( $, .STERADIAN. ) SOLID_ANGLE_UNIT ( ) );
#379 = DIRECTION ( 'NONE',  ( 1.000000000000000000, 0.000000000000000000, 0.000000000000000000 ) ) ;
#380 = CALENDAR_DATE ( 2022, 8, 7 ) ;
#381 = DIRECTION ( 'NONE',  ( 0.000000000000000000, 0.000000000000000000, 1.000000000000000000 ) ) ;
ENDSEC;
END-ISO-10303-21;
