ISO-10303-21;
HEADER;
FILE_DESCRIPTION (( 'STEP AP203' ),
    '1' );
FILE_NAME ('33e8.STEP',
    '2022-07-08T14:40:31',
    ( '' ),
    ( '' ),
    'SwSTEP 2.0',
    'SolidWorks 2019',
    '' );
FILE_SCHEMA (( 'CONFIG_CONTROL_DESIGN' ));
ENDSEC;

DATA;
#1 = VERTEX_POINT ( 'NONE', #364 ) ;
#2 = ADVANCED_FACE ( 'NONE', ( #37 ), #240, .T. ) ;
#3 = CARTESIAN_POINT ( 'NONE',  ( 3.250000000000000444, 3.980102097228898231E-16, 757.0000000000000000 ) ) ;
#4 = LOCAL_TIME ( 16, 40, 31.00000000000000000, #144 ) ;
#5 = FACE_OUTER_BOUND ( 'NONE', #318, .T. ) ;
#6 = PERSON_AND_ORGANIZATION ( #319, #325 ) ;
#7 = CARTESIAN_POINT ( 'NONE',  ( 0.000000000000000000, 0.000000000000000000, 0.000000000000000000 ) ) ;
#8 = EDGE_CURVE ( 'NONE', #281, #233, #243, .T. ) ;
#9 = DIRECTION ( 'NONE',  ( -0.000000000000000000, -0.000000000000000000, -1.000000000000000000 ) ) ;
#10 = AXIS2_PLACEMENT_3D ( 'NONE', #308, #82, #43 ) ;
#11 = CYLINDRICAL_SURFACE ( 'NONE', #87, 3.250000000000000444 ) ;
#12 = CARTESIAN_POINT ( 'NONE',  ( 3.250000000000000444, 3.980102097228898231E-16, 757.0000000000000000 ) ) ;
#13 = CIRCLE ( 'NONE', #224, 10.00000000000000000 ) ;
#14 = PRODUCT_DEFINITION ( 'NEZNÁMÝ', '', #162, #251 ) ;
#15 = CARTESIAN_POINT ( 'NONE',  ( 0.000000000000000000, 0.000000000000000000, 757.0000000000000000 ) ) ;
#16 = AXIS2_PLACEMENT_3D ( 'NONE', #339, #342, #113 ) ;
#17 = DIRECTION ( 'NONE',  ( 1.000000000000000000, 0.000000000000000000, 0.000000000000000000 ) ) ;
#18 = CC_DESIGN_PERSON_AND_ORGANIZATION_ASSIGNMENT ( #40, #185, ( #162 ) ) ;
#19 = CARTESIAN_POINT ( 'NONE',  ( 0.000000000000000000, 0.000000000000000000, 7.499999999999951150 ) ) ;
#20 = CYLINDRICAL_SURFACE ( 'NONE', #10, 10.00000000000000000 ) ;
#21 = VECTOR ( 'NONE', #138, 1000.000000000000000 ) ;
#22 = FACE_BOUND ( 'NONE', #350, .T. ) ;
#23 = ORIENTED_EDGE ( 'NONE', *, *, #202, .F. ) ;
#24 = DIRECTION ( 'NONE',  ( 0.000000000000000000, 0.000000000000000000, 1.000000000000000000 ) ) ;
#25 = ORIENTED_EDGE ( 'NONE', *, *, #99, .F. ) ;
#26 = EDGE_CURVE ( 'NONE', #299, #120, #218, .T. ) ;
#27 = APPLICATION_PROTOCOL_DEFINITION ( 'international standard', 'config_control_design', 1994, #210 ) ;
#28 = ORIENTED_EDGE ( 'NONE', *, *, #371, .F. ) ;
#29 = DIRECTION ( 'NONE',  ( 0.000000000000000000, -1.000000000000000000, 0.000000000000000000 ) ) ;
#30 = CIRCLE ( 'NONE', #124, 0.5000000000000004441 ) ;
#31 = ORIENTED_EDGE ( 'NONE', *, *, #357, .F. ) ;
#32 = DIRECTION ( 'NONE',  ( 1.224646799147353207E-16, 1.000000000000000000, -0.000000000000000000 ) ) ;
#33 = ORIENTED_EDGE ( 'NONE', *, *, #119, .F. ) ;
#34 = DIRECTION ( 'NONE',  ( 1.000000000000000000, 0.000000000000000000, 0.000000000000000000 ) ) ;
#35 = FACE_BOUND ( 'NONE', #117, .T. ) ;
#36 = CIRCLE ( 'NONE', #16, 10.00000000000000000 ) ;
#37 = FACE_OUTER_BOUND ( 'NONE', #189, .T. ) ;
#38 = EDGE_CURVE ( 'NONE', #183, #86, #291, .T. ) ;
#39 = CARTESIAN_POINT ( 'NONE',  ( 0.000000000000000000, 0.000000000000000000, 757.0000000000000000 ) ) ;
#40 = PERSON_AND_ORGANIZATION ( #319, #325 ) ;
#41 = CARTESIAN_POINT ( 'NONE',  ( 0.000000000000000000, 0.000000000000000000, 0.000000000000000000 ) ) ;
#42 = AXIS2_PLACEMENT_3D ( 'NONE', #227, #313, #79 ) ;
#43 = DIRECTION ( 'NONE',  ( -1.000000000000000000, 0.000000000000000000, 0.000000000000000000 ) ) ;
#44 = ADVANCED_FACE ( 'NONE', ( #307 ), #329, .T. ) ;
#45 = DIRECTION ( 'NONE',  ( 0.000000000000000000, 0.000000000000000000, 1.000000000000000000 ) ) ;
#46 = VECTOR ( 'NONE', #306, 1000.000000000000000 ) ;
#47 = DIRECTION ( 'NONE',  ( 1.000000000000000000, 0.000000000000000000, 0.000000000000000000 ) ) ;
#48 = CIRCLE ( 'NONE', #42, 6.000000000000000888 ) ;
#49 = EDGE_CURVE ( 'NONE', #233, #1, #13, .T. ) ;
#50 = CARTESIAN_POINT ( 'NONE',  ( -6.500000000000000888, 7.960204194457796463E-16, 7.499999999999951150 ) ) ;
#51 = AXIS2_PLACEMENT_3D ( 'NONE', #125, #73, #337 ) ;
#52 = CC_DESIGN_APPROVAL ( #159, ( #131 ) ) ;
#53 = PERSON_AND_ORGANIZATION ( #319, #325 ) ;
#54 = EDGE_LOOP ( 'NONE', ( #123, #261 ) ) ;
#55 = EDGE_CURVE ( 'NONE', #379, #295, #57, .T. ) ;
#56 = ORIENTED_EDGE ( 'NONE', *, *, #72, .T. ) ;
#57 = CIRCLE ( 'NONE', #273, 6.000000000000000888 ) ;
#58 = APPROVAL_DATE_TIME ( #93, #257 ) ;
#59 = ORIENTED_EDGE ( 'NONE', *, *, #220, .F. ) ;
#60 = FACE_OUTER_BOUND ( 'NONE', #54, .T. ) ;
#61 = AXIS2_PLACEMENT_3D ( 'NONE', #163, #367, #373 ) ;
#62 = VERTEX_POINT ( 'NONE', #187 ) ;
#63 = ORIENTED_EDGE ( 'NONE', *, *, #55, .F. ) ;
#64 = APPROVAL_ROLE ( '' ) ;
#65 = CARTESIAN_POINT ( 'NONE',  ( 0.000000000000000000, 0.000000000000000000, 7.000000000000000000 ) ) ;
#66 = CALENDAR_DATE ( 2022, 8, 7 ) ;
#67 = AXIS2_PLACEMENT_3D ( 'NONE', #219, #100, #212 ) ;
#68 = CARTESIAN_POINT ( 'NONE',  ( -6.000000000000000888, 0.000000000000000000, 757.0000000000000000 ) ) ;
#69 = CIRCLE ( 'NONE', #238, 6.000000000000000888 ) ;
#70 = CARTESIAN_POINT ( 'NONE',  ( 0.000000000000000000, 0.000000000000000000, 757.0000000000000000 ) ) ;
#71 = CARTESIAN_POINT ( 'NONE',  ( 0.000000000000000000, 0.000000000000000000, 757.0000000000000000 ) ) ;
#72 = EDGE_CURVE ( 'NONE', #120, #299, #321, .T. ) ;
#73 = DIRECTION ( 'NONE',  ( -0.000000000000000000, -0.000000000000000000, -1.000000000000000000 ) ) ;
#74 = TOROIDAL_SURFACE ( 'NONE', #197, 6.500000000000000888, 0.5000000000000000000 ) ;
#75 = APPLICATION_CONTEXT ( 'configuration controlled 3d designs of mechanical parts and assemblies' ) ;
#76 = DIRECTION ( 'NONE',  ( 0.000000000000000000, 0.000000000000000000, 1.000000000000000000 ) ) ;
#77 = MANIFOLD_SOLID_BREP ( 'Odebrat vysunutím3', #164 ) ;
#78 = LINE ( 'NONE', #191, #296 ) ;
#79 = DIRECTION ( 'NONE',  ( 1.000000000000000000, 0.000000000000000000, 0.000000000000000000 ) ) ;
#80 = PRODUCT_DEFINITION_SHAPE ( 'NONE', 'NONE',  #14 ) ;
#81 = CIRCLE ( 'NONE', #333, 0.5000000000000004441 ) ;
#82 = DIRECTION ( 'NONE',  ( -0.000000000000000000, -0.000000000000000000, -1.000000000000000000 ) ) ;
#83 = DIRECTION ( 'NONE',  ( 0.000000000000000000, 0.000000000000000000, -1.000000000000000000 ) ) ;
#84 = PERSON_AND_ORGANIZATION_ROLE ( 'creator' ) ;
#85 = UNCERTAINTY_MEASURE_WITH_UNIT (LENGTH_MEASURE( 1.000000000000000082E-05 ), #89, 'distance_accuracy_value', 'NONE');
#86 = VERTEX_POINT ( 'NONE', #3 ) ;
#87 = AXIS2_PLACEMENT_3D ( 'NONE', #132, #241, #365 ) ;
#88 = AXIS2_PLACEMENT_3D ( 'NONE', #133, #108, #369 ) ;
#89 =( LENGTH_UNIT ( ) NAMED_UNIT ( * ) SI_UNIT ( .MILLI., .METRE. ) );
#90 = VERTEX_POINT ( 'NONE', #358 ) ;
#91 = VERTEX_POINT ( 'NONE', #102 ) ;
#92 = ADVANCED_FACE ( 'NONE', ( #160, #360 ), #184, .T. ) ;
#93 = DATE_AND_TIME ( #320, #4 ) ;
#94 = ORIENTED_EDGE ( 'NONE', *, *, #38, .T. ) ;
#95 = CALENDAR_DATE ( 2022, 8, 7 ) ;
#96 = AXIS2_PLACEMENT_3D ( 'NONE', #19, #193, #346 ) ;
#97 = ORIENTED_EDGE ( 'NONE', *, *, #216, .F. ) ;
#98 = DIRECTION ( 'NONE',  ( 0.000000000000000000, 0.000000000000000000, 1.000000000000000000 ) ) ;
#99 = EDGE_CURVE ( 'NONE', #183, #62, #336, .T. ) ;
#100 = DIRECTION ( 'NONE',  ( -0.000000000000000000, -0.000000000000000000, -1.000000000000000000 ) ) ;
#101 = AXIS2_PLACEMENT_3D ( 'NONE', #345, #169, #47 ) ;
#102 = CARTESIAN_POINT ( 'NONE',  ( 6.000000000000000888, 7.347880794884120722E-16, 7.499999999999951150 ) ) ;
#103 = AXIS2_PLACEMENT_3D ( 'NONE', #310, #280, #17 ) ;
#104 = CARTESIAN_POINT ( 'NONE',  ( 0.000000000000000000, 0.000000000000000000, 7.000000000000000000 ) ) ;
#105 = ADVANCED_FACE ( 'NONE', ( #35, #155 ), #270, .F. ) ;
#106 = AXIS2_PLACEMENT_3D ( 'NONE', #274, #359, #157 ) ;
#107 = DIRECTION ( 'NONE',  ( 0.000000000000000000, 0.000000000000000000, 1.000000000000000000 ) ) ;
#108 = DIRECTION ( 'NONE',  ( -0.000000000000000000, -0.000000000000000000, -1.000000000000000000 ) ) ;
#109 =( GEOMETRIC_REPRESENTATION_CONTEXT ( 3 ) GLOBAL_UNCERTAINTY_ASSIGNED_CONTEXT ( ( #85 ) ) GLOBAL_UNIT_ASSIGNED_CONTEXT ( ( #89, #263, #349 ) ) REPRESENTATION_CONTEXT ( 'NONE', 'WORKASPACE' ) );
#110 = DIRECTION ( 'NONE',  ( -1.000000000000000000, 0.000000000000000000, 0.000000000000000000 ) ) ;
#111 = CARTESIAN_POINT ( 'NONE',  ( 3.250000000000000444, 3.980102097228898231E-16, 0.000000000000000000 ) ) ;
#112 = CARTESIAN_POINT ( 'NONE',  ( -3.250000000000000444, 0.000000000000000000, 757.0000000000000000 ) ) ;
#113 = DIRECTION ( 'NONE',  ( 1.000000000000000000, 0.000000000000000000, 0.000000000000000000 ) ) ;
#114 = ADVANCED_FACE ( 'NONE', ( #5 ), #11, .F. ) ;
#115 = COORDINATED_UNIVERSAL_TIME_OFFSET ( 1, 0, .AHEAD. ) ;
#116 = EDGE_LOOP ( 'NONE', ( #356, #236 ) ) ;
#117 = EDGE_LOOP ( 'NONE', ( #33, #206 ) ) ;
#118 = CARTESIAN_POINT ( 'NONE',  ( 0.000000000000000000, 0.000000000000000000, 0.000000000000000000 ) ) ;
#119 = EDGE_CURVE ( 'NONE', #62, #302, #248, .T. ) ;
#120 = VERTEX_POINT ( 'NONE', #331 ) ;
#121 = ORIENTED_EDGE ( 'NONE', *, *, #136, .F. ) ;
#122 = APPLICATION_PROTOCOL_DEFINITION ( 'international standard', 'config_control_design', 1994, #75 ) ;
#123 = ORIENTED_EDGE ( 'NONE', *, *, #220, .T. ) ;
#124 = AXIS2_PLACEMENT_3D ( 'NONE', #50, #32, #235 ) ;
#125 = CARTESIAN_POINT ( 'NONE',  ( 0.000000000000000000, 0.000000000000000000, 757.0000000000000000 ) ) ;
#126 = CC_DESIGN_DATE_AND_TIME_ASSIGNMENT ( #351, #199, ( #14 ) ) ;
#127 = DIRECTION ( 'NONE',  ( 0.000000000000000000, 0.000000000000000000, 1.000000000000000000 ) ) ;
#128 = COORDINATED_UNIVERSAL_TIME_OFFSET ( 1, 0, .AHEAD. ) ;
#129 = DIRECTION ( 'NONE',  ( 1.000000000000000000, 0.000000000000000000, 0.000000000000000000 ) ) ;
#130 = ORIENTED_EDGE ( 'NONE', *, *, #136, .T. ) ;
#131 = SECURITY_CLASSIFICATION ( '', '', #363 ) ;
#132 = CARTESIAN_POINT ( 'NONE',  ( 0.000000000000000000, 0.000000000000000000, 757.0000000000000000 ) ) ;
#133 = CARTESIAN_POINT ( 'NONE',  ( 0.000000000000000000, 0.000000000000000000, 0.000000000000000000 ) ) ;
#134 = FACE_OUTER_BOUND ( 'NONE', #375, .T. ) ;
#135 = AXIS2_PLACEMENT_3D ( 'NONE', #118, #298, #294 ) ;
#136 = EDGE_CURVE ( 'NONE', #379, #348, #215, .T. ) ;
#137 = DIRECTION ( 'NONE',  ( 0.000000000000000000, 0.000000000000000000, -1.000000000000000000 ) ) ;
#138 = DIRECTION ( 'NONE',  ( -0.000000000000000000, -0.000000000000000000, -1.000000000000000000 ) ) ;
#139 = DIRECTION ( 'NONE',  ( -0.000000000000000000, -0.000000000000000000, -1.000000000000000000 ) ) ;
#140 = ADVANCED_FACE ( 'NONE', ( #254 ), #332, .F. ) ;
#141 = CIRCLE ( 'NONE', #88, 3.250000000000000444 ) ;
#142 = PLANE ( 'NONE',  #244 ) ;
#143 = EDGE_LOOP ( 'NONE', ( #145, #289, #147, #28 ) ) ;
#144 = COORDINATED_UNIVERSAL_TIME_OFFSET ( 1, 0, .AHEAD. ) ;
#145 = ORIENTED_EDGE ( 'NONE', *, *, #341, .F. ) ;
#146 = APPROVAL_ROLE ( '' ) ;
#147 = ORIENTED_EDGE ( 'NONE', *, *, #26, .F. ) ;
#148 = ORIENTED_EDGE ( 'NONE', *, *, #353, .F. ) ;
#149 = CARTESIAN_POINT ( 'NONE',  ( 6.500000000000000888, 0.000000000000000000, 7.499999999999951150 ) ) ;
#150 = ORIENTED_EDGE ( 'NONE', *, *, #341, .T. ) ;
#151 = VECTOR ( 'NONE', #335, 1000.000000000000000 ) ;
#152 = PERSON_AND_ORGANIZATION ( #319, #325 ) ;
#153 = CARTESIAN_POINT ( 'NONE',  ( -10.00000000000000000, 0.000000000000000000, 7.000000000000000000 ) ) ;
#154 = CC_DESIGN_PERSON_AND_ORGANIZATION_ASSIGNMENT ( #285, #374, ( #328 ) ) ;
#155 = FACE_OUTER_BOUND ( 'NONE', #181, .T. ) ;
#156 = DATE_AND_TIME ( #95, #269 ) ;
#157 = DIRECTION ( 'NONE',  ( 1.000000000000000000, 0.000000000000000000, 0.000000000000000000 ) ) ;
#158 = AXIS2_PLACEMENT_3D ( 'NONE', #70, #107, #246 ) ;
#159 = APPROVAL ( #188, 'NEURÈENÝ' ) ;
#160 = FACE_BOUND ( 'NONE', #355, .T. ) ;
#161 = DIRECTION ( 'NONE',  ( 0.000000000000000000, 0.000000000000000000, 1.000000000000000000 ) ) ;
#162 = PRODUCT_DEFINITION_FORMATION_WITH_SPECIFIED_SOURCE ( 'LIBOVOLNÝ', '', #328, .NOT_KNOWN. ) ;
#163 = CARTESIAN_POINT ( 'NONE',  ( 0.000000000000000000, 0.000000000000000000, 757.0000000000000000 ) ) ;
#164 = CLOSED_SHELL ( 'NONE', ( #114, #140, #2, #287, #182, #361, #105, #44, #92, #264, #282 ) ) ;
#165 = CARTESIAN_POINT ( 'NONE',  ( 10.00000000000000000, 1.224646799147353256E-15, 7.000000000000000000 ) ) ;
#166 = EDGE_CURVE ( 'NONE', #295, #91, #78, .T. ) ;
#167 = DIRECTION ( 'NONE',  ( -0.000000000000000000, -0.000000000000000000, -1.000000000000000000 ) ) ;
#168 = CIRCLE ( 'NONE', #103, 10.00000000000000000 ) ;
#169 = DIRECTION ( 'NONE',  ( 0.000000000000000000, 0.000000000000000000, 1.000000000000000000 ) ) ;
#170 = EDGE_CURVE ( 'NONE', #91, #348, #344, .T. ) ;
#171 = CARTESIAN_POINT ( 'NONE',  ( -6.000000000000000888, 0.000000000000000000, 7.499999999999951150 ) ) ;
#172 = APPROVAL_PERSON_ORGANIZATION ( #53, #257, #380 ) ;
#173 = APPROVAL_DATE_TIME ( #229, #276 ) ;
#174 = ORIENTED_EDGE ( 'NONE', *, *, #194, .F. ) ;
#175 = DIRECTION ( 'NONE',  ( 1.000000000000000000, 0.000000000000000000, 0.000000000000000000 ) ) ;
#176 = ORIENTED_EDGE ( 'NONE', *, *, #170, .T. ) ;
#177 = PRODUCT_RELATED_PRODUCT_CATEGORY ( 'detail', '', ( #328 ) ) ;
#178 = CARTESIAN_POINT ( 'NONE',  ( 0.000000000000000000, 0.000000000000000000, 7.000000000000000000 ) ) ;
#179 = ORIENTED_EDGE ( 'NONE', *, *, #271, .F. ) ;
#180 = CARTESIAN_POINT ( 'NONE',  ( 0.000000000000000000, 0.000000000000000000, 0.000000000000000000 ) ) ;
#181 = EDGE_LOOP ( 'NONE', ( #237, #31 ) ) ;
#182 = ADVANCED_FACE ( 'NONE', ( #284 ), #20, .T. ) ;
#183 = VERTEX_POINT ( 'NONE', #112 ) ;
#184 = PLANE ( 'NONE',  #158 ) ;
#185 = PERSON_AND_ORGANIZATION_ROLE ( 'design_supplier' ) ;
#186 = LOCAL_TIME ( 16, 40, 31.00000000000000000, #205 ) ;
#187 = CARTESIAN_POINT ( 'NONE',  ( -3.250000000000000444, 0.000000000000000000, 0.000000000000000000 ) ) ;
#188 = APPROVAL_STATUS ( 'not_yet_approved' ) ;
#189 = EDGE_LOOP ( 'NONE', ( #179, #266, #176, #121 ) ) ;
#190 = CARTESIAN_POINT ( 'NONE',  ( -3.250000000000000444, 0.000000000000000000, 757.0000000000000000 ) ) ;
#191 = CARTESIAN_POINT ( 'NONE',  ( 6.000000000000000888, 7.347880794884120722E-16, 757.0000000000000000 ) ) ;
#192 = CC_DESIGN_SECURITY_CLASSIFICATION ( #131, ( #162 ) ) ;
#193 = DIRECTION ( 'NONE',  ( 0.000000000000000000, 0.000000000000000000, 1.000000000000000000 ) ) ;
#194 = EDGE_CURVE ( 'NONE', #86, #183, #228, .T. ) ;
#195 = DIRECTION ( 'NONE',  ( -0.000000000000000000, -0.000000000000000000, -1.000000000000000000 ) ) ;
#196 = CARTESIAN_POINT ( 'NONE',  ( -10.00000000000000000, 0.000000000000000000, 0.000000000000000000 ) ) ;
#197 = AXIS2_PLACEMENT_3D ( 'NONE', #247, #76, #309 ) ;
#198 = LINE ( 'NONE', #165, #21 ) ;
#199 = DATE_TIME_ROLE ( 'creation_date' ) ;
#200 = ORIENTED_EDGE ( 'NONE', *, *, #357, .T. ) ;
#201 = ORIENTED_EDGE ( 'NONE', *, *, #170, .F. ) ;
#202 = EDGE_CURVE ( 'NONE', #90, #1, #198, .T. ) ;
#203 = PERSON_AND_ORGANIZATION ( #319, #325 ) ;
#204 = ORIENTED_EDGE ( 'NONE', *, *, #166, .F. ) ;
#205 = COORDINATED_UNIVERSAL_TIME_OFFSET ( 1, 0, .AHEAD. ) ;
#206 = ORIENTED_EDGE ( 'NONE', *, *, #208, .F. ) ;
#207 = AXIS2_PLACEMENT_3D ( 'NONE', #180, #260, #175 ) ;
#208 = EDGE_CURVE ( 'NONE', #302, #62, #141, .T. ) ;
#209 = EDGE_LOOP ( 'NONE', ( #23, #59, #327, #305 ) ) ;
#210 = APPLICATION_CONTEXT ( 'configuration controlled 3d designs of mechanical parts and assemblies' ) ;
#211 = DIRECTION ( 'NONE',  ( -0.000000000000000000, -0.000000000000000000, -1.000000000000000000 ) ) ;
#212 = DIRECTION ( 'NONE',  ( 1.000000000000000000, 0.000000000000000000, 0.000000000000000000 ) ) ;
#213 = DATE_TIME_ROLE ( 'classification_date' ) ;
#214 = LOCAL_TIME ( 16, 40, 31.00000000000000000, #115 ) ;
#215 = LINE ( 'NONE', #68, #262 ) ;
#216 = EDGE_CURVE ( 'NONE', #86, #302, #222, .T. ) ;
#217 = DIRECTION ( 'NONE',  ( -0.000000000000000000, -0.000000000000000000, -1.000000000000000000 ) ) ;
#218 = CIRCLE ( 'NONE', #267, 6.500000000000000888 ) ;
#219 = CARTESIAN_POINT ( 'NONE',  ( 0.000000000000000000, 0.000000000000000000, 0.000000000000000000 ) ) ;
#220 = EDGE_CURVE ( 'NONE', #281, #90, #36, .T. ) ;
#221 = APPROVAL_PERSON_ORGANIZATION ( #6, #159, #64 ) ;
#222 = LINE ( 'NONE', #12, #362 ) ;
#223 = FACE_OUTER_BOUND ( 'NONE', #343, .T. ) ;
#224 = AXIS2_PLACEMENT_3D ( 'NONE', #7, #127, #245 ) ;
#225 = FACE_OUTER_BOUND ( 'NONE', #230, .T. ) ;
#226 = CC_DESIGN_PERSON_AND_ORGANIZATION_ASSIGNMENT ( #347, #84, ( #14 ) ) ;
#227 = CARTESIAN_POINT ( 'NONE',  ( 0.000000000000000000, 0.000000000000000000, 7.499999999999951150 ) ) ;
#228 = CIRCLE ( 'NONE', #61, 3.250000000000000444 ) ;
#229 = DATE_AND_TIME ( #378, #214 ) ;
#230 = EDGE_LOOP ( 'NONE', ( #231, #322, #200, #377 ) ) ;
#231 = ORIENTED_EDGE ( 'NONE', *, *, #293, .F. ) ;
#232 = AXIS2_PLACEMENT_3D ( 'NONE', #15, #137, #110 ) ;
#233 = VERTEX_POINT ( 'NONE', #196 ) ;
#234 = ADVANCED_BREP_SHAPE_REPRESENTATION ( '33e8', ( #77, #207 ), #109 ) ;
#235 = DIRECTION ( 'NONE',  ( -1.000000000000000000, 1.224646799147351482E-16, 0.000000000000000000 ) ) ;
#236 = ORIENTED_EDGE ( 'NONE', *, *, #271, .T. ) ;
#237 = ORIENTED_EDGE ( 'NONE', *, *, #49, .F. ) ;
#238 = AXIS2_PLACEMENT_3D ( 'NONE', #368, #45, #249 ) ;
#239 = COORDINATED_UNIVERSAL_TIME_OFFSET ( 1, 0, .AHEAD. ) ;
#240 = CYLINDRICAL_SURFACE ( 'NONE', #51, 6.000000000000000888 ) ;
#241 = DIRECTION ( 'NONE',  ( 0.000000000000000000, 0.000000000000000000, -1.000000000000000000 ) ) ;
#242 = CC_DESIGN_DATE_AND_TIME_ASSIGNMENT ( #330, #213, ( #131 ) ) ;
#243 = LINE ( 'NONE', #153, #46 ) ;
#244 = AXIS2_PLACEMENT_3D ( 'NONE', #178, #24, #258 ) ;
#245 = DIRECTION ( 'NONE',  ( 1.000000000000000000, 0.000000000000000000, 0.000000000000000000 ) ) ;
#246 = DIRECTION ( 'NONE',  ( 1.000000000000000000, 0.000000000000000000, -0.000000000000000000 ) ) ;
#247 = CARTESIAN_POINT ( 'NONE',  ( 0.000000000000000000, 0.000000000000000000, 7.499999999999951150 ) ) ;
#248 = CIRCLE ( 'NONE', #67, 3.250000000000000444 ) ;
#249 = DIRECTION ( 'NONE',  ( 1.000000000000000000, 0.000000000000000000, 0.000000000000000000 ) ) ;
#250 = CARTESIAN_POINT ( 'NONE',  ( 6.000000000000000888, 7.347880794884120722E-16, 757.0000000000000000 ) ) ;
#251 = DESIGN_CONTEXT ( 'detailed design', #75, 'design' ) ;
#252 = ORIENTED_EDGE ( 'NONE', *, *, #72, .F. ) ;
#253 = CYLINDRICAL_SURFACE ( 'NONE', #279, 10.00000000000000000 ) ;
#254 = FACE_OUTER_BOUND ( 'NONE', #143, .T. ) ;
#255 = CC_DESIGN_APPROVAL ( #257, ( #162 ) ) ;
#256 = ORIENTED_EDGE ( 'NONE', *, *, #371, .T. ) ;
#257 = APPROVAL ( #288, 'NEURÈENÝ' ) ;
#258 = DIRECTION ( 'NONE',  ( 1.000000000000000000, 0.000000000000000000, -0.000000000000000000 ) ) ;
#259 = ORIENTED_EDGE ( 'NONE', *, *, #208, .T. ) ;
#260 = DIRECTION ( 'NONE',  ( 0.000000000000000000, 0.000000000000000000, 1.000000000000000000 ) ) ;
#261 = ORIENTED_EDGE ( 'NONE', *, *, #293, .T. ) ;
#262 = VECTOR ( 'NONE', #167, 1000.000000000000000 ) ;
#263 =( NAMED_UNIT ( * ) PLANE_ANGLE_UNIT ( ) SI_UNIT ( $, .RADIAN. ) );
#264 = ADVANCED_FACE ( 'NONE', ( #134 ), #74, .F. ) ;
#265 = ORIENTED_EDGE ( 'NONE', *, *, #26, .T. ) ;
#266 = ORIENTED_EDGE ( 'NONE', *, *, #166, .T. ) ;
#267 = AXIS2_PLACEMENT_3D ( 'NONE', #65, #211, #34 ) ;
#268 = DIRECTION ( 'NONE',  ( 1.000000000000000000, 0.000000000000000000, 0.000000000000000000 ) ) ;
#269 = LOCAL_TIME ( 16, 40, 31.00000000000000000, #128 ) ;
#270 = PLANE ( 'NONE',  #366 ) ;
#271 = EDGE_CURVE ( 'NONE', #295, #379, #69, .T. ) ;
#272 = DIRECTION ( 'NONE',  ( -1.000000000000000000, 0.000000000000000000, 0.000000000000000000 ) ) ;
#273 = AXIS2_PLACEMENT_3D ( 'NONE', #39, #98, #268 ) ;
#274 = CARTESIAN_POINT ( 'NONE',  ( 0.000000000000000000, 0.000000000000000000, 757.0000000000000000 ) ) ;
#275 = DIRECTION ( 'NONE',  ( 1.000000000000000000, 0.000000000000000000, -0.000000000000000000 ) ) ;
#276 = APPROVAL ( #290, 'NEURÈENÝ' ) ;
#277 = CARTESIAN_POINT ( 'NONE',  ( -10.00000000000000000, 0.000000000000000000, 7.000000000000000000 ) ) ;
#278 = CYLINDRICAL_SURFACE ( 'NONE', #232, 3.250000000000000444 ) ;
#279 = AXIS2_PLACEMENT_3D ( 'NONE', #340, #195, #312 ) ;
#280 = DIRECTION ( 'NONE',  ( 0.000000000000000000, 0.000000000000000000, 1.000000000000000000 ) ) ;
#281 = VERTEX_POINT ( 'NONE', #277 ) ;
#282 = ADVANCED_FACE ( 'NONE', ( #223 ), #278, .F. ) ;
#283 = DIRECTION ( 'NONE',  ( 0.000000000000000000, 0.000000000000000000, -1.000000000000000000 ) ) ;
#284 = FACE_OUTER_BOUND ( 'NONE', #209, .T. ) ;
#285 = PERSON_AND_ORGANIZATION ( #319, #325 ) ;
#286 = APPROVAL_PERSON_ORGANIZATION ( #203, #276, #146 ) ;
#287 = ADVANCED_FACE ( 'NONE', ( #225 ), #253, .T. ) ;
#288 = APPROVAL_STATUS ( 'not_yet_approved' ) ;
#289 = ORIENTED_EDGE ( 'NONE', *, *, #353, .T. ) ;
#290 = APPROVAL_STATUS ( 'not_yet_approved' ) ;
#291 = CIRCLE ( 'NONE', #106, 3.250000000000000444 ) ;
#292 = ORIENTED_EDGE ( 'NONE', *, *, #99, .T. ) ;
#293 = EDGE_CURVE ( 'NONE', #90, #281, #168, .T. ) ;
#294 = DIRECTION ( 'NONE',  ( 1.000000000000000000, 0.000000000000000000, 0.000000000000000000 ) ) ;
#295 = VERTEX_POINT ( 'NONE', #250 ) ;
#296 = VECTOR ( 'NONE', #139, 1000.000000000000000 ) ;
#297 = CIRCLE ( 'NONE', #135, 10.00000000000000000 ) ;
#298 = DIRECTION ( 'NONE',  ( 0.000000000000000000, 0.000000000000000000, 1.000000000000000000 ) ) ;
#299 = VERTEX_POINT ( 'NONE', #370 ) ;
#300 = ORIENTED_EDGE ( 'NONE', *, *, #119, .T. ) ;
#301 = AXIS2_PLACEMENT_3D ( 'NONE', #104, #217, #129 ) ;
#302 = VERTEX_POINT ( 'NONE', #111 ) ;
#303 = CC_DESIGN_PERSON_AND_ORGANIZATION_ASSIGNMENT ( #354, #323, ( #162 ) ) ;
#304 = APPROVAL_DATE_TIME ( #156, #159 ) ;
#305 = ORIENTED_EDGE ( 'NONE', *, *, #49, .T. ) ;
#306 = DIRECTION ( 'NONE',  ( -0.000000000000000000, -0.000000000000000000, -1.000000000000000000 ) ) ;
#307 = FACE_OUTER_BOUND ( 'NONE', #352, .T. ) ;
#308 = CARTESIAN_POINT ( 'NONE',  ( 0.000000000000000000, 0.000000000000000000, 7.000000000000000000 ) ) ;
#309 = DIRECTION ( 'NONE',  ( 1.000000000000000000, 0.000000000000000000, 0.000000000000000000 ) ) ;
#310 = CARTESIAN_POINT ( 'NONE',  ( 0.000000000000000000, 0.000000000000000000, 7.000000000000000000 ) ) ;
#311 = CC_DESIGN_PERSON_AND_ORGANIZATION_ASSIGNMENT ( #152, #334, ( #131 ) ) ;
#312 = DIRECTION ( 'NONE',  ( -1.000000000000000000, 0.000000000000000000, 0.000000000000000000 ) ) ;
#313 = DIRECTION ( 'NONE',  ( 0.000000000000000000, 0.000000000000000000, 1.000000000000000000 ) ) ;
#314 = AXIS2_PLACEMENT_3D ( 'NONE', #71, #9, #272 ) ;
#315 = MECHANICAL_CONTEXT ( 'NONE', #210, 'mechanical' ) ;
#316 = CALENDAR_DATE ( 2022, 8, 7 ) ;
#317 = ORIENTED_EDGE ( 'NONE', *, *, #216, .T. ) ;
#318 = EDGE_LOOP ( 'NONE', ( #94, #317, #259, #25 ) ) ;
#319 = PERSON ( 'NEURÈENÝ', 'NEURÈENÝ', 'NEURÈENÝ', ('NEURÈENÝ'), ('NEURÈENÝ'), ('NEURÈENÝ') ) ;
#320 = CALENDAR_DATE ( 2022, 8, 7 ) ;
#321 = CIRCLE ( 'NONE', #301, 6.500000000000000888 ) ;
#322 = ORIENTED_EDGE ( 'NONE', *, *, #202, .T. ) ;
#323 = PERSON_AND_ORGANIZATION_ROLE ( 'creator' ) ;
#324 = ORIENTED_EDGE ( 'NONE', *, *, #38, .F. ) ;
#325 = ORGANIZATION ( 'NEURÈENÝ', 'NEURÈENÝ', '' ) ;
#326 = SHAPE_DEFINITION_REPRESENTATION ( #80, #234 ) ;
#327 = ORIENTED_EDGE ( 'NONE', *, *, #8, .T. ) ;
#328 = PRODUCT ( '33e8', '33e8', '', ( #315 ) ) ;
#329 = CYLINDRICAL_SURFACE ( 'NONE', #314, 6.000000000000000888 ) ;
#330 = DATE_AND_TIME ( #66, #372 ) ;
#331 = CARTESIAN_POINT ( 'NONE',  ( -6.500000000000000888, 7.960204194457796463E-16, 6.999999999999975131 ) ) ;
#332 = TOROIDAL_SURFACE ( 'NONE', #101, 6.500000000000000888, 0.5000000000000000000 ) ;
#333 = AXIS2_PLACEMENT_3D ( 'NONE', #149, #29, #83 ) ;
#334 = PERSON_AND_ORGANIZATION_ROLE ( 'classification_officer' ) ;
#335 = DIRECTION ( 'NONE',  ( 0.000000000000000000, 0.000000000000000000, -1.000000000000000000 ) ) ;
#336 = LINE ( 'NONE', #190, #151 ) ;
#337 = DIRECTION ( 'NONE',  ( -1.000000000000000000, 0.000000000000000000, 0.000000000000000000 ) ) ;
#338 = CC_DESIGN_APPROVAL ( #276, ( #14 ) ) ;
#339 = CARTESIAN_POINT ( 'NONE',  ( 0.000000000000000000, 0.000000000000000000, 7.000000000000000000 ) ) ;
#340 = CARTESIAN_POINT ( 'NONE',  ( 0.000000000000000000, 0.000000000000000000, 7.000000000000000000 ) ) ;
#341 = EDGE_CURVE ( 'NONE', #348, #91, #48, .T. ) ;
#342 = DIRECTION ( 'NONE',  ( 0.000000000000000000, 0.000000000000000000, 1.000000000000000000 ) ) ;
#343 = EDGE_LOOP ( 'NONE', ( #97, #381, #292, #300 ) ) ;
#344 = CIRCLE ( 'NONE', #96, 6.000000000000000888 ) ;
#345 = CARTESIAN_POINT ( 'NONE',  ( 0.000000000000000000, 0.000000000000000000, 7.499999999999951150 ) ) ;
#346 = DIRECTION ( 'NONE',  ( 1.000000000000000000, 0.000000000000000000, 0.000000000000000000 ) ) ;
#347 = PERSON_AND_ORGANIZATION ( #319, #325 ) ;
#348 = VERTEX_POINT ( 'NONE', #171 ) ;
#349 =( NAMED_UNIT ( * ) SI_UNIT ( $, .STERADIAN. ) SOLID_ANGLE_UNIT ( ) );
#350 = EDGE_LOOP ( 'NONE', ( #265, #56 ) ) ;
#351 = DATE_AND_TIME ( #316, #186 ) ;
#352 = EDGE_LOOP ( 'NONE', ( #204, #63, #130, #150 ) ) ;
#353 = EDGE_CURVE ( 'NONE', #348, #120, #30, .T. ) ;
#354 = PERSON_AND_ORGANIZATION ( #319, #325 ) ;
#355 = EDGE_LOOP ( 'NONE', ( #324, #174 ) ) ;
#356 = ORIENTED_EDGE ( 'NONE', *, *, #55, .T. ) ;
#357 = EDGE_CURVE ( 'NONE', #1, #233, #297, .T. ) ;
#358 = CARTESIAN_POINT ( 'NONE',  ( 10.00000000000000000, 1.224646799147353256E-15, 7.000000000000000000 ) ) ;
#359 = DIRECTION ( 'NONE',  ( 0.000000000000000000, 0.000000000000000000, 1.000000000000000000 ) ) ;
#360 = FACE_OUTER_BOUND ( 'NONE', #116, .T. ) ;
#361 = ADVANCED_FACE ( 'NONE', ( #22, #60 ), #142, .T. ) ;
#362 = VECTOR ( 'NONE', #283, 1000.000000000000000 ) ;
#363 = SECURITY_CLASSIFICATION_LEVEL ( 'unclassified' ) ;
#364 = CARTESIAN_POINT ( 'NONE',  ( 10.00000000000000000, 1.224646799147353256E-15, 0.000000000000000000 ) ) ;
#365 = DIRECTION ( 'NONE',  ( -1.000000000000000000, 0.000000000000000000, 0.000000000000000000 ) ) ;
#366 = AXIS2_PLACEMENT_3D ( 'NONE', #41, #161, #275 ) ;
#367 = DIRECTION ( 'NONE',  ( 0.000000000000000000, 0.000000000000000000, 1.000000000000000000 ) ) ;
#368 = CARTESIAN_POINT ( 'NONE',  ( 0.000000000000000000, 0.000000000000000000, 757.0000000000000000 ) ) ;
#369 = DIRECTION ( 'NONE',  ( 1.000000000000000000, 0.000000000000000000, 0.000000000000000000 ) ) ;
#370 = CARTESIAN_POINT ( 'NONE',  ( 6.500000000000000888, 0.000000000000000000, 6.999999999999975131 ) ) ;
#371 = EDGE_CURVE ( 'NONE', #91, #299, #81, .T. ) ;
#372 = LOCAL_TIME ( 16, 40, 31.00000000000000000, #239 ) ;
#373 = DIRECTION ( 'NONE',  ( 1.000000000000000000, 0.000000000000000000, 0.000000000000000000 ) ) ;
#374 = PERSON_AND_ORGANIZATION_ROLE ( 'design_owner' ) ;
#375 = EDGE_LOOP ( 'NONE', ( #148, #201, #256, #252 ) ) ;
#376 = CARTESIAN_POINT ( 'NONE',  ( -6.000000000000000888, 0.000000000000000000, 757.0000000000000000 ) ) ;
#377 = ORIENTED_EDGE ( 'NONE', *, *, #8, .F. ) ;
#378 = CALENDAR_DATE ( 2022, 8, 7 ) ;
#379 = VERTEX_POINT ( 'NONE', #376 ) ;
#380 = APPROVAL_ROLE ( '' ) ;
#381 = ORIENTED_EDGE ( 'NONE', *, *, #194, .T. ) ;
ENDSEC;
END-ISO-10303-21;
