ISO-10303-21;
HEADER;
FILE_DESCRIPTION (( 'STEP AP203' ),
    '1' );
FILE_NAME ('abe9.STEP',
    '2022-07-08T15:20:44',
    ( '' ),
    ( '' ),
    'SwSTEP 2.0',
    'SolidWorks 2019',
    '' );
FILE_SCHEMA (( 'CONFIG_CONTROL_DESIGN' ));
ENDSEC;

DATA;
#1 = ADVANCED_FACE ( 'NONE', ( #164, #246 ), #89, .F. ) ;
#2 = VERTEX_POINT ( 'NONE', #96 ) ;
#3 = ORIENTED_EDGE ( 'NONE', *, *, #245, .F. ) ;
#4 = ORIENTED_EDGE ( 'NONE', *, *, #373, .F. ) ;
#5 = ORIENTED_EDGE ( 'NONE', *, *, #94, .T. ) ;
#6 = ADVANCED_FACE ( 'NONE', ( #368 ), #35, .T. ) ;
#7 = CARTESIAN_POINT ( 'NONE',  ( -2.500000000000000000, 0.000000000000000000, 0.000000000000000000 ) ) ;
#8 = CARTESIAN_POINT ( 'NONE',  ( 0.000000000000000000, 0.000000000000000000, 5.000000000000000000 ) ) ;
#9 = DIRECTION ( 'NONE',  ( 0.000000000000000000, 0.000000000000000000, 1.000000000000000000 ) ) ;
#10 = VERTEX_POINT ( 'NONE', #276 ) ;
#11 = CIRCLE ( 'NONE', #338, 4.000000000000000000 ) ;
#12 = CARTESIAN_POINT ( 'NONE',  ( 0.000000000000000000, 0.000000000000000000, 5.500000000000005329 ) ) ;
#13 = CC_DESIGN_PERSON_AND_ORGANIZATION_ASSIGNMENT ( #137, #258, ( #72 ) ) ;
#14 = DIRECTION ( 'NONE',  ( -0.000000000000000000, -0.000000000000000000, -1.000000000000000000 ) ) ;
#15 = DIRECTION ( 'NONE',  ( 1.000000000000000000, 0.000000000000000000, 0.000000000000000000 ) ) ;
#16 = CARTESIAN_POINT ( 'NONE',  ( 0.000000000000000000, 0.000000000000000000, 0.000000000000000000 ) ) ;
#17 = VECTOR ( 'NONE', #221, 1000.000000000000000 ) ;
#18 = CARTESIAN_POINT ( 'NONE',  ( 0.000000000000000000, 0.000000000000000000, 165.0000000000000000 ) ) ;
#19 = PRODUCT_DEFINITION_SHAPE ( 'NONE', 'NONE',  #148 ) ;
#20 = CARTESIAN_POINT ( 'NONE',  ( 0.000000000000000000, 0.000000000000000000, 5.000000000000000000 ) ) ;
#21 = EDGE_CURVE ( 'NONE', #10, #346, #161, .T. ) ;
#22 = CARTESIAN_POINT ( 'NONE',  ( 0.000000000000000000, 0.000000000000000000, 165.0000000000000000 ) ) ;
#23 = TOROIDAL_SURFACE ( 'NONE', #168, 4.500000000000000888, 0.5000000000000000000 ) ;
#24 = EDGE_CURVE ( 'NONE', #346, #378, #285, .T. ) ;
#25 =( NAMED_UNIT ( * ) PLANE_ANGLE_UNIT ( ) SI_UNIT ( $, .RADIAN. ) );
#26 = ORIENTED_EDGE ( 'NONE', *, *, #87, .F. ) ;
#27 = ORIENTED_EDGE ( 'NONE', *, *, #65, .F. ) ;
#28 = ORIENTED_EDGE ( 'NONE', *, *, #177, .F. ) ;
#29 = CALENDAR_DATE ( 2022, 8, 7 ) ;
#30 = EDGE_LOOP ( 'NONE', ( #147, #352 ) ) ;
#31 = CC_DESIGN_PERSON_AND_ORGANIZATION_ASSIGNMENT ( #233, #207, ( #91 ) ) ;
#32 = CARTESIAN_POINT ( 'NONE',  ( 0.000000000000000000, 0.000000000000000000, 165.0000000000000000 ) ) ;
#33 = AXIS2_PLACEMENT_3D ( 'NONE', #70, #218, #189 ) ;
#34 = CARTESIAN_POINT ( 'NONE',  ( 7.000000000000000000, 8.572527594031473190E-16, 5.000000000000000000 ) ) ;
#35 = CYLINDRICAL_SURFACE ( 'NONE', #171, 7.000000000000000000 ) ;
#36 = PLANE ( 'NONE',  #317 ) ;
#37 = VERTEX_POINT ( 'NONE', #190 ) ;
#38 = AXIS2_PLACEMENT_3D ( 'NONE', #32, #214, #274 ) ;
#39 = ADVANCED_FACE ( 'NONE', ( #333 ), #155, .F. ) ;
#40 = AXIS2_PLACEMENT_3D ( 'NONE', #194, #41, #15 ) ;
#41 = DIRECTION ( 'NONE',  ( -0.000000000000000000, -0.000000000000000000, -1.000000000000000000 ) ) ;
#42 = DIRECTION ( 'NONE',  ( 1.000000000000000000, 0.000000000000000000, 0.000000000000000000 ) ) ;
#43 = LINE ( 'NONE', #277, #230 ) ;
#44 = CIRCLE ( 'NONE', #309, 7.000000000000000000 ) ;
#45 = FACE_OUTER_BOUND ( 'NONE', #30, .T. ) ;
#46 = AXIS2_PLACEMENT_3D ( 'NONE', #20, #367, #66 ) ;
#47 = APPROVAL_ROLE ( '' ) ;
#48 = DIRECTION ( 'NONE',  ( 0.000000000000000000, 0.000000000000000000, 1.000000000000000000 ) ) ;
#49 = DIRECTION ( 'NONE',  ( 0.000000000000000000, 0.000000000000000000, 1.000000000000000000 ) ) ;
#50 = CIRCLE ( 'NONE', #183, 0.5000000000000004441 ) ;
#51 = AXIS2_PLACEMENT_3D ( 'NONE', #22, #250, #101 ) ;
#52 = APPROVAL_STATUS ( 'not_yet_approved' ) ;
#53 = CIRCLE ( 'NONE', #195, 4.000000000000000000 ) ;
#54 = ORIENTED_EDGE ( 'NONE', *, *, #264, .F. ) ;
#55 = APPROVAL ( #52, 'NEURÈENÝ' ) ;
#56 = ORIENTED_EDGE ( 'NONE', *, *, #364, .T. ) ;
#57 = ORIENTED_EDGE ( 'NONE', *, *, #354, .F. ) ;
#58 = DATE_AND_TIME ( #29, #286 ) ;
#59 = ORIENTED_EDGE ( 'NONE', *, *, #240, .T. ) ;
#60 = CARTESIAN_POINT ( 'NONE',  ( 0.000000000000000000, 0.000000000000000000, 165.0000000000000000 ) ) ;
#61 = CARTESIAN_POINT ( 'NONE',  ( -7.000000000000000000, 0.000000000000000000, 5.000000000000000000 ) ) ;
#62 = APPROVAL_PERSON_ORGANIZATION ( #347, #76, #150 ) ;
#63 = EDGE_LOOP ( 'NONE', ( #329, #181 ) ) ;
#64 = CYLINDRICAL_SURFACE ( 'NONE', #371, 4.000000000000000000 ) ;
#65 = EDGE_CURVE ( 'NONE', #378, #358, #377, .T. ) ;
#66 = DIRECTION ( 'NONE',  ( 1.000000000000000000, 0.000000000000000000, -0.000000000000000000 ) ) ;
#67 = EDGE_LOOP ( 'NONE', ( #241, #321 ) ) ;
#68 = CARTESIAN_POINT ( 'NONE',  ( 0.000000000000000000, 0.000000000000000000, 165.0000000000000000 ) ) ;
#69 = ORIENTED_EDGE ( 'NONE', *, *, #87, .T. ) ;
#70 = CARTESIAN_POINT ( 'NONE',  ( 0.000000000000000000, 0.000000000000000000, 165.0000000000000000 ) ) ;
#71 = MANIFOLD_SOLID_BREP ( 'Odebrat vysunutím3', #356 ) ;
#72 = PRODUCT ( 'abe9', 'abe9', '', ( #167 ) ) ;
#73 = FACE_BOUND ( 'NONE', #263, .T. ) ;
#74 = DIRECTION ( 'NONE',  ( -0.000000000000000000, -0.000000000000000000, -1.000000000000000000 ) ) ;
#75 = DIRECTION ( 'NONE',  ( -0.000000000000000000, -0.000000000000000000, -1.000000000000000000 ) ) ;
#76 = APPROVAL ( #143, 'NEURÈENÝ' ) ;
#77 = APPROVAL_STATUS ( 'not_yet_approved' ) ;
#78 = EDGE_LOOP ( 'NONE', ( #119, #269 ) ) ;
#79 = DATE_AND_TIME ( #84, #216 ) ;
#80 = ORIENTED_EDGE ( 'NONE', *, *, #354, .T. ) ;
#81 = APPROVAL_DATE_TIME ( #85, #55 ) ;
#82 = ADVANCED_FACE ( 'NONE', ( #336 ), #196, .T. ) ;
#83 = ORIENTED_EDGE ( 'NONE', *, *, #136, .F. ) ;
#84 = CALENDAR_DATE ( 2022, 8, 7 ) ;
#85 = DATE_AND_TIME ( #353, #206 ) ;
#86 = EDGE_LOOP ( 'NONE', ( #335, #180, #323, #363 ) ) ;
#87 = EDGE_CURVE ( 'NONE', #208, #358, #50, .T. ) ;
#88 = DIRECTION ( 'NONE',  ( 1.000000000000000000, 0.000000000000000000, -0.000000000000000000 ) ) ;
#89 = PLANE ( 'NONE',  #300 ) ;
#90 = CARTESIAN_POINT ( 'NONE',  ( 0.000000000000000000, 0.000000000000000000, 0.000000000000000000 ) ) ;
#91 = PRODUCT_DEFINITION_FORMATION_WITH_SPECIFIED_SOURCE ( 'LIBOVOLNÝ', '', #72, .NOT_KNOWN. ) ;
#92 = VERTEX_POINT ( 'NONE', #239 ) ;
#93 = DIRECTION ( 'NONE',  ( -0.000000000000000000, -0.000000000000000000, -1.000000000000000000 ) ) ;
#94 = EDGE_CURVE ( 'NONE', #290, #2, #115, .T. ) ;
#95 = APPLICATION_CONTEXT ( 'configuration controlled 3d designs of mechanical parts and assemblies' ) ;
#96 = CARTESIAN_POINT ( 'NONE',  ( 2.500000000000000000, 3.061616997868383141E-16, 165.0000000000000000 ) ) ;
#97 = UNCERTAINTY_MEASURE_WITH_UNIT (LENGTH_MEASURE( 1.000000000000000082E-05 ), #251, 'distance_accuracy_value', 'NONE');
#98 = FACE_BOUND ( 'NONE', #78, .T. ) ;
#99 = CARTESIAN_POINT ( 'NONE',  ( -4.500000000000000888, 5.510910596163089556E-16, 5.500000000000005329 ) ) ;
#100 = CARTESIAN_POINT ( 'NONE',  ( -2.500000000000000000, 0.000000000000000000, 165.0000000000000000 ) ) ;
#101 = DIRECTION ( 'NONE',  ( -1.000000000000000000, 0.000000000000000000, 0.000000000000000000 ) ) ;
#102 = AXIS2_PLACEMENT_3D ( 'NONE', #186, #9, #370 ) ;
#103 = EDGE_CURVE ( 'NONE', #92, #210, #44, .T. ) ;
#104 = DIRECTION ( 'NONE',  ( 1.000000000000000000, 0.000000000000000000, 0.000000000000000000 ) ) ;
#105 = CYLINDRICAL_SURFACE ( 'NONE', #51, 2.500000000000000000 ) ;
#106 =( NAMED_UNIT ( * ) SI_UNIT ( $, .STERADIAN. ) SOLID_ANGLE_UNIT ( ) );
#107 = DIRECTION ( 'NONE',  ( 0.000000000000000000, 0.000000000000000000, 1.000000000000000000 ) ) ;
#108 = EDGE_CURVE ( 'NONE', #290, #265, #341, .T. ) ;
#109 = DIRECTION ( 'NONE',  ( -0.000000000000000000, -0.000000000000000000, -1.000000000000000000 ) ) ;
#110 = CIRCLE ( 'NONE', #375, 2.500000000000000000 ) ;
#111 = LOCAL_TIME ( 17, 20, 44.00000000000000000, #112 ) ;
#112 = COORDINATED_UNIVERSAL_TIME_OFFSET ( 1, 0, .AHEAD. ) ;
#113 = DATE_TIME_ROLE ( 'creation_date' ) ;
#114 = DATE_TIME_ROLE ( 'classification_date' ) ;
#115 = CIRCLE ( 'NONE', #328, 2.500000000000000000 ) ;
#116 = ORIENTED_EDGE ( 'NONE', *, *, #373, .T. ) ;
#117 = EDGE_CURVE ( 'NONE', #231, #37, #289, .T. ) ;
#118 = APPROVAL_PERSON_ORGANIZATION ( #205, #55, #322 ) ;
#119 = ORIENTED_EDGE ( 'NONE', *, *, #94, .F. ) ;
#120 = CC_DESIGN_PERSON_AND_ORGANIZATION_ASSIGNMENT ( #344, #260, ( #148 ) ) ;
#121 = ORIENTED_EDGE ( 'NONE', *, *, #364, .F. ) ;
#122 = DIRECTION ( 'NONE',  ( -1.000000000000000000, 1.224646799147351482E-16, 0.000000000000000000 ) ) ;
#123 = ORIENTED_EDGE ( 'NONE', *, *, #108, .F. ) ;
#124 = CARTESIAN_POINT ( 'NONE',  ( -7.000000000000000000, 0.000000000000000000, 0.000000000000000000 ) ) ;
#125 = CARTESIAN_POINT ( 'NONE',  ( 0.000000000000000000, 0.000000000000000000, 165.0000000000000000 ) ) ;
#126 = EDGE_CURVE ( 'NONE', #145, #208, #43, .T. ) ;
#127 = DIRECTION ( 'NONE',  ( -0.000000000000000000, -0.000000000000000000, -1.000000000000000000 ) ) ;
#128 = ORIENTED_EDGE ( 'NONE', *, *, #177, .T. ) ;
#129 = LINE ( 'NONE', #61, #348 ) ;
#130 = LINE ( 'NONE', #34, #185 ) ;
#131 = FACE_OUTER_BOUND ( 'NONE', #184, .T. ) ;
#132 = DIRECTION ( 'NONE',  ( 1.000000000000000000, 0.000000000000000000, -0.000000000000000000 ) ) ;
#133 = DIRECTION ( 'NONE',  ( 0.000000000000000000, 0.000000000000000000, -1.000000000000000000 ) ) ;
#134 = CIRCLE ( 'NONE', #226, 4.000000000000000000 ) ;
#135 = DIRECTION ( 'NONE',  ( 1.000000000000000000, 0.000000000000000000, 0.000000000000000000 ) ) ;
#136 = EDGE_CURVE ( 'NONE', #37, #231, #303, .T. ) ;
#137 = PERSON_AND_ORGANIZATION ( #242, #232 ) ;
#138 = DIRECTION ( 'NONE',  ( 1.000000000000000000, 0.000000000000000000, 0.000000000000000000 ) ) ;
#139 = TOROIDAL_SURFACE ( 'NONE', #211, 4.500000000000000888, 0.5000000000000000000 ) ;
#140 = CIRCLE ( 'NONE', #102, 4.000000000000000000 ) ;
#141 = DATE_AND_TIME ( #315, #146 ) ;
#142 = EDGE_LOOP ( 'NONE', ( #83, #116, #158, #153 ) ) ;
#143 = APPROVAL_STATUS ( 'not_yet_approved' ) ;
#144 = VECTOR ( 'NONE', #312, 1000.000000000000000 ) ;
#145 = VERTEX_POINT ( 'NONE', #284 ) ;
#146 = LOCAL_TIME ( 17, 20, 44.00000000000000000, #204 ) ;
#147 = ORIENTED_EDGE ( 'NONE', *, *, #117, .T. ) ;
#148 = PRODUCT_DEFINITION ( 'NEZNÁMÝ', '', #91, #259 ) ;
#149 = ORIENTED_EDGE ( 'NONE', *, *, #108, .T. ) ;
#150 = APPROVAL_ROLE ( '' ) ;
#151 = ORIENTED_EDGE ( 'NONE', *, *, #21, .F. ) ;
#152 =( GEOMETRIC_REPRESENTATION_CONTEXT ( 3 ) GLOBAL_UNCERTAINTY_ASSIGNED_CONTEXT ( ( #97 ) ) GLOBAL_UNIT_ASSIGNED_CONTEXT ( ( #251, #25, #106 ) ) REPRESENTATION_CONTEXT ( 'NONE', 'WORKASPACE' ) );
#153 = ORIENTED_EDGE ( 'NONE', *, *, #299, .F. ) ;
#154 = FACE_OUTER_BOUND ( 'NONE', #272, .T. ) ;
#155 = CYLINDRICAL_SURFACE ( 'NONE', #38, 2.500000000000000000 ) ;
#156 = EDGE_CURVE ( 'NONE', #265, #261, #110, .T. ) ;
#157 = CARTESIAN_POINT ( 'NONE',  ( -4.500000000000000888, 5.510910596163088569E-16, 5.000000000000002665 ) ) ;
#158 = ORIENTED_EDGE ( 'NONE', *, *, #103, .T. ) ;
#159 = DIRECTION ( 'NONE',  ( 0.000000000000000000, 0.000000000000000000, 1.000000000000000000 ) ) ;
#160 = APPROVAL_PERSON_ORGANIZATION ( #279, #235, #47 ) ;
#161 = LINE ( 'NONE', #369, #17 ) ;
#162 = FACE_OUTER_BOUND ( 'NONE', #142, .T. ) ;
#163 = ADVANCED_FACE ( 'NONE', ( #169 ), #139, .F. ) ;
#164 = FACE_BOUND ( 'NONE', #67, .T. ) ;
#165 = DIRECTION ( 'NONE',  ( 1.000000000000000000, 0.000000000000000000, 0.000000000000000000 ) ) ;
#166 = CARTESIAN_POINT ( 'NONE',  ( 0.000000000000000000, 0.000000000000000000, 5.000000000000000000 ) ) ;
#167 = MECHANICAL_CONTEXT ( 'NONE', #95, 'mechanical' ) ;
#168 = AXIS2_PLACEMENT_3D ( 'NONE', #271, #49, #104 ) ;
#169 = FACE_OUTER_BOUND ( 'NONE', #266, .T. ) ;
#170 = CARTESIAN_POINT ( 'NONE',  ( 0.000000000000000000, 0.000000000000000000, 5.500000000000005329 ) ) ;
#171 = AXIS2_PLACEMENT_3D ( 'NONE', #8, #217, #302 ) ;
#172 = AXIS2_PLACEMENT_3D ( 'NONE', #166, #48, #372 ) ;
#173 = CC_DESIGN_SECURITY_CLASSIFICATION ( #178, ( #91 ) ) ;
#174 = ORIENTED_EDGE ( 'NONE', *, *, #156, .T. ) ;
#175 = AXIS2_PLACEMENT_3D ( 'NONE', #99, #188, #122 ) ;
#176 = ORIENTED_EDGE ( 'NONE', *, *, #299, .T. ) ;
#177 = EDGE_CURVE ( 'NONE', #2, #261, #310, .T. ) ;
#178 = SECURITY_CLASSIFICATION ( '', '', #212 ) ;
#179 = APPROVAL_DATE_TIME ( #79, #76 ) ;
#180 = ORIENTED_EDGE ( 'NONE', *, *, #202, .F. ) ;
#181 = ORIENTED_EDGE ( 'NONE', *, *, #103, .F. ) ;
#182 = PERSON_AND_ORGANIZATION ( #242, #232 ) ;
#183 = AXIS2_PLACEMENT_3D ( 'NONE', #304, #366, #327 ) ;
#184 = EDGE_LOOP ( 'NONE', ( #5, #128, #325, #123 ) ) ;
#185 = VECTOR ( 'NONE', #249, 1000.000000000000000 ) ;
#186 = CARTESIAN_POINT ( 'NONE',  ( 0.000000000000000000, 0.000000000000000000, 165.0000000000000000 ) ) ;
#187 = ADVANCED_FACE ( 'NONE', ( #131 ), #105, .F. ) ;
#188 = DIRECTION ( 'NONE',  ( 1.224646799147353207E-16, 1.000000000000000000, -0.000000000000000000 ) ) ;
#189 = DIRECTION ( 'NONE',  ( 1.000000000000000000, 0.000000000000000000, 0.000000000000000000 ) ) ;
#190 = CARTESIAN_POINT ( 'NONE',  ( 7.000000000000000000, 8.572527594031473190E-16, 5.000000000000000000 ) ) ;
#191 = CARTESIAN_POINT ( 'NONE',  ( 2.500000000000000000, 3.061616997868383141E-16, 0.000000000000000000 ) ) ;
#192 = ORIENTED_EDGE ( 'NONE', *, *, #24, .F. ) ;
#193 = EDGE_CURVE ( 'NONE', #261, #265, #237, .T. ) ;
#194 = CARTESIAN_POINT ( 'NONE',  ( 0.000000000000000000, 0.000000000000000000, 5.000000000000000000 ) ) ;
#195 = AXIS2_PLACEMENT_3D ( 'NONE', #197, #243, #165 ) ;
#196 = CYLINDRICAL_SURFACE ( 'NONE', #316, 4.000000000000000000 ) ;
#197 = CARTESIAN_POINT ( 'NONE',  ( 0.000000000000000000, 0.000000000000000000, 5.500000000000005329 ) ) ;
#198 = CARTESIAN_POINT ( 'NONE',  ( 0.000000000000000000, 0.000000000000000000, 5.000000000000000000 ) ) ;
#199 = CARTESIAN_POINT ( 'NONE',  ( 0.000000000000000000, 0.000000000000000000, 0.000000000000000000 ) ) ;
#200 = CARTESIAN_POINT ( 'NONE',  ( 4.000000000000000000, 4.898587196589412829E-16, 5.500000000000005329 ) ) ;
#201 = DIRECTION ( 'NONE',  ( 1.000000000000000000, 0.000000000000000000, 0.000000000000000000 ) ) ;
#202 = EDGE_CURVE ( 'NONE', #10, #145, #134, .T. ) ;
#203 = DIRECTION ( 'NONE',  ( 0.000000000000000000, 0.000000000000000000, 1.000000000000000000 ) ) ;
#204 = COORDINATED_UNIVERSAL_TIME_OFFSET ( 1, 0, .AHEAD. ) ;
#205 = PERSON_AND_ORGANIZATION ( #242, #232 ) ;
#206 = LOCAL_TIME ( 17, 20, 44.00000000000000000, #294 ) ;
#207 = PERSON_AND_ORGANIZATION_ROLE ( 'design_supplier' ) ;
#208 = VERTEX_POINT ( 'NONE', #200 ) ;
#209 = ADVANCED_FACE ( 'NONE', ( #73, #45 ), #281, .T. ) ;
#210 = VERTEX_POINT ( 'NONE', #124 ) ;
#211 = AXIS2_PLACEMENT_3D ( 'NONE', #170, #282, #138 ) ;
#212 = SECURITY_CLASSIFICATION_LEVEL ( 'unclassified' ) ;
#213 = ORIENTED_EDGE ( 'NONE', *, *, #24, .T. ) ;
#214 = DIRECTION ( 'NONE',  ( 0.000000000000000000, 0.000000000000000000, -1.000000000000000000 ) ) ;
#215 = DIRECTION ( 'NONE',  ( -1.000000000000000000, 0.000000000000000000, 0.000000000000000000 ) ) ;
#216 = LOCAL_TIME ( 17, 20, 44.00000000000000000, #360 ) ;
#217 = DIRECTION ( 'NONE',  ( -0.000000000000000000, -0.000000000000000000, -1.000000000000000000 ) ) ;
#218 = DIRECTION ( 'NONE',  ( 0.000000000000000000, 0.000000000000000000, 1.000000000000000000 ) ) ;
#219 = CC_DESIGN_PERSON_AND_ORGANIZATION_ASSIGNMENT ( #182, #351, ( #178 ) ) ;
#220 = CYLINDRICAL_SURFACE ( 'NONE', #343, 7.000000000000000000 ) ;
#221 = DIRECTION ( 'NONE',  ( -0.000000000000000000, -0.000000000000000000, -1.000000000000000000 ) ) ;
#222 = DIRECTION ( 'NONE',  ( 1.000000000000000000, 0.000000000000000000, 0.000000000000000000 ) ) ;
#223 = CARTESIAN_POINT ( 'NONE',  ( 0.000000000000000000, 0.000000000000000000, 0.000000000000000000 ) ) ;
#224 = CALENDAR_DATE ( 2022, 8, 7 ) ;
#225 = DIRECTION ( 'NONE',  ( 1.000000000000000000, 0.000000000000000000, 0.000000000000000000 ) ) ;
#226 = AXIS2_PLACEMENT_3D ( 'NONE', #307, #253, #225 ) ;
#227 = DATE_AND_TIME ( #224, #111 ) ;
#228 = ADVANCED_FACE ( 'NONE', ( #301 ), #64, .T. ) ;
#229 = ORIENTED_EDGE ( 'NONE', *, *, #278, .T. ) ;
#230 = VECTOR ( 'NONE', #75, 1000.000000000000000 ) ;
#231 = VERTEX_POINT ( 'NONE', #339 ) ;
#232 = ORGANIZATION ( 'NEURÈENÝ', 'NEURÈENÝ', '' ) ;
#233 = PERSON_AND_ORGANIZATION ( #242, #232 ) ;
#234 = ORIENTED_EDGE ( 'NONE', *, *, #65, .T. ) ;
#235 = APPROVAL ( #77, 'NEURÈENÝ' ) ;
#236 = EDGE_LOOP ( 'NONE', ( #4, #319, #176, #229 ) ) ;
#237 = CIRCLE ( 'NONE', #267, 2.500000000000000000 ) ;
#238 = CIRCLE ( 'NONE', #40, 4.500000000000000888 ) ;
#239 = CARTESIAN_POINT ( 'NONE',  ( 7.000000000000000000, 8.572527594031473190E-16, 0.000000000000000000 ) ) ;
#240 = EDGE_CURVE ( 'NONE', #2, #290, #330, .T. ) ;
#241 = ORIENTED_EDGE ( 'NONE', *, *, #156, .F. ) ;
#242 = PERSON ( 'NEURÈENÝ', 'NEURÈENÝ', 'NEURÈENÝ', ('NEURÈENÝ'), ('NEURÈENÝ'), ('NEURÈENÝ') ) ;
#243 = DIRECTION ( 'NONE',  ( 0.000000000000000000, 0.000000000000000000, 1.000000000000000000 ) ) ;
#244 = DIRECTION ( 'NONE',  ( -1.000000000000000000, 0.000000000000000000, 0.000000000000000000 ) ) ;
#245 = EDGE_CURVE ( 'NONE', #145, #10, #140, .T. ) ;
#246 = FACE_OUTER_BOUND ( 'NONE', #63, .T. ) ;
#247 = DIRECTION ( 'NONE',  ( -0.000000000000000000, -0.000000000000000000, -1.000000000000000000 ) ) ;
#248 = DIRECTION ( 'NONE',  ( 0.000000000000000000, 0.000000000000000000, 1.000000000000000000 ) ) ;
#249 = DIRECTION ( 'NONE',  ( -0.000000000000000000, -0.000000000000000000, -1.000000000000000000 ) ) ;
#250 = DIRECTION ( 'NONE',  ( 0.000000000000000000, 0.000000000000000000, -1.000000000000000000 ) ) ;
#251 =( LENGTH_UNIT ( ) NAMED_UNIT ( * ) SI_UNIT ( .MILLI., .METRE. ) );
#252 = CIRCLE ( 'NONE', #268, 7.000000000000000000 ) ;
#253 = DIRECTION ( 'NONE',  ( 0.000000000000000000, 0.000000000000000000, 1.000000000000000000 ) ) ;
#254 = CARTESIAN_POINT ( 'NONE',  ( -2.500000000000000000, 0.000000000000000000, 165.0000000000000000 ) ) ;
#255 = APPLICATION_PROTOCOL_DEFINITION ( 'international standard', 'config_control_design', 1994, #326 ) ;
#256 = DIRECTION ( 'NONE',  ( 1.000000000000000000, 0.000000000000000000, 0.000000000000000000 ) ) ;
#257 = AXIS2_PLACEMENT_3D ( 'NONE', #296, #14, #42 ) ;
#258 = PERSON_AND_ORGANIZATION_ROLE ( 'design_owner' ) ;
#259 = DESIGN_CONTEXT ( 'detailed design', #326, 'design' ) ;
#260 = PERSON_AND_ORGANIZATION_ROLE ( 'creator' ) ;
#261 = VERTEX_POINT ( 'NONE', #191 ) ;
#262 = PERSON_AND_ORGANIZATION ( #242, #232 ) ;
#263 = EDGE_LOOP ( 'NONE', ( #56, #234 ) ) ;
#264 = EDGE_CURVE ( 'NONE', #346, #208, #53, .T. ) ;
#265 = VERTEX_POINT ( 'NONE', #7 ) ;
#266 = EDGE_LOOP ( 'NONE', ( #192, #57, #69, #27 ) ) ;
#267 = AXIS2_PLACEMENT_3D ( 'NONE', #340, #109, #135 ) ;
#268 = AXIS2_PLACEMENT_3D ( 'NONE', #90, #305, #362 ) ;
#269 = ORIENTED_EDGE ( 'NONE', *, *, #240, .F. ) ;
#270 = DIRECTION ( 'NONE',  ( -0.000000000000000000, -0.000000000000000000, -1.000000000000000000 ) ) ;
#271 = CARTESIAN_POINT ( 'NONE',  ( 0.000000000000000000, 0.000000000000000000, 5.500000000000005329 ) ) ;
#272 = EDGE_LOOP ( 'NONE', ( #54, #213, #121, #26 ) ) ;
#273 = CARTESIAN_POINT ( 'NONE',  ( -4.000000000000000000, 0.000000000000000000, 5.500000000000005329 ) ) ;
#274 = DIRECTION ( 'NONE',  ( -1.000000000000000000, 0.000000000000000000, 0.000000000000000000 ) ) ;
#275 = DIRECTION ( 'NONE',  ( -1.000000000000000000, 0.000000000000000000, 0.000000000000000000 ) ) ;
#276 = CARTESIAN_POINT ( 'NONE',  ( -4.000000000000000000, 0.000000000000000000, 165.0000000000000000 ) ) ;
#277 = CARTESIAN_POINT ( 'NONE',  ( 4.000000000000000000, 4.898587196589412829E-16, 165.0000000000000000 ) ) ;
#278 = EDGE_CURVE ( 'NONE', #210, #92, #252, .T. ) ;
#279 = PERSON_AND_ORGANIZATION ( #242, #232 ) ;
#280 = CC_DESIGN_APPROVAL ( #76, ( #178 ) ) ;
#281 = PLANE ( 'NONE',  #46 ) ;
#282 = DIRECTION ( 'NONE',  ( 0.000000000000000000, 0.000000000000000000, 1.000000000000000000 ) ) ;
#283 = CC_DESIGN_PERSON_AND_ORGANIZATION_ASSIGNMENT ( #262, #292, ( #91 ) ) ;
#284 = CARTESIAN_POINT ( 'NONE',  ( 4.000000000000000000, 4.898587196589412829E-16, 165.0000000000000000 ) ) ;
#285 = CIRCLE ( 'NONE', #175, 0.5000000000000004441 ) ;
#286 = LOCAL_TIME ( 17, 20, 44.00000000000000000, #320 ) ;
#287 = EDGE_LOOP ( 'NONE', ( #28, #59, #149, #174 ) ) ;
#288 = ADVANCED_BREP_SHAPE_REPRESENTATION ( 'abe9', ( #71, #359 ), #152 ) ;
#289 = CIRCLE ( 'NONE', #172, 7.000000000000000000 ) ;
#290 = VERTEX_POINT ( 'NONE', #100 ) ;
#291 = ORIENTED_EDGE ( 'NONE', *, *, #202, .T. ) ;
#292 = PERSON_AND_ORGANIZATION_ROLE ( 'creator' ) ;
#293 = ORIENTED_EDGE ( 'NONE', *, *, #126, .T. ) ;
#294 = COORDINATED_UNIVERSAL_TIME_OFFSET ( 1, 0, .AHEAD. ) ;
#295 = DIRECTION ( 'NONE',  ( 0.000000000000000000, 0.000000000000000000, 1.000000000000000000 ) ) ;
#296 = CARTESIAN_POINT ( 'NONE',  ( 0.000000000000000000, 0.000000000000000000, 5.000000000000000000 ) ) ;
#297 = FACE_OUTER_BOUND ( 'NONE', #350, .T. ) ;
#298 = DIRECTION ( 'NONE',  ( 0.000000000000000000, 0.000000000000000000, 1.000000000000000000 ) ) ;
#299 = EDGE_CURVE ( 'NONE', #231, #210, #129, .T. ) ;
#300 = AXIS2_PLACEMENT_3D ( 'NONE', #361, #248, #88 ) ;
#301 = FACE_OUTER_BOUND ( 'NONE', #86, .T. ) ;
#302 = DIRECTION ( 'NONE',  ( -1.000000000000000000, 0.000000000000000000, 0.000000000000000000 ) ) ;
#303 = CIRCLE ( 'NONE', #379, 7.000000000000000000 ) ;
#304 = CARTESIAN_POINT ( 'NONE',  ( 4.500000000000000888, 0.000000000000000000, 5.500000000000005329 ) ) ;
#305 = DIRECTION ( 'NONE',  ( 0.000000000000000000, 0.000000000000000000, 1.000000000000000000 ) ) ;
#306 = CC_DESIGN_DATE_AND_TIME_ASSIGNMENT ( #141, #113, ( #148 ) ) ;
#307 = CARTESIAN_POINT ( 'NONE',  ( 0.000000000000000000, 0.000000000000000000, 165.0000000000000000 ) ) ;
#308 = DIRECTION ( 'NONE',  ( 1.000000000000000000, 0.000000000000000000, 0.000000000000000000 ) ) ;
#309 = AXIS2_PLACEMENT_3D ( 'NONE', #223, #203, #342 ) ;
#310 = LINE ( 'NONE', #374, #357 ) ;
#311 = APPLICATION_PROTOCOL_DEFINITION ( 'international standard', 'config_control_design', 1994, #95 ) ;
#312 = DIRECTION ( 'NONE',  ( 0.000000000000000000, 0.000000000000000000, -1.000000000000000000 ) ) ;
#313 = ADVANCED_FACE ( 'NONE', ( #162 ), #220, .T. ) ;
#314 = APPROVAL_DATE_TIME ( #227, #235 ) ;
#315 = CALENDAR_DATE ( 2022, 8, 7 ) ;
#316 = AXIS2_PLACEMENT_3D ( 'NONE', #125, #270, #244 ) ;
#317 = AXIS2_PLACEMENT_3D ( 'NONE', #68, #159, #132 ) ;
#318 = SHAPE_DEFINITION_REPRESENTATION ( #19, #288 ) ;
#319 = ORIENTED_EDGE ( 'NONE', *, *, #117, .F. ) ;
#320 = COORDINATED_UNIVERSAL_TIME_OFFSET ( 1, 0, .AHEAD. ) ;
#321 = ORIENTED_EDGE ( 'NONE', *, *, #193, .F. ) ;
#322 = APPROVAL_ROLE ( '' ) ;
#323 = ORIENTED_EDGE ( 'NONE', *, *, #21, .T. ) ;
#324 = PRODUCT_RELATED_PRODUCT_CATEGORY ( 'detail', '', ( #72 ) ) ;
#325 = ORIENTED_EDGE ( 'NONE', *, *, #193, .T. ) ;
#326 = APPLICATION_CONTEXT ( 'configuration controlled 3d designs of mechanical parts and assemblies' ) ;
#327 = DIRECTION ( 'NONE',  ( 0.000000000000000000, 0.000000000000000000, -1.000000000000000000 ) ) ;
#328 = AXIS2_PLACEMENT_3D ( 'NONE', #60, #298, #201 ) ;
#329 = ORIENTED_EDGE ( 'NONE', *, *, #278, .F. ) ;
#330 = CIRCLE ( 'NONE', #33, 2.500000000000000000 ) ;
#331 = CARTESIAN_POINT ( 'NONE',  ( 0.000000000000000000, 0.000000000000000000, 5.000000000000000000 ) ) ;
#332 = ADVANCED_FACE ( 'NONE', ( #98, #297 ), #36, .T. ) ;
#333 = FACE_OUTER_BOUND ( 'NONE', #287, .T. ) ;
#334 = CARTESIAN_POINT ( 'NONE',  ( 4.500000000000000888, 0.000000000000000000, 5.000000000000002665 ) ) ;
#335 = ORIENTED_EDGE ( 'NONE', *, *, #126, .F. ) ;
#336 = FACE_OUTER_BOUND ( 'NONE', #355, .T. ) ;
#337 = CC_DESIGN_DATE_AND_TIME_ASSIGNMENT ( #58, #114, ( #178 ) ) ;
#338 = AXIS2_PLACEMENT_3D ( 'NONE', #12, #295, #365 ) ;
#339 = CARTESIAN_POINT ( 'NONE',  ( -7.000000000000000000, 0.000000000000000000, 5.000000000000000000 ) ) ;
#340 = CARTESIAN_POINT ( 'NONE',  ( 0.000000000000000000, 0.000000000000000000, 0.000000000000000000 ) ) ;
#341 = LINE ( 'NONE', #254, #144 ) ;
#342 = DIRECTION ( 'NONE',  ( 1.000000000000000000, 0.000000000000000000, 0.000000000000000000 ) ) ;
#343 = AXIS2_PLACEMENT_3D ( 'NONE', #331, #247, #275 ) ;
#344 = PERSON_AND_ORGANIZATION ( #242, #232 ) ;
#345 = DIRECTION ( 'NONE',  ( 0.000000000000000000, 0.000000000000000000, 1.000000000000000000 ) ) ;
#346 = VERTEX_POINT ( 'NONE', #273 ) ;
#347 = PERSON_AND_ORGANIZATION ( #242, #232 ) ;
#348 = VECTOR ( 'NONE', #127, 1000.000000000000000 ) ;
#349 = CC_DESIGN_APPROVAL ( #235, ( #148 ) ) ;
#350 = EDGE_LOOP ( 'NONE', ( #291, #381 ) ) ;
#351 = PERSON_AND_ORGANIZATION_ROLE ( 'classification_officer' ) ;
#352 = ORIENTED_EDGE ( 'NONE', *, *, #136, .T. ) ;
#353 = CALENDAR_DATE ( 2022, 8, 7 ) ;
#354 = EDGE_CURVE ( 'NONE', #208, #346, #11, .T. ) ;
#355 = EDGE_LOOP ( 'NONE', ( #3, #293, #80, #151 ) ) ;
#356 = CLOSED_SHELL ( 'NONE', ( #187, #376, #82, #313, #6, #209, #1, #228, #332, #163, #39 ) ) ;
#357 = VECTOR ( 'NONE', #133, 1000.000000000000000 ) ;
#358 = VERTEX_POINT ( 'NONE', #334 ) ;
#359 = AXIS2_PLACEMENT_3D ( 'NONE', #199, #345, #308 ) ;
#360 = COORDINATED_UNIVERSAL_TIME_OFFSET ( 1, 0, .AHEAD. ) ;
#361 = CARTESIAN_POINT ( 'NONE',  ( 0.000000000000000000, 0.000000000000000000, 0.000000000000000000 ) ) ;
#362 = DIRECTION ( 'NONE',  ( 1.000000000000000000, 0.000000000000000000, 0.000000000000000000 ) ) ;
#363 = ORIENTED_EDGE ( 'NONE', *, *, #264, .T. ) ;
#364 = EDGE_CURVE ( 'NONE', #358, #378, #238, .T. ) ;
#365 = DIRECTION ( 'NONE',  ( 1.000000000000000000, 0.000000000000000000, 0.000000000000000000 ) ) ;
#366 = DIRECTION ( 'NONE',  ( 0.000000000000000000, -1.000000000000000000, 0.000000000000000000 ) ) ;
#367 = DIRECTION ( 'NONE',  ( 0.000000000000000000, 0.000000000000000000, 1.000000000000000000 ) ) ;
#368 = FACE_OUTER_BOUND ( 'NONE', #236, .T. ) ;
#369 = CARTESIAN_POINT ( 'NONE',  ( -4.000000000000000000, 0.000000000000000000, 165.0000000000000000 ) ) ;
#370 = DIRECTION ( 'NONE',  ( 1.000000000000000000, 0.000000000000000000, 0.000000000000000000 ) ) ;
#371 = AXIS2_PLACEMENT_3D ( 'NONE', #18, #93, #215 ) ;
#372 = DIRECTION ( 'NONE',  ( 1.000000000000000000, 0.000000000000000000, 0.000000000000000000 ) ) ;
#373 = EDGE_CURVE ( 'NONE', #37, #92, #130, .T. ) ;
#374 = CARTESIAN_POINT ( 'NONE',  ( 2.500000000000000000, 3.061616997868383141E-16, 165.0000000000000000 ) ) ;
#375 = AXIS2_PLACEMENT_3D ( 'NONE', #16, #74, #256 ) ;
#376 = ADVANCED_FACE ( 'NONE', ( #154 ), #23, .F. ) ;
#377 = CIRCLE ( 'NONE', #257, 4.500000000000000888 ) ;
#378 = VERTEX_POINT ( 'NONE', #157 ) ;
#379 = AXIS2_PLACEMENT_3D ( 'NONE', #198, #107, #222 ) ;
#380 = CC_DESIGN_APPROVAL ( #55, ( #91 ) ) ;
#381 = ORIENTED_EDGE ( 'NONE', *, *, #245, .T. ) ;
ENDSEC;
END-ISO-10303-21;
