ISO-10303-21;
HEADER;
FILE_DESCRIPTION (( 'STEP AP203' ),
    '1' );
FILE_NAME ('b154.STEP',
    '2022-07-08T15:15:44',
    ( '' ),
    ( '' ),
    'SwSTEP 2.0',
    'SolidWorks 2019',
    '' );
FILE_SCHEMA (( 'CONFIG_CONTROL_DESIGN' ));
ENDSEC;

DATA;
#1 = APPROVAL_DATE_TIME ( #213, #149 ) ;
#2 = ORIENTED_EDGE ( 'NONE', *, *, #337, .F. ) ;
#3 = DIRECTION ( 'NONE',  ( -1.000000000000000000, 1.224646799147351482E-16, 0.000000000000000000 ) ) ;
#4 = ORIENTED_EDGE ( 'NONE', *, *, #216, .T. ) ;
#5 = DATE_AND_TIME ( #153, #215 ) ;
#6 = ADVANCED_FACE ( 'NONE', ( #144, #112 ), #237, .F. ) ;
#7 = DIRECTION ( 'NONE',  ( 1.000000000000000000, 0.000000000000000000, 0.000000000000000000 ) ) ;
#8 = CARTESIAN_POINT ( 'NONE',  ( -5.500000000000000000, 6.735557395310442023E-16, 5.500000000000005329 ) ) ;
#9 = UNCERTAINTY_MEASURE_WITH_UNIT (LENGTH_MEASURE( 1.000000000000000082E-05 ), #49, 'distance_accuracy_value', 'NONE');
#10 = VERTEX_POINT ( 'NONE', #352 ) ;
#11 = EDGE_CURVE ( 'NONE', #183, #312, #379, .T. ) ;
#12 = CIRCLE ( 'NONE', #293, 5.500000000000000000 ) ;
#13 = DIRECTION ( 'NONE',  ( 1.000000000000000000, 0.000000000000000000, 0.000000000000000000 ) ) ;
#14 = ORIENTED_EDGE ( 'NONE', *, *, #268, .T. ) ;
#15 = DIRECTION ( 'NONE',  ( 1.000000000000000000, 0.000000000000000000, 0.000000000000000000 ) ) ;
#16 = PRODUCT_DEFINITION ( 'NEZNÁMÝ', '', #139, #123 ) ;
#17 = VERTEX_POINT ( 'NONE', #270 ) ;
#18 = VECTOR ( 'NONE', #339, 1000.000000000000000 ) ;
#19 = FACE_BOUND ( 'NONE', #20, .T. ) ;
#20 = EDGE_LOOP ( 'NONE', ( #349, #248 ) ) ;
#21 = ADVANCED_FACE ( 'NONE', ( #355, #359 ), #33, .T. ) ;
#22 = CIRCLE ( 'NONE', #154, 0.5000000000000004441 ) ;
#23 = CARTESIAN_POINT ( 'NONE',  ( 0.000000000000000000, 0.000000000000000000, 0.000000000000000000 ) ) ;
#24 = PERSON_AND_ORGANIZATION ( #74, #323 ) ;
#25 = ORIENTED_EDGE ( 'NONE', *, *, #265, .F. ) ;
#26 = VECTOR ( 'NONE', #313, 1000.000000000000000 ) ;
#27 = PRODUCT_DEFINITION_SHAPE ( 'NONE', 'NONE',  #16 ) ;
#28 = VERTEX_POINT ( 'NONE', #90 ) ;
#29 = DIRECTION ( 'NONE',  ( 1.224646799147353207E-16, 1.000000000000000000, -0.000000000000000000 ) ) ;
#30 = PERSON_AND_ORGANIZATION_ROLE ( 'classification_officer' ) ;
#31 = DIRECTION ( 'NONE',  ( -1.000000000000000000, 0.000000000000000000, 0.000000000000000000 ) ) ;
#32 = SHAPE_DEFINITION_REPRESENTATION ( #27, #53 ) ;
#33 = PLANE ( 'NONE',  #255 ) ;
#34 = VECTOR ( 'NONE', #282, 1000.000000000000000 ) ;
#35 = ORIENTED_EDGE ( 'NONE', *, *, #373, .T. ) ;
#36 = PERSON_AND_ORGANIZATION_ROLE ( 'design_supplier' ) ;
#37 = CYLINDRICAL_SURFACE ( 'NONE', #130, 5.000000000000000000 ) ;
#38 = ADVANCED_FACE ( 'NONE', ( #214 ), #303, .F. ) ;
#39 = VERTEX_POINT ( 'NONE', #156 ) ;
#40 = CARTESIAN_POINT ( 'NONE',  ( -8.000000000000000000, 0.000000000000000000, 5.000000000000000000 ) ) ;
#41 = ORIENTED_EDGE ( 'NONE', *, *, #378, .T. ) ;
#42 = ORIENTED_EDGE ( 'NONE', *, *, #59, .F. ) ;
#43 = AXIS2_PLACEMENT_3D ( 'NONE', #135, #72, #367 ) ;
#44 = CYLINDRICAL_SURFACE ( 'NONE', #57, 8.000000000000000000 ) ;
#45 = DIRECTION ( 'NONE',  ( -1.000000000000000000, 0.000000000000000000, 0.000000000000000000 ) ) ;
#46 = APPROVAL_PERSON_ORGANIZATION ( #330, #48, #269 ) ;
#47 = CYLINDRICAL_SURFACE ( 'NONE', #43, 5.000000000000000000 ) ;
#48 = APPROVAL ( #63, 'NEURÈENÝ' ) ;
#49 =( LENGTH_UNIT ( ) NAMED_UNIT ( * ) SI_UNIT ( .MILLI., .METRE. ) );
#50 = CARTESIAN_POINT ( 'NONE',  ( 0.000000000000000000, 0.000000000000000000, 5.000000000000000000 ) ) ;
#51 = AXIS2_PLACEMENT_3D ( 'NONE', #110, #207, #374 ) ;
#52 = CARTESIAN_POINT ( 'NONE',  ( 2.500000000000000000, 3.061616997868383141E-16, 0.000000000000000000 ) ) ;
#53 = ADVANCED_BREP_SHAPE_REPRESENTATION ( 'b154', ( #329, #73 ), #167 ) ;
#54 = DIRECTION ( 'NONE',  ( -0.000000000000000000, -0.000000000000000000, -1.000000000000000000 ) ) ;
#55 = CC_DESIGN_PERSON_AND_ORGANIZATION_ASSIGNMENT ( #174, #240, ( #16 ) ) ;
#56 = VERTEX_POINT ( 'NONE', #127 ) ;
#57 = AXIS2_PLACEMENT_3D ( 'NONE', #194, #218, #106 ) ;
#58 = CARTESIAN_POINT ( 'NONE',  ( 0.000000000000000000, 0.000000000000000000, 0.000000000000000000 ) ) ;
#59 = EDGE_CURVE ( 'NONE', #39, #312, #335, .T. ) ;
#60 = SECURITY_CLASSIFICATION_LEVEL ( 'unclassified' ) ;
#61 = DIRECTION ( 'NONE',  ( 1.000000000000000000, 0.000000000000000000, 0.000000000000000000 ) ) ;
#62 = ORIENTED_EDGE ( 'NONE', *, *, #247, .F. ) ;
#63 = APPROVAL_STATUS ( 'not_yet_approved' ) ;
#64 = DIRECTION ( 'NONE',  ( -0.000000000000000000, -0.000000000000000000, -1.000000000000000000 ) ) ;
#65 = VERTEX_POINT ( 'NONE', #328 ) ;
#66 = EDGE_CURVE ( 'NONE', #65, #10, #280, .T. ) ;
#67 = CARTESIAN_POINT ( 'NONE',  ( 0.000000000000000000, 0.000000000000000000, 5.000000000000000000 ) ) ;
#68 = ORIENTED_EDGE ( 'NONE', *, *, #353, .F. ) ;
#69 = EDGE_LOOP ( 'NONE', ( #290, #118 ) ) ;
#70 = LINE ( 'NONE', #257, #209 ) ;
#71 = ORIENTED_EDGE ( 'NONE', *, *, #353, .T. ) ;
#72 = DIRECTION ( 'NONE',  ( -0.000000000000000000, -0.000000000000000000, -1.000000000000000000 ) ) ;
#73 = AXIS2_PLACEMENT_3D ( 'NONE', #23, #146, #264 ) ;
#74 = PERSON ( 'NEURÈENÝ', 'NEURÈENÝ', 'NEURÈENÝ', ('NEURÈENÝ'), ('NEURÈENÝ'), ('NEURÈENÝ') ) ;
#75 = EDGE_CURVE ( 'NONE', #301, #28, #129, .T. ) ;
#76 = DIRECTION ( 'NONE',  ( 0.000000000000000000, 0.000000000000000000, 1.000000000000000000 ) ) ;
#77 = FACE_OUTER_BOUND ( 'NONE', #136, .T. ) ;
#78 = CARTESIAN_POINT ( 'NONE',  ( 0.000000000000000000, 0.000000000000000000, 5.500000000000005329 ) ) ;
#79 = ADVANCED_FACE ( 'NONE', ( #124 ), #175, .T. ) ;
#80 = EDGE_LOOP ( 'NONE', ( #25, #68, #334, #173 ) ) ;
#81 = CIRCLE ( 'NONE', #317, 5.000000000000000000 ) ;
#82 = MECHANICAL_CONTEXT ( 'NONE', #258, 'mechanical' ) ;
#83 = DATE_AND_TIME ( #107, #366 ) ;
#84 = CARTESIAN_POINT ( 'NONE',  ( 0.000000000000000000, 0.000000000000000000, 0.000000000000000000 ) ) ;
#85 = CC_DESIGN_APPROVAL ( #177, ( #16 ) ) ;
#86 = CARTESIAN_POINT ( 'NONE',  ( 0.000000000000000000, 0.000000000000000000, 5.500000000000005329 ) ) ;
#87 = DIRECTION ( 'NONE',  ( 1.000000000000000000, 0.000000000000000000, 0.000000000000000000 ) ) ;
#88 = EDGE_LOOP ( 'NONE', ( #360, #212 ) ) ;
#89 = EDGE_CURVE ( 'NONE', #28, #17, #12, .T. ) ;
#90 = CARTESIAN_POINT ( 'NONE',  ( -5.500000000000000000, 6.735557395310442023E-16, 5.000000000000002665 ) ) ;
#91 = CIRCLE ( 'NONE', #256, 5.000000000000000000 ) ;
#92 = PERSON_AND_ORGANIZATION_ROLE ( 'creator' ) ;
#93 = DIRECTION ( 'NONE',  ( 1.000000000000000000, 0.000000000000000000, 0.000000000000000000 ) ) ;
#94 = DATE_AND_TIME ( #178, #305 ) ;
#95 = DIRECTION ( 'NONE',  ( 1.000000000000000000, 0.000000000000000000, -0.000000000000000000 ) ) ;
#96 = PERSON_AND_ORGANIZATION ( #74, #323 ) ;
#97 = COORDINATED_UNIVERSAL_TIME_OFFSET ( 1, 0, .AHEAD. ) ;
#98 = AXIS2_PLACEMENT_3D ( 'NONE', #314, #160, #227 ) ;
#99 = DIRECTION ( 'NONE',  ( -0.000000000000000000, -0.000000000000000000, -1.000000000000000000 ) ) ;
#100 = ORIENTED_EDGE ( 'NONE', *, *, #260, .F. ) ;
#101 = DIRECTION ( 'NONE',  ( 0.000000000000000000, 0.000000000000000000, 1.000000000000000000 ) ) ;
#102 = CARTESIAN_POINT ( 'NONE',  ( -5.000000000000000000, 0.000000000000000000, 355.0000000000000000 ) ) ;
#103 = DIRECTION ( 'NONE',  ( 0.000000000000000000, 0.000000000000000000, 1.000000000000000000 ) ) ;
#104 = ORIENTED_EDGE ( 'NONE', *, *, #89, .F. ) ;
#105 = EDGE_CURVE ( 'NONE', #128, #65, #182, .T. ) ;
#106 = DIRECTION ( 'NONE',  ( -1.000000000000000000, 0.000000000000000000, 0.000000000000000000 ) ) ;
#107 = CALENDAR_DATE ( 2022, 8, 7 ) ;
#108 = CIRCLE ( 'NONE', #327, 5.500000000000000000 ) ;
#109 =( NAMED_UNIT ( * ) PLANE_ANGLE_UNIT ( ) SI_UNIT ( $, .RADIAN. ) );
#110 = CARTESIAN_POINT ( 'NONE',  ( 0.000000000000000000, 0.000000000000000000, 355.0000000000000000 ) ) ;
#111 = PRODUCT_RELATED_PRODUCT_CATEGORY ( 'detail', '', ( #226 ) ) ;
#112 = FACE_OUTER_BOUND ( 'NONE', #69, .T. ) ;
#113 = AXIS2_PLACEMENT_3D ( 'NONE', #288, #354, #348 ) ;
#114 =( NAMED_UNIT ( * ) SI_UNIT ( $, .STERADIAN. ) SOLID_ANGLE_UNIT ( ) );
#115 = CC_DESIGN_DATE_AND_TIME_ASSIGNMENT ( #5, #276, ( #351 ) ) ;
#116 = PERSON_AND_ORGANIZATION ( #74, #323 ) ;
#117 = DIRECTION ( 'NONE',  ( 0.000000000000000000, 0.000000000000000000, -1.000000000000000000 ) ) ;
#118 = ORIENTED_EDGE ( 'NONE', *, *, #274, .F. ) ;
#119 = AXIS2_PLACEMENT_3D ( 'NONE', #84, #202, #234 ) ;
#120 = AXIS2_PLACEMENT_3D ( 'NONE', #191, #103, #15 ) ;
#121 = DATE_AND_TIME ( #302, #181 ) ;
#122 = DIRECTION ( 'NONE',  ( -0.000000000000000000, -0.000000000000000000, -1.000000000000000000 ) ) ;
#123 = DESIGN_CONTEXT ( 'detailed design', #277, 'design' ) ;
#124 = FACE_OUTER_BOUND ( 'NONE', #80, .T. ) ;
#125 = ADVANCED_FACE ( 'NONE', ( #246 ), #37, .T. ) ;
#126 = APPROVAL_ROLE ( '' ) ;
#127 = CARTESIAN_POINT ( 'NONE',  ( 5.000000000000000000, 6.123233995736766282E-16, 5.500000000000005329 ) ) ;
#128 = VERTEX_POINT ( 'NONE', #208 ) ;
#129 = CIRCLE ( 'NONE', #180, 0.5000000000000004441 ) ;
#130 = AXIS2_PLACEMENT_3D ( 'NONE', #158, #99, #239 ) ;
#131 = CARTESIAN_POINT ( 'NONE',  ( -2.500000000000000000, 0.000000000000000000, 0.000000000000000000 ) ) ;
#132 = EDGE_LOOP ( 'NONE', ( #266, #2 ) ) ;
#133 = ADVANCED_FACE ( 'NONE', ( #308 ), #47, .T. ) ;
#134 = CARTESIAN_POINT ( 'NONE',  ( 0.000000000000000000, 0.000000000000000000, 5.000000000000000000 ) ) ;
#135 = CARTESIAN_POINT ( 'NONE',  ( 0.000000000000000000, 0.000000000000000000, 355.0000000000000000 ) ) ;
#136 = EDGE_LOOP ( 'NONE', ( #71, #279 ) ) ;
#137 = CARTESIAN_POINT ( 'NONE',  ( -2.500000000000000000, 0.000000000000000000, 355.0000000000000000 ) ) ;
#138 = LOCAL_TIME ( 17, 15, 44.00000000000000000, #97 ) ;
#139 = PRODUCT_DEFINITION_FORMATION_WITH_SPECIFIED_SOURCE ( 'LIBOVOLNÝ', '', #226, .NOT_KNOWN. ) ;
#140 = ADVANCED_FACE ( 'NONE', ( #19, #77 ), #283, .T. ) ;
#141 = LINE ( 'NONE', #102, #18 ) ;
#142 = APPROVAL_STATUS ( 'not_yet_approved' ) ;
#143 = VERTEX_POINT ( 'NONE', #311 ) ;
#144 = FACE_BOUND ( 'NONE', #132, .T. ) ;
#145 = AXIS2_PLACEMENT_3D ( 'NONE', #289, #54, #205 ) ;
#146 = DIRECTION ( 'NONE',  ( 0.000000000000000000, 0.000000000000000000, 1.000000000000000000 ) ) ;
#147 = DIRECTION ( 'NONE',  ( 0.000000000000000000, -1.000000000000000000, 0.000000000000000000 ) ) ;
#148 = ORIENTED_EDGE ( 'NONE', *, *, #75, .T. ) ;
#149 = APPROVAL ( #238, 'NEURÈENÝ' ) ;
#150 = CC_DESIGN_SECURITY_CLASSIFICATION ( #351, ( #139 ) ) ;
#151 = ORIENTED_EDGE ( 'NONE', *, *, #274, .T. ) ;
#152 = DATE_TIME_ROLE ( 'creation_date' ) ;
#153 = CALENDAR_DATE ( 2022, 8, 7 ) ;
#154 = AXIS2_PLACEMENT_3D ( 'NONE', #372, #147, #229 ) ;
#155 = CC_DESIGN_PERSON_AND_ORGANIZATION_ASSIGNMENT ( #116, #30, ( #351 ) ) ;
#156 = CARTESIAN_POINT ( 'NONE',  ( 2.500000000000000000, 3.061616997868383141E-16, 355.0000000000000000 ) ) ;
#157 = COORDINATED_UNIVERSAL_TIME_OFFSET ( 1, 0, .AHEAD. ) ;
#158 = CARTESIAN_POINT ( 'NONE',  ( 0.000000000000000000, 0.000000000000000000, 355.0000000000000000 ) ) ;
#159 = VERTEX_POINT ( 'NONE', #168 ) ;
#160 = DIRECTION ( 'NONE',  ( 0.000000000000000000, 0.000000000000000000, 1.000000000000000000 ) ) ;
#161 = ORIENTED_EDGE ( 'NONE', *, *, #185, .T. ) ;
#162 = DIRECTION ( 'NONE',  ( 0.000000000000000000, 0.000000000000000000, 1.000000000000000000 ) ) ;
#163 = DIRECTION ( 'NONE',  ( 1.000000000000000000, 0.000000000000000000, 0.000000000000000000 ) ) ;
#164 = ADVANCED_FACE ( 'NONE', ( #220 ), #44, .T. ) ;
#165 = ORIENTED_EDGE ( 'NONE', *, *, #315, .F. ) ;
#166 = CARTESIAN_POINT ( 'NONE',  ( -2.500000000000000000, 0.000000000000000000, 355.0000000000000000 ) ) ;
#167 =( GEOMETRIC_REPRESENTATION_CONTEXT ( 3 ) GLOBAL_UNCERTAINTY_ASSIGNED_CONTEXT ( ( #9 ) ) GLOBAL_UNIT_ASSIGNED_CONTEXT ( ( #49, #109, #114 ) ) REPRESENTATION_CONTEXT ( 'NONE', 'WORKASPACE' ) );
#168 = CARTESIAN_POINT ( 'NONE',  ( 8.000000000000000000, 9.797174393178825657E-16, 5.000000000000000000 ) ) ;
#169 = DIRECTION ( 'NONE',  ( 0.000000000000000000, 0.000000000000000000, 1.000000000000000000 ) ) ;
#170 = DIRECTION ( 'NONE',  ( 1.000000000000000000, 0.000000000000000000, 0.000000000000000000 ) ) ;
#171 = AXIS2_PLACEMENT_3D ( 'NONE', #236, #231, #87 ) ;
#172 = DIRECTION ( 'NONE',  ( 0.000000000000000000, 0.000000000000000000, 1.000000000000000000 ) ) ;
#173 = ORIENTED_EDGE ( 'NONE', *, *, #66, .T. ) ;
#174 = PERSON_AND_ORGANIZATION ( #74, #323 ) ;
#175 = CYLINDRICAL_SURFACE ( 'NONE', #228, 8.000000000000000000 ) ;
#176 = ORIENTED_EDGE ( 'NONE', *, *, #75, .F. ) ;
#177 = APPROVAL ( #142, 'NEURÈENÝ' ) ;
#178 = CALENDAR_DATE ( 2022, 8, 7 ) ;
#179 = ORIENTED_EDGE ( 'NONE', *, *, #11, .T. ) ;
#180 = AXIS2_PLACEMENT_3D ( 'NONE', #8, #29, #3 ) ;
#181 = LOCAL_TIME ( 17, 15, 44.00000000000000000, #157 ) ;
#182 = LINE ( 'NONE', #40, #345 ) ;
#183 = VERTEX_POINT ( 'NONE', #131 ) ;
#184 = DIRECTION ( 'NONE',  ( 1.000000000000000000, 0.000000000000000000, 0.000000000000000000 ) ) ;
#185 = EDGE_CURVE ( 'NONE', #39, #225, #341, .T. ) ;
#186 = ORIENTED_EDGE ( 'NONE', *, *, #321, .F. ) ;
#187 = DIRECTION ( 'NONE',  ( -0.000000000000000000, -0.000000000000000000, -1.000000000000000000 ) ) ;
#188 = AXIS2_PLACEMENT_3D ( 'NONE', #50, #172, #318 ) ;
#189 = FACE_OUTER_BOUND ( 'NONE', #377, .T. ) ;
#190 = ORIENTED_EDGE ( 'NONE', *, *, #59, .T. ) ;
#191 = CARTESIAN_POINT ( 'NONE',  ( 0.000000000000000000, 0.000000000000000000, 355.0000000000000000 ) ) ;
#192 = EDGE_LOOP ( 'NONE', ( #186, #261, #151, #357 ) ) ;
#193 = ADVANCED_FACE ( 'NONE', ( #189 ), #281, .F. ) ;
#194 = CARTESIAN_POINT ( 'NONE',  ( 0.000000000000000000, 0.000000000000000000, 5.000000000000000000 ) ) ;
#195 = AXIS2_PLACEMENT_3D ( 'NONE', #307, #242, #93 ) ;
#196 = DIRECTION ( 'NONE',  ( 0.000000000000000000, 0.000000000000000000, 1.000000000000000000 ) ) ;
#197 = CIRCLE ( 'NONE', #171, 8.000000000000000000 ) ;
#198 = ORIENTED_EDGE ( 'NONE', *, *, #378, .F. ) ;
#199 = CARTESIAN_POINT ( 'NONE',  ( -5.000000000000000000, 0.000000000000000000, 5.500000000000005329 ) ) ;
#200 = EDGE_CURVE ( 'NONE', #17, #28, #108, .T. ) ;
#201 = APPROVAL_DATE_TIME ( #83, #177 ) ;
#202 = DIRECTION ( 'NONE',  ( 0.000000000000000000, 0.000000000000000000, 1.000000000000000000 ) ) ;
#203 = CIRCLE ( 'NONE', #263, 8.000000000000000000 ) ;
#204 = ADVANCED_FACE ( 'NONE', ( #336 ), #224, .F. ) ;
#205 = DIRECTION ( 'NONE',  ( 1.000000000000000000, 0.000000000000000000, 0.000000000000000000 ) ) ;
#206 = CARTESIAN_POINT ( 'NONE',  ( 0.000000000000000000, 0.000000000000000000, 0.000000000000000000 ) ) ;
#207 = DIRECTION ( 'NONE',  ( 0.000000000000000000, 0.000000000000000000, 1.000000000000000000 ) ) ;
#208 = CARTESIAN_POINT ( 'NONE',  ( -8.000000000000000000, 0.000000000000000000, 5.000000000000000000 ) ) ;
#209 = VECTOR ( 'NONE', #187, 1000.000000000000000 ) ;
#210 = COORDINATED_UNIVERSAL_TIME_OFFSET ( 1, 0, .AHEAD. ) ;
#211 = CARTESIAN_POINT ( 'NONE',  ( 2.500000000000000000, 3.061616997868383141E-16, 355.0000000000000000 ) ) ;
#212 = ORIENTED_EDGE ( 'NONE', *, *, #185, .F. ) ;
#213 = DATE_AND_TIME ( #272, #138 ) ;
#214 = FACE_OUTER_BOUND ( 'NONE', #275, .T. ) ;
#215 = LOCAL_TIME ( 17, 15, 44.00000000000000000, #210 ) ;
#216 = EDGE_CURVE ( 'NONE', #271, #143, #298, .T. ) ;
#217 = DIRECTION ( 'NONE',  ( -0.000000000000000000, -0.000000000000000000, -1.000000000000000000 ) ) ;
#218 = DIRECTION ( 'NONE',  ( -0.000000000000000000, -0.000000000000000000, -1.000000000000000000 ) ) ;
#219 = ORIENTED_EDGE ( 'NONE', *, *, #247, .T. ) ;
#220 = FACE_OUTER_BOUND ( 'NONE', #192, .T. ) ;
#221 = CIRCLE ( 'NONE', #51, 5.000000000000000000 ) ;
#222 = CARTESIAN_POINT ( 'NONE',  ( 8.000000000000000000, 9.797174393178825657E-16, 5.000000000000000000 ) ) ;
#223 = EDGE_LOOP ( 'NONE', ( #62, #198, #14, #254 ) ) ;
#224 = CYLINDRICAL_SURFACE ( 'NONE', #285, 2.500000000000000000 ) ;
#225 = VERTEX_POINT ( 'NONE', #137 ) ;
#226 = PRODUCT ( 'b154', 'b154', '', ( #82 ) ) ;
#227 = DIRECTION ( 'NONE',  ( 1.000000000000000000, 0.000000000000000000, 0.000000000000000000 ) ) ;
#228 = AXIS2_PLACEMENT_3D ( 'NONE', #67, #122, #31 ) ;
#229 = DIRECTION ( 'NONE',  ( 0.000000000000000000, 0.000000000000000000, -1.000000000000000000 ) ) ;
#230 = AXIS2_PLACEMENT_3D ( 'NONE', #134, #101, #252 ) ;
#231 = DIRECTION ( 'NONE',  ( 0.000000000000000000, 0.000000000000000000, 1.000000000000000000 ) ) ;
#232 = DIRECTION ( 'NONE',  ( 1.000000000000000000, 0.000000000000000000, 0.000000000000000000 ) ) ;
#233 = PERSON_AND_ORGANIZATION ( #74, #323 ) ;
#234 = DIRECTION ( 'NONE',  ( 1.000000000000000000, 0.000000000000000000, -0.000000000000000000 ) ) ;
#235 = APPROVAL_PERSON_ORGANIZATION ( #24, #177, #320 ) ;
#236 = CARTESIAN_POINT ( 'NONE',  ( 0.000000000000000000, 0.000000000000000000, 5.000000000000000000 ) ) ;
#237 = PLANE ( 'NONE',  #119 ) ;
#238 = APPROVAL_STATUS ( 'not_yet_approved' ) ;
#239 = DIRECTION ( 'NONE',  ( -1.000000000000000000, 0.000000000000000000, 0.000000000000000000 ) ) ;
#240 = PERSON_AND_ORGANIZATION_ROLE ( 'creator' ) ;
#241 = CC_DESIGN_PERSON_AND_ORGANIZATION_ASSIGNMENT ( #96, #36, ( #139 ) ) ;
#242 = DIRECTION ( 'NONE',  ( 0.000000000000000000, 0.000000000000000000, 1.000000000000000000 ) ) ;
#243 = AXIS2_PLACEMENT_3D ( 'NONE', #376, #292, #346 ) ;
#244 = APPROVAL_DATE_TIME ( #121, #48 ) ;
#245 = EDGE_LOOP ( 'NONE', ( #42, #161, #375, #179 ) ) ;
#246 = FACE_OUTER_BOUND ( 'NONE', #223, .T. ) ;
#247 = EDGE_CURVE ( 'NONE', #271, #56, #70, .T. ) ;
#248 = ORIENTED_EDGE ( 'NONE', *, *, #89, .T. ) ;
#249 = AXIS2_PLACEMENT_3D ( 'NONE', #58, #273, #61 ) ;
#250 = CIRCLE ( 'NONE', #113, 2.500000000000000000 ) ;
#251 = LINE ( 'NONE', #166, #26 ) ;
#252 = DIRECTION ( 'NONE',  ( 1.000000000000000000, 0.000000000000000000, -0.000000000000000000 ) ) ;
#253 = CC_DESIGN_PERSON_AND_ORGANIZATION_ASSIGNMENT ( #233, #325, ( #226 ) ) ;
#254 = ORIENTED_EDGE ( 'NONE', *, *, #287, .T. ) ;
#255 = AXIS2_PLACEMENT_3D ( 'NONE', #278, #300, #95 ) ;
#256 = AXIS2_PLACEMENT_3D ( 'NONE', #86, #169, #232 ) ;
#257 = CARTESIAN_POINT ( 'NONE',  ( 5.000000000000000000, 6.123233995736766282E-16, 355.0000000000000000 ) ) ;
#258 = APPLICATION_CONTEXT ( 'configuration controlled 3d designs of mechanical parts and assemblies' ) ;
#259 = CARTESIAN_POINT ( 'NONE',  ( 5.000000000000000000, 6.123233995736766282E-16, 355.0000000000000000 ) ) ;
#260 = EDGE_CURVE ( 'NONE', #225, #183, #251, .T. ) ;
#261 = ORIENTED_EDGE ( 'NONE', *, *, #265, .T. ) ;
#262 = CYLINDRICAL_SURFACE ( 'NONE', #243, 2.500000000000000000 ) ;
#263 = AXIS2_PLACEMENT_3D ( 'NONE', #342, #76, #163 ) ;
#264 = DIRECTION ( 'NONE',  ( 1.000000000000000000, 0.000000000000000000, 0.000000000000000000 ) ) ;
#265 = EDGE_CURVE ( 'NONE', #159, #10, #286, .T. ) ;
#266 = ORIENTED_EDGE ( 'NONE', *, *, #11, .F. ) ;
#267 = CC_DESIGN_APPROVAL ( #48, ( #351 ) ) ;
#268 = EDGE_CURVE ( 'NONE', #143, #301, #141, .T. ) ;
#269 = APPROVAL_ROLE ( '' ) ;
#270 = CARTESIAN_POINT ( 'NONE',  ( 5.500000000000000000, 0.000000000000000000, 5.000000000000002665 ) ) ;
#271 = VERTEX_POINT ( 'NONE', #259 ) ;
#272 = CALENDAR_DATE ( 2022, 8, 7 ) ;
#273 = DIRECTION ( 'NONE',  ( 0.000000000000000000, 0.000000000000000000, 1.000000000000000000 ) ) ;
#274 = EDGE_CURVE ( 'NONE', #10, #65, #203, .T. ) ;
#275 = EDGE_LOOP ( 'NONE', ( #296, #148, #369, #365 ) ) ;
#276 = DATE_TIME_ROLE ( 'classification_date' ) ;
#277 = APPLICATION_CONTEXT ( 'configuration controlled 3d designs of mechanical parts and assemblies' ) ;
#278 = CARTESIAN_POINT ( 'NONE',  ( 0.000000000000000000, 0.000000000000000000, 355.0000000000000000 ) ) ;
#279 = ORIENTED_EDGE ( 'NONE', *, *, #321, .T. ) ;
#280 = CIRCLE ( 'NONE', #249, 8.000000000000000000 ) ;
#281 = TOROIDAL_SURFACE ( 'NONE', #98, 5.500000000000000000, 0.5000000000000000000 ) ;
#282 = DIRECTION ( 'NONE',  ( -0.000000000000000000, -0.000000000000000000, -1.000000000000000000 ) ) ;
#283 = PLANE ( 'NONE',  #230 ) ;
#284 = DIRECTION ( 'NONE',  ( 1.000000000000000000, 0.000000000000000000, 0.000000000000000000 ) ) ;
#285 = AXIS2_PLACEMENT_3D ( 'NONE', #343, #344, #45 ) ;
#286 = LINE ( 'NONE', #222, #34 ) ;
#287 = EDGE_CURVE ( 'NONE', #301, #56, #81, .T. ) ;
#288 = CARTESIAN_POINT ( 'NONE',  ( 0.000000000000000000, 0.000000000000000000, 355.0000000000000000 ) ) ;
#289 = CARTESIAN_POINT ( 'NONE',  ( 0.000000000000000000, 0.000000000000000000, 0.000000000000000000 ) ) ;
#290 = ORIENTED_EDGE ( 'NONE', *, *, #66, .F. ) ;
#291 = CLOSED_SHELL ( 'NONE', ( #361, #38, #133, #164, #79, #140, #6, #125, #21, #193, #204 ) ) ;
#292 = DIRECTION ( 'NONE',  ( 0.000000000000000000, 0.000000000000000000, -1.000000000000000000 ) ) ;
#293 = AXIS2_PLACEMENT_3D ( 'NONE', #331, #64, #184 ) ;
#294 = ORIENTED_EDGE ( 'NONE', *, *, #216, .F. ) ;
#295 = CC_DESIGN_PERSON_AND_ORGANIZATION_ASSIGNMENT ( #299, #92, ( #139 ) ) ;
#296 = ORIENTED_EDGE ( 'NONE', *, *, #287, .F. ) ;
#297 = APPLICATION_PROTOCOL_DEFINITION ( 'international standard', 'config_control_design', 1994, #277 ) ;
#298 = CIRCLE ( 'NONE', #120, 5.000000000000000000 ) ;
#299 = PERSON_AND_ORGANIZATION ( #74, #323 ) ;
#300 = DIRECTION ( 'NONE',  ( 0.000000000000000000, 0.000000000000000000, 1.000000000000000000 ) ) ;
#301 = VERTEX_POINT ( 'NONE', #199 ) ;
#302 = CALENDAR_DATE ( 2022, 8, 7 ) ;
#303 = TOROIDAL_SURFACE ( 'NONE', #195, 5.500000000000000000, 0.5000000000000000000 ) ;
#304 = APPROVAL_PERSON_ORGANIZATION ( #358, #149, #126 ) ;
#305 = LOCAL_TIME ( 17, 15, 44.00000000000000000, #333 ) ;
#306 = DIRECTION ( 'NONE',  ( -0.000000000000000000, -0.000000000000000000, -1.000000000000000000 ) ) ;
#307 = CARTESIAN_POINT ( 'NONE',  ( 0.000000000000000000, 0.000000000000000000, 5.500000000000005329 ) ) ;
#308 = FACE_OUTER_BOUND ( 'NONE', #319, .T. ) ;
#309 = CC_DESIGN_DATE_AND_TIME_ASSIGNMENT ( #94, #152, ( #16 ) ) ;
#310 = CIRCLE ( 'NONE', #145, 2.500000000000000000 ) ;
#311 = CARTESIAN_POINT ( 'NONE',  ( -5.000000000000000000, 0.000000000000000000, 355.0000000000000000 ) ) ;
#312 = VERTEX_POINT ( 'NONE', #52 ) ;
#313 = DIRECTION ( 'NONE',  ( 0.000000000000000000, 0.000000000000000000, -1.000000000000000000 ) ) ;
#314 = CARTESIAN_POINT ( 'NONE',  ( 0.000000000000000000, 0.000000000000000000, 5.500000000000005329 ) ) ;
#315 = EDGE_CURVE ( 'NONE', #56, #301, #91, .T. ) ;
#316 = ORIENTED_EDGE ( 'NONE', *, *, #315, .T. ) ;
#317 = AXIS2_PLACEMENT_3D ( 'NONE', #78, #196, #170 ) ;
#318 = DIRECTION ( 'NONE',  ( 1.000000000000000000, 0.000000000000000000, 0.000000000000000000 ) ) ;
#319 = EDGE_LOOP ( 'NONE', ( #294, #219, #316, #381 ) ) ;
#320 = APPROVAL_ROLE ( '' ) ;
#321 = EDGE_CURVE ( 'NONE', #159, #128, #197, .T. ) ;
#322 = FACE_OUTER_BOUND ( 'NONE', #324, .T. ) ;
#323 = ORGANIZATION ( 'NEURÈENÝ', 'NEURÈENÝ', '' ) ;
#324 = EDGE_LOOP ( 'NONE', ( #363, #190, #332, #100 ) ) ;
#325 = PERSON_AND_ORGANIZATION_ROLE ( 'design_owner' ) ;
#326 = EDGE_CURVE ( 'NONE', #225, #39, #250, .T. ) ;
#327 = AXIS2_PLACEMENT_3D ( 'NONE', #362, #364, #13 ) ;
#328 = CARTESIAN_POINT ( 'NONE',  ( -8.000000000000000000, 0.000000000000000000, 0.000000000000000000 ) ) ;
#329 = MANIFOLD_SOLID_BREP ( 'Odebrat vysunutím3', #291 ) ;
#330 = PERSON_AND_ORGANIZATION ( #74, #323 ) ;
#331 = CARTESIAN_POINT ( 'NONE',  ( 0.000000000000000000, 0.000000000000000000, 5.000000000000000000 ) ) ;
#332 = ORIENTED_EDGE ( 'NONE', *, *, #337, .T. ) ;
#333 = COORDINATED_UNIVERSAL_TIME_OFFSET ( 1, 0, .AHEAD. ) ;
#334 = ORIENTED_EDGE ( 'NONE', *, *, #105, .T. ) ;
#335 = LINE ( 'NONE', #211, #350 ) ;
#336 = FACE_OUTER_BOUND ( 'NONE', #245, .T. ) ;
#337 = EDGE_CURVE ( 'NONE', #312, #183, #310, .T. ) ;
#338 = EDGE_LOOP ( 'NONE', ( #41, #4 ) ) ;
#339 = DIRECTION ( 'NONE',  ( -0.000000000000000000, -0.000000000000000000, -1.000000000000000000 ) ) ;
#340 = AXIS2_PLACEMENT_3D ( 'NONE', #206, #217, #7 ) ;
#341 = CIRCLE ( 'NONE', #371, 2.500000000000000000 ) ;
#342 = CARTESIAN_POINT ( 'NONE',  ( 0.000000000000000000, 0.000000000000000000, 0.000000000000000000 ) ) ;
#343 = CARTESIAN_POINT ( 'NONE',  ( 0.000000000000000000, 0.000000000000000000, 355.0000000000000000 ) ) ;
#344 = DIRECTION ( 'NONE',  ( 0.000000000000000000, 0.000000000000000000, -1.000000000000000000 ) ) ;
#345 = VECTOR ( 'NONE', #306, 1000.000000000000000 ) ;
#346 = DIRECTION ( 'NONE',  ( -1.000000000000000000, 0.000000000000000000, 0.000000000000000000 ) ) ;
#347 = APPLICATION_PROTOCOL_DEFINITION ( 'international standard', 'config_control_design', 1994, #258 ) ;
#348 = DIRECTION ( 'NONE',  ( 1.000000000000000000, 0.000000000000000000, 0.000000000000000000 ) ) ;
#349 = ORIENTED_EDGE ( 'NONE', *, *, #200, .T. ) ;
#350 = VECTOR ( 'NONE', #117, 1000.000000000000000 ) ;
#351 = SECURITY_CLASSIFICATION ( '', '', #60 ) ;
#352 = CARTESIAN_POINT ( 'NONE',  ( 8.000000000000000000, 9.797174393178825657E-16, 0.000000000000000000 ) ) ;
#353 = EDGE_CURVE ( 'NONE', #128, #159, #356, .T. ) ;
#354 = DIRECTION ( 'NONE',  ( 0.000000000000000000, 0.000000000000000000, 1.000000000000000000 ) ) ;
#355 = FACE_BOUND ( 'NONE', #88, .T. ) ;
#356 = CIRCLE ( 'NONE', #188, 8.000000000000000000 ) ;
#357 = ORIENTED_EDGE ( 'NONE', *, *, #105, .F. ) ;
#358 = PERSON_AND_ORGANIZATION ( #74, #323 ) ;
#359 = FACE_OUTER_BOUND ( 'NONE', #338, .T. ) ;
#360 = ORIENTED_EDGE ( 'NONE', *, *, #326, .F. ) ;
#361 = ADVANCED_FACE ( 'NONE', ( #322 ), #262, .F. ) ;
#362 = CARTESIAN_POINT ( 'NONE',  ( 0.000000000000000000, 0.000000000000000000, 5.000000000000000000 ) ) ;
#363 = ORIENTED_EDGE ( 'NONE', *, *, #326, .T. ) ;
#364 = DIRECTION ( 'NONE',  ( -0.000000000000000000, -0.000000000000000000, -1.000000000000000000 ) ) ;
#365 = ORIENTED_EDGE ( 'NONE', *, *, #373, .F. ) ;
#366 = LOCAL_TIME ( 17, 15, 44.00000000000000000, #370 ) ;
#367 = DIRECTION ( 'NONE',  ( -1.000000000000000000, 0.000000000000000000, 0.000000000000000000 ) ) ;
#368 = CARTESIAN_POINT ( 'NONE',  ( 0.000000000000000000, 0.000000000000000000, 355.0000000000000000 ) ) ;
#369 = ORIENTED_EDGE ( 'NONE', *, *, #200, .F. ) ;
#370 = COORDINATED_UNIVERSAL_TIME_OFFSET ( 1, 0, .AHEAD. ) ;
#371 = AXIS2_PLACEMENT_3D ( 'NONE', #368, #162, #284 ) ;
#372 = CARTESIAN_POINT ( 'NONE',  ( 5.500000000000000000, 0.000000000000000000, 5.500000000000005329 ) ) ;
#373 = EDGE_CURVE ( 'NONE', #56, #17, #22, .T. ) ;
#374 = DIRECTION ( 'NONE',  ( 1.000000000000000000, 0.000000000000000000, 0.000000000000000000 ) ) ;
#375 = ORIENTED_EDGE ( 'NONE', *, *, #260, .T. ) ;
#376 = CARTESIAN_POINT ( 'NONE',  ( 0.000000000000000000, 0.000000000000000000, 355.0000000000000000 ) ) ;
#377 = EDGE_LOOP ( 'NONE', ( #176, #165, #35, #104 ) ) ;
#378 = EDGE_CURVE ( 'NONE', #143, #271, #221, .T. ) ;
#379 = CIRCLE ( 'NONE', #340, 2.500000000000000000 ) ;
#380 = CC_DESIGN_APPROVAL ( #149, ( #139 ) ) ;
#381 = ORIENTED_EDGE ( 'NONE', *, *, #268, .F. ) ;
ENDSEC;
END-ISO-10303-21;
