ISO-10303-21;
HEADER;
FILE_DESCRIPTION (( 'STEP AP203' ),
    '1' );
FILE_NAME ('cc09.STEP',
    '2022-07-08T14:37:42',
    ( '' ),
    ( '' ),
    'SwSTEP 2.0',
    'SolidWorks 2019',
    '' );
FILE_SCHEMA (( 'CONFIG_CONTROL_DESIGN' ));
ENDSEC;

DATA;
#1 = DIRECTION ( 'NONE',  ( 0.000000000000000000, 0.000000000000000000, 1.000000000000000000 ) ) ;
#2 = FACE_BOUND ( 'NONE', #51, .T. ) ;
#3 = APPROVAL ( #316, 'NEURÈENÝ' ) ;
#4 = PRODUCT_DEFINITION ( 'NEZNÁMÝ', '', #60, #377 ) ;
#5 = CARTESIAN_POINT ( 'NONE',  ( -6.000000000000000888, 0.000000000000000000, 7.699999999999985079 ) ) ;
#6 = CARTESIAN_POINT ( 'NONE',  ( 0.000000000000000000, 0.000000000000000000, 7.000000000000000000 ) ) ;
#7 = DIRECTION ( 'NONE',  ( 0.000000000000000000, 0.000000000000000000, 1.000000000000000000 ) ) ;
#8 = ORIENTED_EDGE ( 'NONE', *, *, #168, .T. ) ;
#9 = AXIS2_PLACEMENT_3D ( 'NONE', #35, #158, #37 ) ;
#10 = FACE_OUTER_BOUND ( 'NONE', #179, .T. ) ;
#11 = CYLINDRICAL_SURFACE ( 'NONE', #363, 6.000000000000000888 ) ;
#12 = ORIENTED_EDGE ( 'NONE', *, *, #216, .F. ) ;
#13 = CARTESIAN_POINT ( 'NONE',  ( -10.00000000000000000, 0.000000000000000000, 0.000000000000000000 ) ) ;
#14 = ADVANCED_FACE ( 'NONE', ( #108 ), #193, .T. ) ;
#15 = CARTESIAN_POINT ( 'NONE',  ( 4.000000000000000000, 4.898587196589412829E-16, 457.0000000000000000 ) ) ;
#16 = ADVANCED_BREP_SHAPE_REPRESENTATION ( 'cc09', ( #184, #371 ), #211 ) ;
#17 = ORIENTED_EDGE ( 'NONE', *, *, #19, .F. ) ;
#18 = ORIENTED_EDGE ( 'NONE', *, *, #80, .T. ) ;
#19 = EDGE_CURVE ( 'NONE', #281, #268, #191, .T. ) ;
#20 = APPROVAL_ROLE ( '' ) ;
#21 = COORDINATED_UNIVERSAL_TIME_OFFSET ( 1, 0, .AHEAD. ) ;
#22 = APPROVAL_PERSON_ORGANIZATION ( #137, #202, #74 ) ;
#23 = ORIENTED_EDGE ( 'NONE', *, *, #302, .F. ) ;
#24 = ORIENTED_EDGE ( 'NONE', *, *, #52, .T. ) ;
#25 = EDGE_CURVE ( 'NONE', #248, #143, #181, .T. ) ;
#26 = DIRECTION ( 'NONE',  ( 1.224646799147353207E-16, 1.000000000000000000, -0.000000000000000000 ) ) ;
#27 = AXIS2_PLACEMENT_3D ( 'NONE', #6, #233, #352 ) ;
#28 = LOCAL_TIME ( 16, 37, 42.00000000000000000, #48 ) ;
#29 = CALENDAR_DATE ( 2022, 8, 7 ) ;
#30 = DIRECTION ( 'NONE',  ( -0.000000000000000000, -0.000000000000000000, -1.000000000000000000 ) ) ;
#31 = CARTESIAN_POINT ( 'NONE',  ( 4.000000000000000000, 4.898587196589412829E-16, 0.000000000000000000 ) ) ;
#32 = CARTESIAN_POINT ( 'NONE',  ( 0.000000000000000000, 0.000000000000000000, 7.699999999999985079 ) ) ;
#33 = CC_DESIGN_APPROVAL ( #36, ( #357 ) ) ;
#34 = DIRECTION ( 'NONE',  ( -0.000000000000000000, -0.000000000000000000, -1.000000000000000000 ) ) ;
#35 = CARTESIAN_POINT ( 'NONE',  ( 0.000000000000000000, 0.000000000000000000, 7.699999999999985079 ) ) ;
#36 = APPROVAL ( #282, 'NEURÈENÝ' ) ;
#37 = DIRECTION ( 'NONE',  ( 1.000000000000000000, 0.000000000000000000, 0.000000000000000000 ) ) ;
#38 = DIRECTION ( 'NONE',  ( 0.000000000000000000, 0.000000000000000000, -1.000000000000000000 ) ) ;
#39 = CARTESIAN_POINT ( 'NONE',  ( 0.000000000000000000, 0.000000000000000000, 0.000000000000000000 ) ) ;
#40 = CARTESIAN_POINT ( 'NONE',  ( -4.000000000000000000, 0.000000000000000000, 457.0000000000000000 ) ) ;
#41 = AXIS2_PLACEMENT_3D ( 'NONE', #350, #30, #174 ) ;
#42 = ORGANIZATION ( 'NEURÈENÝ', 'NEURÈENÝ', '' ) ;
#43 = CALENDAR_DATE ( 2022, 8, 7 ) ;
#44 = ADVANCED_FACE ( 'NONE', ( #147 ), #169, .F. ) ;
#45 = COORDINATED_UNIVERSAL_TIME_OFFSET ( 1, 0, .AHEAD. ) ;
#46 = VERTEX_POINT ( 'NONE', #294 ) ;
#47 =( LENGTH_UNIT ( ) NAMED_UNIT ( * ) SI_UNIT ( .MILLI., .METRE. ) );
#48 = COORDINATED_UNIVERSAL_TIME_OFFSET ( 1, 0, .AHEAD. ) ;
#49 = CIRCLE ( 'NONE', #286, 6.000000000000000888 ) ;
#50 = PERSON_AND_ORGANIZATION_ROLE ( 'creator' ) ;
#51 = EDGE_LOOP ( 'NONE', ( #239, #362 ) ) ;
#52 = EDGE_CURVE ( 'NONE', #185, #188, #82, .T. ) ;
#53 = CARTESIAN_POINT ( 'NONE',  ( 0.000000000000000000, 0.000000000000000000, 457.0000000000000000 ) ) ;
#54 = PLANE ( 'NONE',  #159 ) ;
#55 = CIRCLE ( 'NONE', #124, 4.000000000000000000 ) ;
#56 = ADVANCED_FACE ( 'NONE', ( #92 ), #331, .F. ) ;
#57 = CARTESIAN_POINT ( 'NONE',  ( 0.000000000000000000, 0.000000000000000000, 457.0000000000000000 ) ) ;
#58 = DIRECTION ( 'NONE',  ( 0.000000000000000000, 0.000000000000000000, 1.000000000000000000 ) ) ;
#59 = DIRECTION ( 'NONE',  ( 0.000000000000000000, 0.000000000000000000, 1.000000000000000000 ) ) ;
#60 = PRODUCT_DEFINITION_FORMATION_WITH_SPECIFIED_SOURCE ( 'LIBOVOLNÝ', '', #196, .NOT_KNOWN. ) ;
#61 = DIRECTION ( 'NONE',  ( 1.000000000000000000, 0.000000000000000000, 0.000000000000000000 ) ) ;
#62 = DIRECTION ( 'NONE',  ( 0.000000000000000000, 0.000000000000000000, 1.000000000000000000 ) ) ;
#63 = ORIENTED_EDGE ( 'NONE', *, *, #289, .F. ) ;
#64 = DIRECTION ( 'NONE',  ( -0.000000000000000000, -0.000000000000000000, -1.000000000000000000 ) ) ;
#65 = VERTEX_POINT ( 'NONE', #5 ) ;
#66 = AXIS2_PLACEMENT_3D ( 'NONE', #53, #260, #148 ) ;
#67 = AXIS2_PLACEMENT_3D ( 'NONE', #153, #7, #358 ) ;
#68 = DIRECTION ( 'NONE',  ( 1.000000000000000000, 0.000000000000000000, 0.000000000000000000 ) ) ;
#69 = ORIENTED_EDGE ( 'NONE', *, *, #19, .T. ) ;
#70 = CARTESIAN_POINT ( 'NONE',  ( 0.000000000000000000, 0.000000000000000000, 457.0000000000000000 ) ) ;
#71 = PERSON_AND_ORGANIZATION_ROLE ( 'classification_officer' ) ;
#72 = ORIENTED_EDGE ( 'NONE', *, *, #259, .T. ) ;
#73 = CIRCLE ( 'NONE', #109, 10.00000000000000000 ) ;
#74 = APPROVAL_ROLE ( '' ) ;
#75 = EDGE_LOOP ( 'NONE', ( #323, #317, #24, #23 ) ) ;
#76 = DIRECTION ( 'NONE',  ( 1.000000000000000000, 0.000000000000000000, 0.000000000000000000 ) ) ;
#77 = CARTESIAN_POINT ( 'NONE',  ( 0.000000000000000000, 0.000000000000000000, 0.000000000000000000 ) ) ;
#78 = ORIENTED_EDGE ( 'NONE', *, *, #329, .T. ) ;
#79 = PRODUCT_DEFINITION_SHAPE ( 'NONE', 'NONE',  #4 ) ;
#80 = EDGE_CURVE ( 'NONE', #188, #185, #55, .T. ) ;
#81 = APPROVAL_ROLE ( '' ) ;
#82 = CIRCLE ( 'NONE', #262, 4.000000000000000000 ) ;
#83 = LOCAL_TIME ( 16, 37, 42.00000000000000000, #247 ) ;
#84 = ORIENTED_EDGE ( 'NONE', *, *, #80, .F. ) ;
#85 = VERTEX_POINT ( 'NONE', #265 ) ;
#86 = FACE_OUTER_BOUND ( 'NONE', #154, .T. ) ;
#87 = CIRCLE ( 'NONE', #27, 10.00000000000000000 ) ;
#88 = LINE ( 'NONE', #89, #236 ) ;
#89 = CARTESIAN_POINT ( 'NONE',  ( 10.00000000000000000, 1.224646799147353256E-15, 7.000000000000000000 ) ) ;
#90 = CARTESIAN_POINT ( 'NONE',  ( -6.700000000000001066, 8.205133554287267548E-16, 7.699999999999985079 ) ) ;
#91 = EDGE_CURVE ( 'NONE', #283, #85, #370, .T. ) ;
#92 = FACE_OUTER_BOUND ( 'NONE', #128, .T. ) ;
#93 = VECTOR ( 'NONE', #175, 1000.000000000000000 ) ;
#94 = APPROVAL_PERSON_ORGANIZATION ( #161, #36, #20 ) ;
#95 = CARTESIAN_POINT ( 'NONE',  ( 0.000000000000000000, 0.000000000000000000, 457.0000000000000000 ) ) ;
#96 = EDGE_LOOP ( 'NONE', ( #63, #218, #78, #160 ) ) ;
#97 = PERSON ( 'NEURÈENÝ', 'NEURÈENÝ', 'NEURÈENÝ', ('NEURÈENÝ'), ('NEURÈENÝ'), ('NEURÈENÝ') ) ;
#98 = CARTESIAN_POINT ( 'NONE',  ( -4.000000000000000000, 0.000000000000000000, 457.0000000000000000 ) ) ;
#99 = ADVANCED_FACE ( 'NONE', ( #2, #264 ), #54, .T. ) ;
#100 = FACE_OUTER_BOUND ( 'NONE', #347, .T. ) ;
#101 = CIRCLE ( 'NONE', #312, 6.700000000000001066 ) ;
#102 = DIRECTION ( 'NONE',  ( 0.000000000000000000, 0.000000000000000000, -1.000000000000000000 ) ) ;
#103 = CARTESIAN_POINT ( 'NONE',  ( -10.00000000000000000, 0.000000000000000000, 7.000000000000000000 ) ) ;
#104 = APPLICATION_CONTEXT ( 'configuration controlled 3d designs of mechanical parts and assemblies' ) ;
#105 = VERTEX_POINT ( 'NONE', #119 ) ;
#106 = DATE_AND_TIME ( #309, #257 ) ;
#107 = CC_DESIGN_DATE_AND_TIME_ASSIGNMENT ( #106, #221, ( #357 ) ) ;
#108 = FACE_OUTER_BOUND ( 'NONE', #132, .T. ) ;
#109 = AXIS2_PLACEMENT_3D ( 'NONE', #125, #62, #61 ) ;
#110 = APPROVAL_PERSON_ORGANIZATION ( #249, #3, #81 ) ;
#111 = COORDINATED_UNIVERSAL_TIME_OFFSET ( 1, 0, .AHEAD. ) ;
#112 = DIRECTION ( 'NONE',  ( -1.000000000000000000, 0.000000000000000000, 0.000000000000000000 ) ) ;
#113 = ORIENTED_EDGE ( 'NONE', *, *, #206, .F. ) ;
#114 = PERSON_AND_ORGANIZATION_ROLE ( 'creator' ) ;
#115 = LOCAL_TIME ( 16, 37, 42.00000000000000000, #111 ) ;
#116 = EDGE_LOOP ( 'NONE', ( #378, #156, #343, #213 ) ) ;
#117 = DIRECTION ( 'NONE',  ( 0.000000000000000000, 0.000000000000000000, 1.000000000000000000 ) ) ;
#118 = AXIS2_PLACEMENT_3D ( 'NONE', #328, #58, #261 ) ;
#119 = CARTESIAN_POINT ( 'NONE',  ( 6.000000000000000888, 7.347880794884120722E-16, 457.0000000000000000 ) ) ;
#120 = FACE_OUTER_BOUND ( 'NONE', #96, .T. ) ;
#121 = ADVANCED_FACE ( 'NONE', ( #120 ), #232, .T. ) ;
#122 = CARTESIAN_POINT ( 'NONE',  ( 0.000000000000000000, 0.000000000000000000, 0.000000000000000000 ) ) ;
#123 = PLANE ( 'NONE',  #326 ) ;
#124 = AXIS2_PLACEMENT_3D ( 'NONE', #293, #34, #234 ) ;
#125 = CARTESIAN_POINT ( 'NONE',  ( 0.000000000000000000, 0.000000000000000000, 0.000000000000000000 ) ) ;
#126 = EDGE_CURVE ( 'NONE', #368, #245, #87, .T. ) ;
#127 = CARTESIAN_POINT ( 'NONE',  ( 0.000000000000000000, 0.000000000000000000, 457.0000000000000000 ) ) ;
#128 = EDGE_LOOP ( 'NONE', ( #190, #278, #320, #274 ) ) ;
#129 = CARTESIAN_POINT ( 'NONE',  ( 0.000000000000000000, 0.000000000000000000, 7.000000000000000000 ) ) ;
#130 = CIRCLE ( 'NONE', #9, 6.000000000000000888 ) ;
#131 = CARTESIAN_POINT ( 'NONE',  ( 10.00000000000000000, 1.224646799147353256E-15, 0.000000000000000000 ) ) ;
#132 = EDGE_LOOP ( 'NONE', ( #285, #141, #72, #201 ) ) ;
#133 = CALENDAR_DATE ( 2022, 8, 7 ) ;
#134 = VERTEX_POINT ( 'NONE', #210 ) ;
#135 = CALENDAR_DATE ( 2022, 8, 7 ) ;
#136 = EDGE_LOOP ( 'NONE', ( #375, #301 ) ) ;
#137 = PERSON_AND_ORGANIZATION ( #97, #42 ) ;
#138 = CC_DESIGN_DATE_AND_TIME_ASSIGNMENT ( #344, #314, ( #4 ) ) ;
#139 = CC_DESIGN_PERSON_AND_ORGANIZATION_ASSIGNMENT ( #195, #287, ( #196 ) ) ;
#140 =( NAMED_UNIT ( * ) PLANE_ANGLE_UNIT ( ) SI_UNIT ( $, .RADIAN. ) );
#141 = ORIENTED_EDGE ( 'NONE', *, *, #206, .T. ) ;
#142 = PERSON_AND_ORGANIZATION ( #97, #42 ) ;
#143 = VERTEX_POINT ( 'NONE', #291 ) ;
#144 = AXIS2_PLACEMENT_3D ( 'NONE', #129, #340, #157 ) ;
#145 = DIRECTION ( 'NONE',  ( -1.000000000000000000, 1.224646799147353454E-16, 0.000000000000000000 ) ) ;
#146 = DIRECTION ( 'NONE',  ( 1.000000000000000000, 0.000000000000000000, 0.000000000000000000 ) ) ;
#147 = FACE_OUTER_BOUND ( 'NONE', #75, .T. ) ;
#148 = DIRECTION ( 'NONE',  ( -1.000000000000000000, 0.000000000000000000, 0.000000000000000000 ) ) ;
#149 = ADVANCED_FACE ( 'NONE', ( #330 ), #256, .F. ) ;
#150 = APPROVAL_DATE_TIME ( #172, #36 ) ;
#151 = DIRECTION ( 'NONE',  ( 1.000000000000000000, 0.000000000000000000, 0.000000000000000000 ) ) ;
#152 = DIRECTION ( 'NONE',  ( -0.000000000000000000, -0.000000000000000000, -1.000000000000000000 ) ) ;
#153 = CARTESIAN_POINT ( 'NONE',  ( 0.000000000000000000, 0.000000000000000000, 7.000000000000000000 ) ) ;
#154 = EDGE_LOOP ( 'NONE', ( #339, #349, #251, #18 ) ) ;
#155 = CARTESIAN_POINT ( 'NONE',  ( 10.00000000000000000, 1.224646799147353256E-15, 7.000000000000000000 ) ) ;
#156 = ORIENTED_EDGE ( 'NONE', *, *, #353, .F. ) ;
#157 = DIRECTION ( 'NONE',  ( 1.000000000000000000, 0.000000000000000000, 0.000000000000000000 ) ) ;
#158 = DIRECTION ( 'NONE',  ( 0.000000000000000000, 0.000000000000000000, 1.000000000000000000 ) ) ;
#159 = AXIS2_PLACEMENT_3D ( 'NONE', #229, #59, #205 ) ;
#160 = ORIENTED_EDGE ( 'NONE', *, *, #187, .F. ) ;
#161 = PERSON_AND_ORGANIZATION ( #97, #42 ) ;
#162 = CARTESIAN_POINT ( 'NONE',  ( 0.000000000000000000, 0.000000000000000000, 0.000000000000000000 ) ) ;
#163 = AXIS2_PLACEMENT_3D ( 'NONE', #180, #361, #338 ) ;
#164 = CC_DESIGN_APPROVAL ( #3, ( #4 ) ) ;
#165 = APPROVAL_STATUS ( 'not_yet_approved' ) ;
#166 = PERSON_AND_ORGANIZATION ( #97, #42 ) ;
#167 = DIRECTION ( 'NONE',  ( 1.000000000000000000, 0.000000000000000000, 0.000000000000000000 ) ) ;
#168 = EDGE_CURVE ( 'NONE', #65, #134, #292, .T. ) ;
#169 = CYLINDRICAL_SURFACE ( 'NONE', #66, 4.000000000000000000 ) ;
#170 = UNCERTAINTY_MEASURE_WITH_UNIT (LENGTH_MEASURE( 1.000000000000000082E-05 ), #47, 'distance_accuracy_value', 'NONE');
#171 = DIRECTION ( 'NONE',  ( -0.000000000000000000, -0.000000000000000000, -1.000000000000000000 ) ) ;
#172 = DATE_AND_TIME ( #29, #115 ) ;
#173 = PRODUCT_RELATED_PRODUCT_CATEGORY ( 'detail', '', ( #196 ) ) ;
#174 = DIRECTION ( 'NONE',  ( -1.000000000000000000, 0.000000000000000000, 0.000000000000000000 ) ) ;
#175 = DIRECTION ( 'NONE',  ( -0.000000000000000000, -0.000000000000000000, -1.000000000000000000 ) ) ;
#176 = AXIS2_PLACEMENT_3D ( 'NONE', #335, #64, #305 ) ;
#177 = LINE ( 'NONE', #306, #380 ) ;
#178 = DIRECTION ( 'NONE',  ( -1.000000000000000000, 0.000000000000000000, 0.000000000000000000 ) ) ;
#179 = EDGE_LOOP ( 'NONE', ( #113, #308, #271, #69 ) ) ;
#180 = CARTESIAN_POINT ( 'NONE',  ( 0.000000000000000000, 0.000000000000000000, 457.0000000000000000 ) ) ;
#181 = CIRCLE ( 'NONE', #277, 0.7000000000000000666 ) ;
#182 = VECTOR ( 'NONE', #215, 1000.000000000000000 ) ;
#183 = DIRECTION ( 'NONE',  ( 1.000000000000000000, 0.000000000000000000, 0.000000000000000000 ) ) ;
#184 = MANIFOLD_SOLID_BREP ( 'Odebrat vysunutím3', #209 ) ;
#185 = VERTEX_POINT ( 'NONE', #31 ) ;
#186 = DIRECTION ( 'NONE',  ( -0.000000000000000000, -0.000000000000000000, -1.000000000000000000 ) ) ;
#187 = EDGE_CURVE ( 'NONE', #46, #65, #208, .T. ) ;
#188 = VERTEX_POINT ( 'NONE', #355 ) ;
#189 = APPROVAL_DATE_TIME ( #198, #202 ) ;
#190 = ORIENTED_EDGE ( 'NONE', *, *, #168, .F. ) ;
#191 = CIRCLE ( 'NONE', #223, 10.00000000000000000 ) ;
#192 = VECTOR ( 'NONE', #152, 1000.000000000000000 ) ;
#193 = CYLINDRICAL_SURFACE ( 'NONE', #325, 10.00000000000000000 ) ;
#194 = APPLICATION_PROTOCOL_DEFINITION ( 'international standard', 'config_control_design', 1994, #104 ) ;
#195 = PERSON_AND_ORGANIZATION ( #97, #42 ) ;
#196 = PRODUCT ( 'cc09', 'cc09', '', ( #280 ) ) ;
#197 = ORIENTED_EDGE ( 'NONE', *, *, #52, .F. ) ;
#198 = DATE_AND_TIME ( #43, #83 ) ;
#199 = APPLICATION_CONTEXT ( 'configuration controlled 3d designs of mechanical parts and assemblies' ) ;
#200 = ORIENTED_EDGE ( 'NONE', *, *, #126, .T. ) ;
#201 = ORIENTED_EDGE ( 'NONE', *, *, #334, .F. ) ;
#202 = APPROVAL ( #165, 'NEURÈENÝ' ) ;
#203 = CARTESIAN_POINT ( 'NONE',  ( 6.700000000000001066, 0.000000000000000000, 7.699999999999985079 ) ) ;
#204 = CIRCLE ( 'NONE', #226, 6.000000000000000888 ) ;
#205 = DIRECTION ( 'NONE',  ( 1.000000000000000000, 0.000000000000000000, -0.000000000000000000 ) ) ;
#206 = EDGE_CURVE ( 'NONE', #368, #268, #88, .T. ) ;
#207 = DIRECTION ( 'NONE',  ( 0.000000000000000000, 0.000000000000000000, 1.000000000000000000 ) ) ;
#208 = LINE ( 'NONE', #327, #93 ) ;
#209 = CLOSED_SHELL ( 'NONE', ( #44, #149, #121, #14, #365, #99, #273, #373, #266, #56, #230 ) ) ;
#210 = CARTESIAN_POINT ( 'NONE',  ( -6.700000000000001066, 8.205133554287267548E-16, 6.999999999999992006 ) ) ;
#211 =( GEOMETRIC_REPRESENTATION_CONTEXT ( 3 ) GLOBAL_UNCERTAINTY_ASSIGNED_CONTEXT ( ( #170 ) ) GLOBAL_UNIT_ASSIGNED_CONTEXT ( ( #47, #140, #254 ) ) REPRESENTATION_CONTEXT ( 'NONE', 'WORKASPACE' ) );
#212 = DIRECTION ( 'NONE',  ( 0.000000000000000000, 0.000000000000000000, 1.000000000000000000 ) ) ;
#213 = ORIENTED_EDGE ( 'NONE', *, *, #313, .T. ) ;
#214 = CYLINDRICAL_SURFACE ( 'NONE', #176, 10.00000000000000000 ) ;
#215 = DIRECTION ( 'NONE',  ( 0.000000000000000000, 0.000000000000000000, -1.000000000000000000 ) ) ;
#216 = EDGE_CURVE ( 'NONE', #85, #283, #303, .T. ) ;
#217 = DIRECTION ( 'NONE',  ( 1.000000000000000000, 0.000000000000000000, -0.000000000000000000 ) ) ;
#218 = ORIENTED_EDGE ( 'NONE', *, *, #318, .T. ) ;
#219 = APPROVAL_DATE_TIME ( #284, #3 ) ;
#220 = EDGE_LOOP ( 'NONE', ( #225, #8, #359, #311 ) ) ;
#221 = DATE_TIME_ROLE ( 'classification_date' ) ;
#222 = CARTESIAN_POINT ( 'NONE',  ( 0.000000000000000000, 0.000000000000000000, 7.000000000000000000 ) ) ;
#223 = AXIS2_PLACEMENT_3D ( 'NONE', #162, #345, #76 ) ;
#224 = PERSON_AND_ORGANIZATION ( #97, #42 ) ;
#225 = ORIENTED_EDGE ( 'NONE', *, *, #313, .F. ) ;
#226 = AXIS2_PLACEMENT_3D ( 'NONE', #70, #237, #68 ) ;
#227 = CC_DESIGN_PERSON_AND_ORGANIZATION_ASSIGNMENT ( #322, #50, ( #60 ) ) ;
#228 = EDGE_LOOP ( 'NONE', ( #315, #200 ) ) ;
#229 = CARTESIAN_POINT ( 'NONE',  ( 0.000000000000000000, 0.000000000000000000, 7.000000000000000000 ) ) ;
#230 = ADVANCED_FACE ( 'NONE', ( #86 ), #324, .F. ) ;
#231 = AXIS2_PLACEMENT_3D ( 'NONE', #90, #26, #145 ) ;
#232 = CYLINDRICAL_SURFACE ( 'NONE', #41, 6.000000000000000888 ) ;
#233 = DIRECTION ( 'NONE',  ( 0.000000000000000000, 0.000000000000000000, 1.000000000000000000 ) ) ;
#234 = DIRECTION ( 'NONE',  ( 1.000000000000000000, 0.000000000000000000, 0.000000000000000000 ) ) ;
#235 = CC_DESIGN_PERSON_AND_ORGANIZATION_ASSIGNMENT ( #142, #71, ( #357 ) ) ;
#236 = VECTOR ( 'NONE', #258, 1000.000000000000000 ) ;
#237 = DIRECTION ( 'NONE',  ( 0.000000000000000000, 0.000000000000000000, 1.000000000000000000 ) ) ;
#238 = LINE ( 'NONE', #15, #356 ) ;
#239 = ORIENTED_EDGE ( 'NONE', *, *, #242, .T. ) ;
#240 = FACE_BOUND ( 'NONE', #376, .T. ) ;
#241 = ORIENTED_EDGE ( 'NONE', *, *, #259, .F. ) ;
#242 = EDGE_CURVE ( 'NONE', #143, #134, #310, .T. ) ;
#243 = CARTESIAN_POINT ( 'NONE',  ( 0.000000000000000000, 0.000000000000000000, 7.000000000000000000 ) ) ;
#244 = DIRECTION ( 'NONE',  ( -0.000000000000000000, -0.000000000000000000, -1.000000000000000000 ) ) ;
#245 = VERTEX_POINT ( 'NONE', #332 ) ;
#246 = EDGE_CURVE ( 'NONE', #85, #185, #238, .T. ) ;
#247 = COORDINATED_UNIVERSAL_TIME_OFFSET ( 1, 0, .AHEAD. ) ;
#248 = VERTEX_POINT ( 'NONE', #360 ) ;
#249 = PERSON_AND_ORGANIZATION ( #97, #42 ) ;
#250 = AXIS2_PLACEMENT_3D ( 'NONE', #295, #1, #167 ) ;
#251 = ORIENTED_EDGE ( 'NONE', *, *, #302, .T. ) ;
#252 = APPLICATION_PROTOCOL_DEFINITION ( 'international standard', 'config_control_design', 1994, #199 ) ;
#253 = CC_DESIGN_PERSON_AND_ORGANIZATION_ASSIGNMENT ( #166, #367, ( #60 ) ) ;
#254 =( NAMED_UNIT ( * ) SI_UNIT ( $, .STERADIAN. ) SOLID_ANGLE_UNIT ( ) );
#255 = ORIENTED_EDGE ( 'NONE', *, *, #91, .F. ) ;
#256 = TOROIDAL_SURFACE ( 'NONE', #379, 6.700000000000001066, 0.6999999999999999556 ) ;
#257 = LOCAL_TIME ( 16, 37, 42.00000000000000000, #45 ) ;
#258 = DIRECTION ( 'NONE',  ( -0.000000000000000000, -0.000000000000000000, -1.000000000000000000 ) ) ;
#259 = EDGE_CURVE ( 'NONE', #268, #281, #73, .T. ) ;
#260 = DIRECTION ( 'NONE',  ( 0.000000000000000000, 0.000000000000000000, -1.000000000000000000 ) ) ;
#261 = DIRECTION ( 'NONE',  ( 1.000000000000000000, 0.000000000000000000, 0.000000000000000000 ) ) ;
#262 = AXIS2_PLACEMENT_3D ( 'NONE', #122, #171, #146 ) ;
#263 = CIRCLE ( 'NONE', #296, 6.000000000000000888 ) ;
#264 = FACE_OUTER_BOUND ( 'NONE', #228, .T. ) ;
#265 = CARTESIAN_POINT ( 'NONE',  ( 4.000000000000000000, 4.898587196589412829E-16, 457.0000000000000000 ) ) ;
#266 = ADVANCED_FACE ( 'NONE', ( #240, #275 ), #299, .T. ) ;
#267 = DIRECTION ( 'NONE',  ( 0.000000000000000000, 0.000000000000000000, 1.000000000000000000 ) ) ;
#268 = VERTEX_POINT ( 'NONE', #131 ) ;
#269 = AXIS2_PLACEMENT_3D ( 'NONE', #297, #117, #151 ) ;
#270 = DIRECTION ( 'NONE',  ( 0.000000000000000000, 0.000000000000000000, 1.000000000000000000 ) ) ;
#271 = ORIENTED_EDGE ( 'NONE', *, *, #334, .T. ) ;
#272 = FACE_OUTER_BOUND ( 'NONE', #116, .T. ) ;
#273 = ADVANCED_FACE ( 'NONE', ( #300, #100 ), #123, .F. ) ;
#274 = ORIENTED_EDGE ( 'NONE', *, *, #298, .F. ) ;
#275 = FACE_OUTER_BOUND ( 'NONE', #136, .T. ) ;
#276 = LINE ( 'NONE', #103, #192 ) ;
#277 = AXIS2_PLACEMENT_3D ( 'NONE', #203, #351, #381 ) ;
#278 = ORIENTED_EDGE ( 'NONE', *, *, #329, .F. ) ;
#279 = CC_DESIGN_APPROVAL ( #202, ( #60 ) ) ;
#280 = MECHANICAL_CONTEXT ( 'NONE', #199, 'mechanical' ) ;
#281 = VERTEX_POINT ( 'NONE', #13 ) ;
#282 = APPROVAL_STATUS ( 'not_yet_approved' ) ;
#283 = VERTEX_POINT ( 'NONE', #98 ) ;
#284 = DATE_AND_TIME ( #135, #28 ) ;
#285 = ORIENTED_EDGE ( 'NONE', *, *, #126, .F. ) ;
#286 = AXIS2_PLACEMENT_3D ( 'NONE', #95, #212, #333 ) ;
#287 = PERSON_AND_ORGANIZATION_ROLE ( 'design_owner' ) ;
#288 = EDGE_LOOP ( 'NONE', ( #84, #197 ) ) ;
#289 = EDGE_CURVE ( 'NONE', #105, #46, #204, .T. ) ;
#290 = DIRECTION ( 'NONE',  ( -0.000000000000000000, -0.000000000000000000, -1.000000000000000000 ) ) ;
#291 = CARTESIAN_POINT ( 'NONE',  ( 6.700000000000001066, 0.000000000000000000, 6.999999999999992006 ) ) ;
#292 = CIRCLE ( 'NONE', #231, 0.7000000000000000666 ) ;
#293 = CARTESIAN_POINT ( 'NONE',  ( 0.000000000000000000, 0.000000000000000000, 0.000000000000000000 ) ) ;
#294 = CARTESIAN_POINT ( 'NONE',  ( -6.000000000000000888, 0.000000000000000000, 457.0000000000000000 ) ) ;
#295 = CARTESIAN_POINT ( 'NONE',  ( 0.000000000000000000, 0.000000000000000000, 457.0000000000000000 ) ) ;
#296 = AXIS2_PLACEMENT_3D ( 'NONE', #366, #270, #183 ) ;
#297 = CARTESIAN_POINT ( 'NONE',  ( 0.000000000000000000, 0.000000000000000000, 457.0000000000000000 ) ) ;
#298 = EDGE_CURVE ( 'NONE', #134, #143, #101, .T. ) ;
#299 = PLANE ( 'NONE',  #163 ) ;
#300 = FACE_BOUND ( 'NONE', #288, .T. ) ;
#301 = ORIENTED_EDGE ( 'NONE', *, *, #289, .T. ) ;
#302 = EDGE_CURVE ( 'NONE', #283, #188, #307, .T. ) ;
#303 = CIRCLE ( 'NONE', #269, 4.000000000000000000 ) ;
#304 = CIRCLE ( 'NONE', #67, 10.00000000000000000 ) ;
#305 = DIRECTION ( 'NONE',  ( -1.000000000000000000, 0.000000000000000000, 0.000000000000000000 ) ) ;
#306 = CARTESIAN_POINT ( 'NONE',  ( 6.000000000000000888, 7.347880794884120722E-16, 457.0000000000000000 ) ) ;
#307 = LINE ( 'NONE', #40, #182 ) ;
#308 = ORIENTED_EDGE ( 'NONE', *, *, #342, .F. ) ;
#309 = CALENDAR_DATE ( 2022, 8, 7 ) ;
#310 = CIRCLE ( 'NONE', #144, 6.700000000000001066 ) ;
#311 = ORIENTED_EDGE ( 'NONE', *, *, #25, .F. ) ;
#312 = AXIS2_PLACEMENT_3D ( 'NONE', #243, #186, #364 ) ;
#313 = EDGE_CURVE ( 'NONE', #65, #248, #263, .T. ) ;
#314 = DATE_TIME_ROLE ( 'creation_date' ) ;
#315 = ORIENTED_EDGE ( 'NONE', *, *, #342, .T. ) ;
#316 = APPROVAL_STATUS ( 'not_yet_approved' ) ;
#317 = ORIENTED_EDGE ( 'NONE', *, *, #246, .T. ) ;
#318 = EDGE_CURVE ( 'NONE', #105, #248, #177, .T. ) ;
#319 = CC_DESIGN_PERSON_AND_ORGANIZATION_ASSIGNMENT ( #224, #114, ( #4 ) ) ;
#320 = ORIENTED_EDGE ( 'NONE', *, *, #25, .T. ) ;
#321 = LOCAL_TIME ( 16, 37, 42.00000000000000000, #21 ) ;
#322 = PERSON_AND_ORGANIZATION ( #97, #42 ) ;
#323 = ORIENTED_EDGE ( 'NONE', *, *, #91, .T. ) ;
#324 = CYLINDRICAL_SURFACE ( 'NONE', #336, 4.000000000000000000 ) ;
#325 = AXIS2_PLACEMENT_3D ( 'NONE', #222, #372, #112 ) ;
#326 = AXIS2_PLACEMENT_3D ( 'NONE', #39, #267, #217 ) ;
#327 = CARTESIAN_POINT ( 'NONE',  ( -6.000000000000000888, 0.000000000000000000, 457.0000000000000000 ) ) ;
#328 = CARTESIAN_POINT ( 'NONE',  ( 0.000000000000000000, 0.000000000000000000, 7.699999999999985079 ) ) ;
#329 = EDGE_CURVE ( 'NONE', #248, #65, #130, .T. ) ;
#330 = FACE_OUTER_BOUND ( 'NONE', #220, .T. ) ;
#331 = TOROIDAL_SURFACE ( 'NONE', #118, 6.700000000000001066, 0.6999999999999999556 ) ;
#332 = CARTESIAN_POINT ( 'NONE',  ( -10.00000000000000000, 0.000000000000000000, 7.000000000000000000 ) ) ;
#333 = DIRECTION ( 'NONE',  ( 1.000000000000000000, 0.000000000000000000, 0.000000000000000000 ) ) ;
#334 = EDGE_CURVE ( 'NONE', #245, #281, #276, .T. ) ;
#335 = CARTESIAN_POINT ( 'NONE',  ( 0.000000000000000000, 0.000000000000000000, 7.000000000000000000 ) ) ;
#336 = AXIS2_PLACEMENT_3D ( 'NONE', #57, #38, #178 ) ;
#337 = CC_DESIGN_SECURITY_CLASSIFICATION ( #357, ( #60 ) ) ;
#338 = DIRECTION ( 'NONE',  ( 1.000000000000000000, 0.000000000000000000, -0.000000000000000000 ) ) ;
#339 = ORIENTED_EDGE ( 'NONE', *, *, #246, .F. ) ;
#340 = DIRECTION ( 'NONE',  ( -0.000000000000000000, -0.000000000000000000, -1.000000000000000000 ) ) ;
#341 = DIRECTION ( 'NONE',  ( 0.000000000000000000, 0.000000000000000000, 1.000000000000000000 ) ) ;
#342 = EDGE_CURVE ( 'NONE', #245, #368, #304, .T. ) ;
#343 = ORIENTED_EDGE ( 'NONE', *, *, #187, .T. ) ;
#344 = DATE_AND_TIME ( #133, #321 ) ;
#345 = DIRECTION ( 'NONE',  ( 0.000000000000000000, 0.000000000000000000, 1.000000000000000000 ) ) ;
#346 = DIRECTION ( 'NONE',  ( 1.000000000000000000, 0.000000000000000000, 0.000000000000000000 ) ) ;
#347 = EDGE_LOOP ( 'NONE', ( #17, #241 ) ) ;
#348 = SHAPE_DEFINITION_REPRESENTATION ( #79, #16 ) ;
#349 = ORIENTED_EDGE ( 'NONE', *, *, #216, .T. ) ;
#350 = CARTESIAN_POINT ( 'NONE',  ( 0.000000000000000000, 0.000000000000000000, 457.0000000000000000 ) ) ;
#351 = DIRECTION ( 'NONE',  ( 0.000000000000000000, -1.000000000000000000, 0.000000000000000000 ) ) ;
#352 = DIRECTION ( 'NONE',  ( 1.000000000000000000, 0.000000000000000000, 0.000000000000000000 ) ) ;
#353 = EDGE_CURVE ( 'NONE', #46, #105, #49, .T. ) ;
#354 = DIRECTION ( 'NONE',  ( 1.000000000000000000, 0.000000000000000000, 0.000000000000000000 ) ) ;
#355 = CARTESIAN_POINT ( 'NONE',  ( -4.000000000000000000, 0.000000000000000000, 0.000000000000000000 ) ) ;
#356 = VECTOR ( 'NONE', #102, 1000.000000000000000 ) ;
#357 = SECURITY_CLASSIFICATION ( '', '', #369 ) ;
#358 = DIRECTION ( 'NONE',  ( 1.000000000000000000, 0.000000000000000000, 0.000000000000000000 ) ) ;
#359 = ORIENTED_EDGE ( 'NONE', *, *, #242, .F. ) ;
#360 = CARTESIAN_POINT ( 'NONE',  ( 6.000000000000000888, 7.347880794884120722E-16, 7.699999999999985079 ) ) ;
#361 = DIRECTION ( 'NONE',  ( 0.000000000000000000, 0.000000000000000000, 1.000000000000000000 ) ) ;
#362 = ORIENTED_EDGE ( 'NONE', *, *, #298, .T. ) ;
#363 = AXIS2_PLACEMENT_3D ( 'NONE', #127, #290, #374 ) ;
#364 = DIRECTION ( 'NONE',  ( 1.000000000000000000, 0.000000000000000000, 0.000000000000000000 ) ) ;
#365 = ADVANCED_FACE ( 'NONE', ( #10 ), #214, .T. ) ;
#366 = CARTESIAN_POINT ( 'NONE',  ( 0.000000000000000000, 0.000000000000000000, 7.699999999999985079 ) ) ;
#367 = PERSON_AND_ORGANIZATION_ROLE ( 'design_supplier' ) ;
#368 = VERTEX_POINT ( 'NONE', #155 ) ;
#369 = SECURITY_CLASSIFICATION_LEVEL ( 'unclassified' ) ;
#370 = CIRCLE ( 'NONE', #250, 4.000000000000000000 ) ;
#371 = AXIS2_PLACEMENT_3D ( 'NONE', #77, #341, #346 ) ;
#372 = DIRECTION ( 'NONE',  ( -0.000000000000000000, -0.000000000000000000, -1.000000000000000000 ) ) ;
#373 = ADVANCED_FACE ( 'NONE', ( #272 ), #11, .T. ) ;
#374 = DIRECTION ( 'NONE',  ( -1.000000000000000000, 0.000000000000000000, 0.000000000000000000 ) ) ;
#375 = ORIENTED_EDGE ( 'NONE', *, *, #353, .T. ) ;
#376 = EDGE_LOOP ( 'NONE', ( #255, #12 ) ) ;
#377 = DESIGN_CONTEXT ( 'detailed design', #104, 'design' ) ;
#378 = ORIENTED_EDGE ( 'NONE', *, *, #318, .F. ) ;
#379 = AXIS2_PLACEMENT_3D ( 'NONE', #32, #207, #354 ) ;
#380 = VECTOR ( 'NONE', #244, 1000.000000000000000 ) ;
#381 = DIRECTION ( 'NONE',  ( 0.000000000000000000, 0.000000000000000000, -1.000000000000000000 ) ) ;
ENDSEC;
END-ISO-10303-21;
