ISO-10303-21;
HEADER;
FILE_DESCRIPTION (( 'STEP AP203' ),
    '1' );
FILE_NAME ('9eec.STEP',
    '2022-07-08T15:54:11',
    ( '' ),
    ( '' ),
    'SwSTEP 2.0',
    'SolidWorks 2019',
    '' );
FILE_SCHEMA (( 'CONFIG_CONTROL_DESIGN' ));
ENDSEC;

DATA;
#1 = CC_DESIGN_PERSON_AND_ORGANIZATION_ASSIGNMENT ( #133, #12, ( #375 ) ) ;
#2 =( GEOMETRIC_REPRESENTATION_CONTEXT ( 3 ) GLOBAL_UNCERTAINTY_ASSIGNED_CONTEXT ( ( #70 ) ) GLOBAL_UNIT_ASSIGNED_CONTEXT ( ( #80, #81, #171 ) ) REPRESENTATION_CONTEXT ( 'NONE', 'WORKASPACE' ) );
#3 = VERTEX_POINT ( 'NONE', #297 ) ;
#4 = EDGE_CURVE ( 'NONE', #212, #3, #24, .T. ) ;
#5 = CARTESIAN_POINT ( 'NONE',  ( -1.000000000000000000, 0.000000000000000000, 0.000000000000000000 ) ) ;
#6 = AXIS2_PLACEMENT_3D ( 'NONE', #290, #210, #272 ) ;
#7 = CARTESIAN_POINT ( 'NONE',  ( 0.000000000000000000, 0.000000000000000000, 3.000000000000000000 ) ) ;
#8 = CARTESIAN_POINT ( 'NONE',  ( 0.000000000000000000, 0.000000000000000000, 278.0000000000000000 ) ) ;
#9 = DIRECTION ( 'NONE',  ( 0.000000000000000000, 0.000000000000000000, 1.000000000000000000 ) ) ;
#10 = APPROVAL ( #259, 'NEURÈENÝ' ) ;
#11 = DIRECTION ( 'NONE',  ( 1.000000000000000000, 0.000000000000000000, 0.000000000000000000 ) ) ;
#12 = PERSON_AND_ORGANIZATION_ROLE ( 'creator' ) ;
#13 = FACE_OUTER_BOUND ( 'NONE', #79, .T. ) ;
#14 = CLOSED_SHELL ( 'NONE', ( #348, #220, #138, #334, #279, #329, #356, #341, #34, #135, #284 ) ) ;
#15 = AXIS2_PLACEMENT_3D ( 'NONE', #333, #132, #73 ) ;
#16 = DIRECTION ( 'NONE',  ( -0.000000000000000000, -0.000000000000000000, -1.000000000000000000 ) ) ;
#17 = CARTESIAN_POINT ( 'NONE',  ( 0.000000000000000000, 0.000000000000000000, 278.0000000000000000 ) ) ;
#18 = CYLINDRICAL_SURFACE ( 'NONE', #39, 1.000000000000000000 ) ;
#19 = VECTOR ( 'NONE', #211, 1000.000000000000000 ) ;
#20 = EDGE_LOOP ( 'NONE', ( #181, #183, #28, #87 ) ) ;
#21 = FACE_BOUND ( 'NONE', #177, .T. ) ;
#22 = ORIENTED_EDGE ( 'NONE', *, *, #349, .F. ) ;
#23 = DIRECTION ( 'NONE',  ( 0.000000000000000000, 0.000000000000000000, 1.000000000000000000 ) ) ;
#24 = CIRCLE ( 'NONE', #6, 2.000000000000000000 ) ;
#25 = ORIENTED_EDGE ( 'NONE', *, *, #30, .T. ) ;
#26 = DIRECTION ( 'NONE',  ( 0.000000000000000000, 0.000000000000000000, 1.000000000000000000 ) ) ;
#27 = LOCAL_TIME ( 17, 54, 11.00000000000000000, #33 ) ;
#28 = ORIENTED_EDGE ( 'NONE', *, *, #184, .T. ) ;
#29 = CALENDAR_DATE ( 2022, 8, 7 ) ;
#30 = EDGE_CURVE ( 'NONE', #32, #3, #122, .T. ) ;
#31 = DIRECTION ( 'NONE',  ( 1.000000000000000000, 0.000000000000000000, 0.000000000000000000 ) ) ;
#32 = VERTEX_POINT ( 'NONE', #217 ) ;
#33 = COORDINATED_UNIVERSAL_TIME_OFFSET ( 1, 0, .AHEAD. ) ;
#34 = ADVANCED_FACE ( 'NONE', ( #38, #357 ), #64, .T. ) ;
#35 = AXIS2_PLACEMENT_3D ( 'NONE', #294, #243, #11 ) ;
#36 = ORIENTED_EDGE ( 'NONE', *, *, #380, .T. ) ;
#37 = PERSON_AND_ORGANIZATION_ROLE ( 'design_owner' ) ;
#38 = FACE_BOUND ( 'NONE', #178, .T. ) ;
#39 = AXIS2_PLACEMENT_3D ( 'NONE', #371, #226, #136 ) ;
#40 = CC_DESIGN_PERSON_AND_ORGANIZATION_ASSIGNMENT ( #60, #182, ( #293 ) ) ;
#41 = AXIS2_PLACEMENT_3D ( 'NONE', #193, #276, #102 ) ;
#42 = DATE_AND_TIME ( #43, #315 ) ;
#43 = CALENDAR_DATE ( 2022, 8, 7 ) ;
#44 = CARTESIAN_POINT ( 'NONE',  ( 4.000000000000000000, 4.898587196589412829E-16, 3.000000000000000000 ) ) ;
#45 = CC_DESIGN_DATE_AND_TIME_ASSIGNMENT ( #360, #72, ( #157 ) ) ;
#46 = DIRECTION ( 'NONE',  ( -1.000000000000000000, 1.224646799147353207E-16, 0.000000000000000000 ) ) ;
#47 = AXIS2_PLACEMENT_3D ( 'NONE', #7, #97, #328 ) ;
#48 = DIRECTION ( 'NONE',  ( -0.000000000000000000, -0.000000000000000000, -1.000000000000000000 ) ) ;
#49 = CARTESIAN_POINT ( 'NONE',  ( 0.000000000000000000, 0.000000000000000000, 0.000000000000000000 ) ) ;
#50 = VERTEX_POINT ( 'NONE', #155 ) ;
#51 = AXIS2_PLACEMENT_3D ( 'NONE', #112, #16, #305 ) ;
#52 = APPLICATION_CONTEXT ( 'configuration controlled 3d designs of mechanical parts and assemblies' ) ;
#53 = VERTEX_POINT ( 'NONE', #158 ) ;
#54 = EDGE_LOOP ( 'NONE', ( #152, #25, #374, #205 ) ) ;
#55 = CARTESIAN_POINT ( 'NONE',  ( -2.000000000000000000, 0.000000000000000000, 3.300000000000025135 ) ) ;
#56 = CIRCLE ( 'NONE', #245, 0.2999999999999999334 ) ;
#57 = VERTEX_POINT ( 'NONE', #71 ) ;
#58 = EDGE_CURVE ( 'NONE', #199, #50, #320, .T. ) ;
#59 = AXIS2_PLACEMENT_3D ( 'NONE', #49, #248, #141 ) ;
#60 = PERSON_AND_ORGANIZATION ( #361, #307 ) ;
#61 = CARTESIAN_POINT ( 'NONE',  ( -2.000000000000000000, 0.000000000000000000, 278.0000000000000000 ) ) ;
#62 = ORIENTED_EDGE ( 'NONE', *, *, #78, .F. ) ;
#63 = TOROIDAL_SURFACE ( 'NONE', #342, 2.299999999999999822, 0.2999999999999999889 ) ;
#64 = PLANE ( 'NONE',  #265 ) ;
#65 = COORDINATED_UNIVERSAL_TIME_OFFSET ( 1, 0, .AHEAD. ) ;
#66 = CARTESIAN_POINT ( 'NONE',  ( -2.299999999999999822, 2.816687638038912056E-16, 3.300000000000025135 ) ) ;
#67 = EDGE_CURVE ( 'NONE', #234, #345, #162, .T. ) ;
#68 = CARTESIAN_POINT ( 'NONE',  ( -2.000000000000000000, 0.000000000000000000, 278.0000000000000000 ) ) ;
#69 = CARTESIAN_POINT ( 'NONE',  ( 0.000000000000000000, 0.000000000000000000, 278.0000000000000000 ) ) ;
#70 = UNCERTAINTY_MEASURE_WITH_UNIT (LENGTH_MEASURE( 1.000000000000000082E-05 ), #80, 'distance_accuracy_value', 'NONE');
#71 = CARTESIAN_POINT ( 'NONE',  ( 1.000000000000000000, 1.224646799147353207E-16, 0.000000000000000000 ) ) ;
#72 = DATE_TIME_ROLE ( 'classification_date' ) ;
#73 = DIRECTION ( 'NONE',  ( -1.000000000000000000, 0.000000000000000000, 0.000000000000000000 ) ) ;
#74 = AXIS2_PLACEMENT_3D ( 'NONE', #151, #262, #379 ) ;
#75 = DATE_AND_TIME ( #295, #370 ) ;
#76 = CIRCLE ( 'NONE', #147, 1.000000000000000000 ) ;
#77 = PLANE ( 'NONE',  #241 ) ;
#78 = EDGE_CURVE ( 'NONE', #288, #57, #225, .T. ) ;
#79 = EDGE_LOOP ( 'NONE', ( #149, #146, #36, #113 ) ) ;
#80 =( LENGTH_UNIT ( ) NAMED_UNIT ( * ) SI_UNIT ( .MILLI., .METRE. ) );
#81 =( NAMED_UNIT ( * ) PLANE_ANGLE_UNIT ( ) SI_UNIT ( $, .RADIAN. ) );
#82 = EDGE_CURVE ( 'NONE', #53, #93, #172, .T. ) ;
#83 = AXIS2_PLACEMENT_3D ( 'NONE', #142, #304, #332 ) ;
#84 = ORIENTED_EDGE ( 'NONE', *, *, #233, .T. ) ;
#85 = APPROVAL ( #285, 'NEURÈENÝ' ) ;
#86 = ORIENTED_EDGE ( 'NONE', *, *, #184, .F. ) ;
#87 = ORIENTED_EDGE ( 'NONE', *, *, #78, .T. ) ;
#88 = APPROVAL_ROLE ( '' ) ;
#89 = VERTEX_POINT ( 'NONE', #68 ) ;
#90 = VECTOR ( 'NONE', #94, 1000.000000000000000 ) ;
#91 = AXIS2_PLACEMENT_3D ( 'NONE', #316, #26, #311 ) ;
#92 = CARTESIAN_POINT ( 'NONE',  ( 0.000000000000000000, 0.000000000000000000, 3.300000000000025135 ) ) ;
#93 = VERTEX_POINT ( 'NONE', #299 ) ;
#94 = DIRECTION ( 'NONE',  ( 0.000000000000000000, 0.000000000000000000, -1.000000000000000000 ) ) ;
#95 = DIRECTION ( 'NONE',  ( 1.000000000000000000, 0.000000000000000000, 0.000000000000000000 ) ) ;
#96 = DIRECTION ( 'NONE',  ( 1.000000000000000000, 0.000000000000000000, 0.000000000000000000 ) ) ;
#97 = DIRECTION ( 'NONE',  ( -0.000000000000000000, -0.000000000000000000, -1.000000000000000000 ) ) ;
#98 = EDGE_CURVE ( 'NONE', #3, #93, #56, .T. ) ;
#99 = DIRECTION ( 'NONE',  ( 0.000000000000000000, -1.000000000000000000, 0.000000000000000000 ) ) ;
#100 = FACE_OUTER_BOUND ( 'NONE', #166, .T. ) ;
#101 = ADVANCED_BREP_SHAPE_REPRESENTATION ( '9eec', ( #143, #91 ), #2 ) ;
#102 = DIRECTION ( 'NONE',  ( 1.000000000000000000, 0.000000000000000000, 0.000000000000000000 ) ) ;
#103 = PERSON_AND_ORGANIZATION_ROLE ( 'design_supplier' ) ;
#104 = DESIGN_CONTEXT ( 'detailed design', #278, 'design' ) ;
#105 = AXIS2_PLACEMENT_3D ( 'NONE', #163, #9, #218 ) ;
#106 = FACE_OUTER_BOUND ( 'NONE', #20, .T. ) ;
#107 = ORIENTED_EDGE ( 'NONE', *, *, #30, .F. ) ;
#108 = FACE_OUTER_BOUND ( 'NONE', #261, .T. ) ;
#109 = CARTESIAN_POINT ( 'NONE',  ( -4.000000000000000000, 0.000000000000000000, 3.000000000000000000 ) ) ;
#110 = EDGE_CURVE ( 'NONE', #345, #234, #203, .T. ) ;
#111 = ORIENTED_EDGE ( 'NONE', *, *, #82, .T. ) ;
#112 = CARTESIAN_POINT ( 'NONE',  ( 0.000000000000000000, 0.000000000000000000, 278.0000000000000000 ) ) ;
#113 = ORIENTED_EDGE ( 'NONE', *, *, #67, .T. ) ;
#114 = AXIS2_PLACEMENT_3D ( 'NONE', #196, #195, #298 ) ;
#115 = DIRECTION ( 'NONE',  ( 1.000000000000000000, 0.000000000000000000, 0.000000000000000000 ) ) ;
#116 = VERTEX_POINT ( 'NONE', #365 ) ;
#117 = PERSON_AND_ORGANIZATION ( #361, #307 ) ;
#118 = EDGE_LOOP ( 'NONE', ( #366, #84 ) ) ;
#119 = DIRECTION ( 'NONE',  ( 0.000000000000000000, 0.000000000000000000, 1.000000000000000000 ) ) ;
#120 = ORIENTED_EDGE ( 'NONE', *, *, #110, .T. ) ;
#121 = MECHANICAL_CONTEXT ( 'NONE', #52, 'mechanical' ) ;
#122 = LINE ( 'NONE', #238, #137 ) ;
#123 = EDGE_CURVE ( 'NONE', #116, #287, #250, .T. ) ;
#124 = APPROVAL_ROLE ( '' ) ;
#125 = DIRECTION ( 'NONE',  ( -1.000000000000000000, 0.000000000000000000, 0.000000000000000000 ) ) ;
#126 = ORIENTED_EDGE ( 'NONE', *, *, #349, .T. ) ;
#127 = APPROVAL ( #188, 'NEURÈENÝ' ) ;
#128 = AXIS2_PLACEMENT_3D ( 'NONE', #8, #351, #268 ) ;
#129 = ORIENTED_EDGE ( 'NONE', *, *, #58, .F. ) ;
#130 = DIRECTION ( 'NONE',  ( 0.000000000000000000, 0.000000000000000000, -1.000000000000000000 ) ) ;
#131 = APPROVAL_DATE_TIME ( #75, #127 ) ;
#132 = DIRECTION ( 'NONE',  ( 0.000000000000000000, 0.000000000000000000, -1.000000000000000000 ) ) ;
#133 = PERSON_AND_ORGANIZATION ( #361, #307 ) ;
#134 = VECTOR ( 'NONE', #214, 1000.000000000000000 ) ;
#135 = ADVANCED_FACE ( 'NONE', ( #219 ), #63, .F. ) ;
#136 = DIRECTION ( 'NONE',  ( -1.000000000000000000, 0.000000000000000000, 0.000000000000000000 ) ) ;
#137 = VECTOR ( 'NONE', #236, 1000.000000000000000 ) ;
#138 = ADVANCED_FACE ( 'NONE', ( #173 ), #208, .T. ) ;
#139 = CARTESIAN_POINT ( 'NONE',  ( 0.000000000000000000, 0.000000000000000000, 0.000000000000000000 ) ) ;
#140 = PRODUCT ( '9eec', '9eec', '', ( #121 ) ) ;
#141 = DIRECTION ( 'NONE',  ( 1.000000000000000000, 0.000000000000000000, -0.000000000000000000 ) ) ;
#142 = CARTESIAN_POINT ( 'NONE',  ( 0.000000000000000000, 0.000000000000000000, 0.000000000000000000 ) ) ;
#143 = MANIFOLD_SOLID_BREP ( 'Odebrat vysunutím3', #14 ) ;
#144 = EDGE_LOOP ( 'NONE', ( #372, #322 ) ) ;
#145 = PERSON_AND_ORGANIZATION ( #361, #307 ) ;
#146 = ORIENTED_EDGE ( 'NONE', *, *, #123, .F. ) ;
#147 = AXIS2_PLACEMENT_3D ( 'NONE', #139, #48, #170 ) ;
#148 = FACE_OUTER_BOUND ( 'NONE', #251, .T. ) ;
#149 = ORIENTED_EDGE ( 'NONE', *, *, #260, .F. ) ;
#150 = APPROVAL_DATE_TIME ( #209, #10 ) ;
#151 = CARTESIAN_POINT ( 'NONE',  ( 0.000000000000000000, 0.000000000000000000, 3.300000000000025135 ) ) ;
#152 = ORIENTED_EDGE ( 'NONE', *, *, #338, .F. ) ;
#153 = DATE_AND_TIME ( #318, #27 ) ;
#154 = CARTESIAN_POINT ( 'NONE',  ( 0.000000000000000000, 0.000000000000000000, 3.000000000000000000 ) ) ;
#155 = CARTESIAN_POINT ( 'NONE',  ( 1.000000000000000000, 1.224646799147353207E-16, 278.0000000000000000 ) ) ;
#156 = DATE_TIME_ROLE ( 'creation_date' ) ;
#157 = SECURITY_CLASSIFICATION ( '', '', #352 ) ;
#158 = CARTESIAN_POINT ( 'NONE',  ( -2.299999999999999822, 2.816687638038912056E-16, 3.000000000000012434 ) ) ;
#159 = DIRECTION ( 'NONE',  ( -0.000000000000000000, -0.000000000000000000, -1.000000000000000000 ) ) ;
#160 = EDGE_CURVE ( 'NONE', #50, #57, #289, .T. ) ;
#161 = CARTESIAN_POINT ( 'NONE',  ( -4.000000000000000000, 0.000000000000000000, 0.000000000000000000 ) ) ;
#162 = CIRCLE ( 'NONE', #335, 4.000000000000000000 ) ;
#163 = CARTESIAN_POINT ( 'NONE',  ( 0.000000000000000000, 0.000000000000000000, 278.0000000000000000 ) ) ;
#164 = EDGE_LOOP ( 'NONE', ( #227, #308, #126, #86 ) ) ;
#165 = CYLINDRICAL_SURFACE ( 'NONE', #47, 4.000000000000000000 ) ;
#166 = EDGE_LOOP ( 'NONE', ( #317, #176, #120, #257 ) ) ;
#167 = AXIS2_PLACEMENT_3D ( 'NONE', #66, #274, #46 ) ;
#168 = CC_DESIGN_PERSON_AND_ORGANIZATION_ASSIGNMENT ( #240, #191, ( #157 ) ) ;
#169 = EDGE_CURVE ( 'NONE', #89, #212, #180, .T. ) ;
#170 = DIRECTION ( 'NONE',  ( 1.000000000000000000, 0.000000000000000000, 0.000000000000000000 ) ) ;
#171 =( NAMED_UNIT ( * ) SI_UNIT ( $, .STERADIAN. ) SOLID_ANGLE_UNIT ( ) );
#172 = CIRCLE ( 'NONE', #35, 2.299999999999999822 ) ;
#173 = FACE_OUTER_BOUND ( 'NONE', #54, .T. ) ;
#174 = CIRCLE ( 'NONE', #213, 4.000000000000000000 ) ;
#175 = EDGE_CURVE ( 'NONE', #93, #53, #291, .T. ) ;
#176 = ORIENTED_EDGE ( 'NONE', *, *, #260, .T. ) ;
#177 = EDGE_LOOP ( 'NONE', ( #62, #22 ) ) ;
#178 = EDGE_LOOP ( 'NONE', ( #129, #185 ) ) ;
#179 = COORDINATED_UNIVERSAL_TIME_OFFSET ( 1, 0, .AHEAD. ) ;
#180 = LINE ( 'NONE', #61, #19 ) ;
#181 = ORIENTED_EDGE ( 'NONE', *, *, #160, .F. ) ;
#182 = PERSON_AND_ORGANIZATION_ROLE ( 'creator' ) ;
#183 = ORIENTED_EDGE ( 'NONE', *, *, #336, .T. ) ;
#184 = EDGE_CURVE ( 'NONE', #199, #288, #232, .T. ) ;
#185 = ORIENTED_EDGE ( 'NONE', *, *, #336, .F. ) ;
#186 = CARTESIAN_POINT ( 'NONE',  ( 0.000000000000000000, 0.000000000000000000, 278.0000000000000000 ) ) ;
#187 = CARTESIAN_POINT ( 'NONE',  ( 0.000000000000000000, 0.000000000000000000, 278.0000000000000000 ) ) ;
#188 = APPROVAL_STATUS ( 'not_yet_approved' ) ;
#189 = DIRECTION ( 'NONE',  ( 0.000000000000000000, 0.000000000000000000, 1.000000000000000000 ) ) ;
#190 = ORIENTED_EDGE ( 'NONE', *, *, #309, .F. ) ;
#191 = PERSON_AND_ORGANIZATION_ROLE ( 'classification_officer' ) ;
#192 = DIRECTION ( 'NONE',  ( 0.000000000000000000, 0.000000000000000000, 1.000000000000000000 ) ) ;
#193 = CARTESIAN_POINT ( 'NONE',  ( 0.000000000000000000, 0.000000000000000000, 0.000000000000000000 ) ) ;
#194 = PERSON_AND_ORGANIZATION ( #361, #307 ) ;
#195 = DIRECTION ( 'NONE',  ( -0.000000000000000000, -0.000000000000000000, -1.000000000000000000 ) ) ;
#196 = CARTESIAN_POINT ( 'NONE',  ( 0.000000000000000000, 0.000000000000000000, 3.000000000000000000 ) ) ;
#197 = ORIENTED_EDGE ( 'NONE', *, *, #321, .F. ) ;
#198 = CIRCLE ( 'NONE', #258, 1.000000000000000000 ) ;
#199 = VERTEX_POINT ( 'NONE', #202 ) ;
#200 = APPROVAL_PERSON_ORGANIZATION ( #194, #127, #273 ) ;
#201 = FACE_OUTER_BOUND ( 'NONE', #164, .T. ) ;
#202 = CARTESIAN_POINT ( 'NONE',  ( -1.000000000000000000, 0.000000000000000000, 278.0000000000000000 ) ) ;
#203 = CIRCLE ( 'NONE', #83, 4.000000000000000000 ) ;
#204 = CARTESIAN_POINT ( 'NONE',  ( 0.000000000000000000, 0.000000000000000000, 3.000000000000000000 ) ) ;
#205 = ORIENTED_EDGE ( 'NONE', *, *, #169, .F. ) ;
#206 = AXIS2_PLACEMENT_3D ( 'NONE', #186, #270, #125 ) ;
#207 = CC_DESIGN_SECURITY_CLASSIFICATION ( #157, ( #375 ) ) ;
#208 = CYLINDRICAL_SURFACE ( 'NONE', #206, 2.000000000000000000 ) ;
#209 = DATE_AND_TIME ( #29, #222 ) ;
#210 = DIRECTION ( 'NONE',  ( 0.000000000000000000, 0.000000000000000000, 1.000000000000000000 ) ) ;
#211 = DIRECTION ( 'NONE',  ( -0.000000000000000000, -0.000000000000000000, -1.000000000000000000 ) ) ;
#212 = VERTEX_POINT ( 'NONE', #55 ) ;
#213 = AXIS2_PLACEMENT_3D ( 'NONE', #204, #119, #239 ) ;
#214 = DIRECTION ( 'NONE',  ( -0.000000000000000000, -0.000000000000000000, -1.000000000000000000 ) ) ;
#215 = ORIENTED_EDGE ( 'NONE', *, *, #369, .T. ) ;
#216 = COORDINATED_UNIVERSAL_TIME_OFFSET ( 1, 0, .AHEAD. ) ;
#217 = CARTESIAN_POINT ( 'NONE',  ( 2.000000000000000000, 2.449293598294706414E-16, 278.0000000000000000 ) ) ;
#218 = DIRECTION ( 'NONE',  ( 1.000000000000000000, 0.000000000000000000, 0.000000000000000000 ) ) ;
#219 = FACE_OUTER_BOUND ( 'NONE', #283, .T. ) ;
#220 = ADVANCED_FACE ( 'NONE', ( #148 ), #256, .F. ) ;
#221 = DIRECTION ( 'NONE',  ( 0.000000000000000000, 0.000000000000000000, 1.000000000000000000 ) ) ;
#222 = LOCAL_TIME ( 17, 54, 11.00000000000000000, #179 ) ;
#223 = CARTESIAN_POINT ( 'NONE',  ( 4.000000000000000000, 4.898587196589412829E-16, 3.000000000000000000 ) ) ;
#224 = ORIENTED_EDGE ( 'NONE', *, *, #4, .F. ) ;
#225 = CIRCLE ( 'NONE', #41, 1.000000000000000000 ) ;
#226 = DIRECTION ( 'NONE',  ( 0.000000000000000000, 0.000000000000000000, -1.000000000000000000 ) ) ;
#227 = ORIENTED_EDGE ( 'NONE', *, *, #58, .T. ) ;
#228 = AXIS2_PLACEMENT_3D ( 'NONE', #247, #23, #253 ) ;
#229 = DIRECTION ( 'NONE',  ( 1.000000000000000000, 0.000000000000000000, 0.000000000000000000 ) ) ;
#230 = CIRCLE ( 'NONE', #362, 2.000000000000000000 ) ;
#231 = ORIENTED_EDGE ( 'NONE', *, *, #369, .F. ) ;
#232 = LINE ( 'NONE', #344, #306 ) ;
#233 = EDGE_CURVE ( 'NONE', #287, #116, #174, .T. ) ;
#234 = VERTEX_POINT ( 'NONE', #161 ) ;
#235 = ORIENTED_EDGE ( 'NONE', *, *, #98, .T. ) ;
#236 = DIRECTION ( 'NONE',  ( -0.000000000000000000, -0.000000000000000000, -1.000000000000000000 ) ) ;
#237 = CARTESIAN_POINT ( 'NONE',  ( 1.000000000000000000, 1.224646799147353207E-16, 278.0000000000000000 ) ) ;
#238 = CARTESIAN_POINT ( 'NONE',  ( 2.000000000000000000, 2.449293598294706414E-16, 278.0000000000000000 ) ) ;
#239 = DIRECTION ( 'NONE',  ( 1.000000000000000000, 0.000000000000000000, 0.000000000000000000 ) ) ;
#240 = PERSON_AND_ORGANIZATION ( #361, #307 ) ;
#241 = AXIS2_PLACEMENT_3D ( 'NONE', #324, #189, #296 ) ;
#242 = CARTESIAN_POINT ( 'NONE',  ( 0.000000000000000000, 0.000000000000000000, 3.300000000000025135 ) ) ;
#243 = DIRECTION ( 'NONE',  ( -0.000000000000000000, -0.000000000000000000, -1.000000000000000000 ) ) ;
#244 = CARTESIAN_POINT ( 'NONE',  ( 0.000000000000000000, 0.000000000000000000, 0.000000000000000000 ) ) ;
#245 = AXIS2_PLACEMENT_3D ( 'NONE', #266, #99, #130 ) ;
#246 = CC_DESIGN_APPROVAL ( #127, ( #157 ) ) ;
#247 = CARTESIAN_POINT ( 'NONE',  ( 0.000000000000000000, 0.000000000000000000, 3.000000000000000000 ) ) ;
#248 = DIRECTION ( 'NONE',  ( 0.000000000000000000, 0.000000000000000000, 1.000000000000000000 ) ) ;
#249 = LINE ( 'NONE', #109, #267 ) ;
#250 = CIRCLE ( 'NONE', #228, 4.000000000000000000 ) ;
#251 = EDGE_LOOP ( 'NONE', ( #224, #378, #314, #312 ) ) ;
#252 = DIRECTION ( 'NONE',  ( 0.000000000000000000, 0.000000000000000000, 1.000000000000000000 ) ) ;
#253 = DIRECTION ( 'NONE',  ( 1.000000000000000000, 0.000000000000000000, 0.000000000000000000 ) ) ;
#254 = EDGE_LOOP ( 'NONE', ( #215, #263 ) ) ;
#255 = COORDINATED_UNIVERSAL_TIME_OFFSET ( 1, 0, .AHEAD. ) ;
#256 = TOROIDAL_SURFACE ( 'NONE', #74, 2.299999999999999822, 0.2999999999999999889 ) ;
#257 = ORIENTED_EDGE ( 'NONE', *, *, #380, .F. ) ;
#258 = AXIS2_PLACEMENT_3D ( 'NONE', #69, #192, #277 ) ;
#259 = APPROVAL_STATUS ( 'not_yet_approved' ) ;
#260 = EDGE_CURVE ( 'NONE', #287, #345, #363, .T. ) ;
#261 = EDGE_LOOP ( 'NONE', ( #107, #231, #282, #343 ) ) ;
#262 = DIRECTION ( 'NONE',  ( 0.000000000000000000, 0.000000000000000000, 1.000000000000000000 ) ) ;
#263 = ORIENTED_EDGE ( 'NONE', *, *, #338, .T. ) ;
#264 = APPLICATION_PROTOCOL_DEFINITION ( 'international standard', 'config_control_design', 1994, #278 ) ;
#265 = AXIS2_PLACEMENT_3D ( 'NONE', #187, #354, #325 ) ;
#266 = CARTESIAN_POINT ( 'NONE',  ( 2.299999999999999822, 0.000000000000000000, 3.300000000000025135 ) ) ;
#267 = VECTOR ( 'NONE', #368, 1000.000000000000000 ) ;
#268 = DIRECTION ( 'NONE',  ( 1.000000000000000000, 0.000000000000000000, 0.000000000000000000 ) ) ;
#269 = PERSON_AND_ORGANIZATION ( #361, #307 ) ;
#270 = DIRECTION ( 'NONE',  ( -0.000000000000000000, -0.000000000000000000, -1.000000000000000000 ) ) ;
#271 = CYLINDRICAL_SURFACE ( 'NONE', #114, 4.000000000000000000 ) ;
#272 = DIRECTION ( 'NONE',  ( 1.000000000000000000, 0.000000000000000000, 0.000000000000000000 ) ) ;
#273 = APPROVAL_ROLE ( '' ) ;
#274 = DIRECTION ( 'NONE',  ( 1.224646799147353207E-16, 1.000000000000000000, -0.000000000000000000 ) ) ;
#275 = CIRCLE ( 'NONE', #331, 2.000000000000000000 ) ;
#276 = DIRECTION ( 'NONE',  ( -0.000000000000000000, -0.000000000000000000, -1.000000000000000000 ) ) ;
#277 = DIRECTION ( 'NONE',  ( 1.000000000000000000, 0.000000000000000000, 0.000000000000000000 ) ) ;
#278 = APPLICATION_CONTEXT ( 'configuration controlled 3d designs of mechanical parts and assemblies' ) ;
#279 = ADVANCED_FACE ( 'NONE', ( #13 ), #271, .T. ) ;
#280 = AXIS2_PLACEMENT_3D ( 'NONE', #154, #159, #115 ) ;
#281 = CARTESIAN_POINT ( 'NONE',  ( 4.000000000000000000, 4.898587196589412829E-16, 0.000000000000000000 ) ) ;
#282 = ORIENTED_EDGE ( 'NONE', *, *, #169, .T. ) ;
#283 = EDGE_LOOP ( 'NONE', ( #197, #190, #235, #310 ) ) ;
#284 = ADVANCED_FACE ( 'NONE', ( #106 ), #353, .F. ) ;
#285 = APPROVAL_STATUS ( 'not_yet_approved' ) ;
#286 = APPROVAL_PERSON_ORGANIZATION ( #145, #85, #124 ) ;
#287 = VERTEX_POINT ( 'NONE', #44 ) ;
#288 = VERTEX_POINT ( 'NONE', #5 ) ;
#289 = LINE ( 'NONE', #237, #90 ) ;
#290 = CARTESIAN_POINT ( 'NONE',  ( 0.000000000000000000, 0.000000000000000000, 3.300000000000025135 ) ) ;
#291 = CIRCLE ( 'NONE', #280, 2.299999999999999822 ) ;
#292 = CC_DESIGN_APPROVAL ( #10, ( #293 ) ) ;
#293 = PRODUCT_DEFINITION ( 'NEZNÁMÝ', '', #375, #104 ) ;
#294 = CARTESIAN_POINT ( 'NONE',  ( 0.000000000000000000, 0.000000000000000000, 3.000000000000000000 ) ) ;
#295 = CALENDAR_DATE ( 2022, 8, 7 ) ;
#296 = DIRECTION ( 'NONE',  ( 1.000000000000000000, 0.000000000000000000, -0.000000000000000000 ) ) ;
#297 = CARTESIAN_POINT ( 'NONE',  ( 2.000000000000000000, 2.449293598294706414E-16, 3.300000000000025135 ) ) ;
#298 = DIRECTION ( 'NONE',  ( -1.000000000000000000, 0.000000000000000000, 0.000000000000000000 ) ) ;
#299 = CARTESIAN_POINT ( 'NONE',  ( 2.299999999999999822, 0.000000000000000000, 3.000000000000012434 ) ) ;
#300 = FACE_OUTER_BOUND ( 'NONE', #118, .T. ) ;
#301 = CC_DESIGN_APPROVAL ( #85, ( #375 ) ) ;
#302 = CC_DESIGN_DATE_AND_TIME_ASSIGNMENT ( #153, #156, ( #293 ) ) ;
#303 = CYLINDRICAL_SURFACE ( 'NONE', #51, 2.000000000000000000 ) ;
#304 = DIRECTION ( 'NONE',  ( 0.000000000000000000, 0.000000000000000000, 1.000000000000000000 ) ) ;
#305 = DIRECTION ( 'NONE',  ( -1.000000000000000000, 0.000000000000000000, 0.000000000000000000 ) ) ;
#306 = VECTOR ( 'NONE', #346, 1000.000000000000000 ) ;
#307 = ORGANIZATION ( 'NEURÈENÝ', 'NEURÈENÝ', '' ) ;
#308 = ORIENTED_EDGE ( 'NONE', *, *, #160, .T. ) ;
#309 = EDGE_CURVE ( 'NONE', #3, #212, #230, .T. ) ;
#310 = ORIENTED_EDGE ( 'NONE', *, *, #82, .F. ) ;
#311 = DIRECTION ( 'NONE',  ( 1.000000000000000000, 0.000000000000000000, 0.000000000000000000 ) ) ;
#312 = ORIENTED_EDGE ( 'NONE', *, *, #98, .F. ) ;
#313 = PRODUCT_DEFINITION_SHAPE ( 'NONE', 'NONE',  #293 ) ;
#314 = ORIENTED_EDGE ( 'NONE', *, *, #175, .F. ) ;
#315 = LOCAL_TIME ( 17, 54, 11.00000000000000000, #255 ) ;
#316 = CARTESIAN_POINT ( 'NONE',  ( 0.000000000000000000, 0.000000000000000000, 0.000000000000000000 ) ) ;
#317 = ORIENTED_EDGE ( 'NONE', *, *, #233, .F. ) ;
#318 = CALENDAR_DATE ( 2022, 8, 7 ) ;
#319 = DIRECTION ( 'NONE',  ( 0.000000000000000000, 0.000000000000000000, 1.000000000000000000 ) ) ;
#320 = CIRCLE ( 'NONE', #128, 1.000000000000000000 ) ;
#321 = EDGE_CURVE ( 'NONE', #212, #53, #323, .T. ) ;
#322 = ORIENTED_EDGE ( 'NONE', *, *, #110, .F. ) ;
#323 = CIRCLE ( 'NONE', #167, 0.2999999999999999334 ) ;
#324 = CARTESIAN_POINT ( 'NONE',  ( 0.000000000000000000, 0.000000000000000000, 3.000000000000000000 ) ) ;
#325 = DIRECTION ( 'NONE',  ( 1.000000000000000000, 0.000000000000000000, -0.000000000000000000 ) ) ;
#326 = SHAPE_DEFINITION_REPRESENTATION ( #313, #101 ) ;
#327 = APPROVAL_DATE_TIME ( #42, #85 ) ;
#328 = DIRECTION ( 'NONE',  ( -1.000000000000000000, 0.000000000000000000, 0.000000000000000000 ) ) ;
#329 = ADVANCED_FACE ( 'NONE', ( #330, #300 ), #77, .T. ) ;
#330 = FACE_BOUND ( 'NONE', #340, .T. ) ;
#331 = AXIS2_PLACEMENT_3D ( 'NONE', #17, #252, #229 ) ;
#332 = DIRECTION ( 'NONE',  ( 1.000000000000000000, 0.000000000000000000, 0.000000000000000000 ) ) ;
#333 = CARTESIAN_POINT ( 'NONE',  ( 0.000000000000000000, 0.000000000000000000, 278.0000000000000000 ) ) ;
#334 = ADVANCED_FACE ( 'NONE', ( #100 ), #165, .T. ) ;
#335 = AXIS2_PLACEMENT_3D ( 'NONE', #244, #359, #96 ) ;
#336 = EDGE_CURVE ( 'NONE', #50, #199, #198, .T. ) ;
#337 = CIRCLE ( 'NONE', #105, 2.000000000000000000 ) ;
#338 = EDGE_CURVE ( 'NONE', #32, #89, #337, .T. ) ;
#339 = PLANE ( 'NONE',  #59 ) ;
#340 = EDGE_LOOP ( 'NONE', ( #376, #111 ) ) ;
#341 = ADVANCED_FACE ( 'NONE', ( #108 ), #303, .T. ) ;
#342 = AXIS2_PLACEMENT_3D ( 'NONE', #92, #319, #31 ) ;
#343 = ORIENTED_EDGE ( 'NONE', *, *, #4, .T. ) ;
#344 = CARTESIAN_POINT ( 'NONE',  ( -1.000000000000000000, 0.000000000000000000, 278.0000000000000000 ) ) ;
#345 = VERTEX_POINT ( 'NONE', #281 ) ;
#346 = DIRECTION ( 'NONE',  ( 0.000000000000000000, 0.000000000000000000, -1.000000000000000000 ) ) ;
#347 = PRODUCT_RELATED_PRODUCT_CATEGORY ( 'detail', '', ( #140 ) ) ;
#348 = ADVANCED_FACE ( 'NONE', ( #201 ), #18, .F. ) ;
#349 = EDGE_CURVE ( 'NONE', #57, #288, #76, .T. ) ;
#350 = PERSON_AND_ORGANIZATION ( #361, #307 ) ;
#351 = DIRECTION ( 'NONE',  ( 0.000000000000000000, 0.000000000000000000, 1.000000000000000000 ) ) ;
#352 = SECURITY_CLASSIFICATION_LEVEL ( 'unclassified' ) ;
#353 = CYLINDRICAL_SURFACE ( 'NONE', #15, 1.000000000000000000 ) ;
#354 = DIRECTION ( 'NONE',  ( 0.000000000000000000, 0.000000000000000000, 1.000000000000000000 ) ) ;
#355 = APPROVAL_PERSON_ORGANIZATION ( #350, #10, #88 ) ;
#356 = ADVANCED_FACE ( 'NONE', ( #21, #373 ), #339, .F. ) ;
#357 = FACE_OUTER_BOUND ( 'NONE', #254, .T. ) ;
#358 = CALENDAR_DATE ( 2022, 8, 7 ) ;
#359 = DIRECTION ( 'NONE',  ( 0.000000000000000000, 0.000000000000000000, 1.000000000000000000 ) ) ;
#360 = DATE_AND_TIME ( #358, #364 ) ;
#361 = PERSON ( 'NEURÈENÝ', 'NEURÈENÝ', 'NEURÈENÝ', ('NEURÈENÝ'), ('NEURÈENÝ'), ('NEURÈENÝ') ) ;
#362 = AXIS2_PLACEMENT_3D ( 'NONE', #242, #221, #95 ) ;
#363 = LINE ( 'NONE', #223, #134 ) ;
#364 = LOCAL_TIME ( 17, 54, 11.00000000000000000, #216 ) ;
#365 = CARTESIAN_POINT ( 'NONE',  ( -4.000000000000000000, 0.000000000000000000, 3.000000000000000000 ) ) ;
#366 = ORIENTED_EDGE ( 'NONE', *, *, #123, .T. ) ;
#367 = CC_DESIGN_PERSON_AND_ORGANIZATION_ASSIGNMENT ( #269, #103, ( #375 ) ) ;
#368 = DIRECTION ( 'NONE',  ( -0.000000000000000000, -0.000000000000000000, -1.000000000000000000 ) ) ;
#369 = EDGE_CURVE ( 'NONE', #89, #32, #275, .T. ) ;
#370 = LOCAL_TIME ( 17, 54, 11.00000000000000000, #65 ) ;
#371 = CARTESIAN_POINT ( 'NONE',  ( 0.000000000000000000, 0.000000000000000000, 278.0000000000000000 ) ) ;
#372 = ORIENTED_EDGE ( 'NONE', *, *, #67, .F. ) ;
#373 = FACE_OUTER_BOUND ( 'NONE', #144, .T. ) ;
#374 = ORIENTED_EDGE ( 'NONE', *, *, #309, .T. ) ;
#375 = PRODUCT_DEFINITION_FORMATION_WITH_SPECIFIED_SOURCE ( 'LIBOVOLNÝ', '', #140, .NOT_KNOWN. ) ;
#376 = ORIENTED_EDGE ( 'NONE', *, *, #175, .T. ) ;
#377 = CC_DESIGN_PERSON_AND_ORGANIZATION_ASSIGNMENT ( #117, #37, ( #140 ) ) ;
#378 = ORIENTED_EDGE ( 'NONE', *, *, #321, .T. ) ;
#379 = DIRECTION ( 'NONE',  ( 1.000000000000000000, 0.000000000000000000, 0.000000000000000000 ) ) ;
#380 = EDGE_CURVE ( 'NONE', #116, #234, #249, .T. ) ;
#381 = APPLICATION_PROTOCOL_DEFINITION ( 'international standard', 'config_control_design', 1994, #52 ) ;
ENDSEC;
END-ISO-10303-21;
