ISO-10303-21;
HEADER;
FILE_DESCRIPTION (( 'STEP AP203' ),
    '1' );
FILE_NAME ('3c23.STEP',
    '2022-07-08T15:47:14',
    ( '' ),
    ( '' ),
    'SwSTEP 2.0',
    'SolidWorks 2019',
    '' );
FILE_SCHEMA (( 'CONFIG_CONTROL_DESIGN' ));
ENDSEC;

DATA;
#1 = DIRECTION ( 'NONE',  ( 1.000000000000000000, 0.000000000000000000, 0.000000000000000000 ) ) ;
#2 = CARTESIAN_POINT ( 'NONE',  ( 5.000000000000000000, 6.123233995736766282E-16, 0.000000000000000000 ) ) ;
#3 = CARTESIAN_POINT ( 'NONE',  ( 0.000000000000000000, 0.000000000000000000, 3.000000000000000000 ) ) ;
#4 = CIRCLE ( 'NONE', #133, 2.500000000000000000 ) ;
#5 = CYLINDRICAL_SURFACE ( 'NONE', #223, 2.500000000000000000 ) ;
#6 = APPLICATION_CONTEXT ( 'configuration controlled 3d designs of mechanical parts and assemblies' ) ;
#7 = ADVANCED_FACE ( 'NONE', ( #260 ), #195, .F. ) ;
#8 = DIRECTION ( 'NONE',  ( 0.000000000000000000, 0.000000000000000000, 1.000000000000000000 ) ) ;
#9 = FACE_BOUND ( 'NONE', #374, .T. ) ;
#10 = ORIENTED_EDGE ( 'NONE', *, *, #94, .T. ) ;
#11 = AXIS2_PLACEMENT_3D ( 'NONE', #381, #29, #139 ) ;
#12 = PERSON ( 'NEURÈENÝ', 'NEURÈENÝ', 'NEURÈENÝ', ('NEURÈENÝ'), ('NEURÈENÝ'), ('NEURÈENÝ') ) ;
#13 = CC_DESIGN_APPROVAL ( #129, ( #180 ) ) ;
#14 = DIRECTION ( 'NONE',  ( 0.000000000000000000, 0.000000000000000000, 1.000000000000000000 ) ) ;
#15 = CC_DESIGN_DATE_AND_TIME_ASSIGNMENT ( #261, #226, ( #148 ) ) ;
#16 = CARTESIAN_POINT ( 'NONE',  ( 0.000000000000000000, 0.000000000000000000, 3.000000000000000000 ) ) ;
#17 = ORIENTED_EDGE ( 'NONE', *, *, #56, .T. ) ;
#18 = CARTESIAN_POINT ( 'NONE',  ( 0.000000000000000000, 0.000000000000000000, 303.0000000000000000 ) ) ;
#19 = ORIENTED_EDGE ( 'NONE', *, *, #51, .F. ) ;
#20 = AXIS2_PLACEMENT_3D ( 'NONE', #49, #98, #185 ) ;
#21 = CALENDAR_DATE ( 2022, 8, 7 ) ;
#22 = ORIENTED_EDGE ( 'NONE', *, *, #159, .F. ) ;
#23 = PERSON_AND_ORGANIZATION_ROLE ( 'design_supplier' ) ;
#24 = EDGE_CURVE ( 'NONE', #163, #114, #173, .T. ) ;
#25 = ORIENTED_EDGE ( 'NONE', *, *, #65, .F. ) ;
#26 = CARTESIAN_POINT ( 'NONE',  ( 2.799999999999999822, 0.000000000000000000, 3.300000000000025135 ) ) ;
#27 = LINE ( 'NONE', #257, #214 ) ;
#28 = CIRCLE ( 'NONE', #264, 2.500000000000000000 ) ;
#29 = DIRECTION ( 'NONE',  ( -0.000000000000000000, -0.000000000000000000, -1.000000000000000000 ) ) ;
#30 = CC_DESIGN_PERSON_AND_ORGANIZATION_ASSIGNMENT ( #166, #375, ( #35 ) ) ;
#31 = DATE_AND_TIME ( #255, #354 ) ;
#32 = ORIENTED_EDGE ( 'NONE', *, *, #213, .T. ) ;
#33 = CARTESIAN_POINT ( 'NONE',  ( 0.000000000000000000, 0.000000000000000000, 0.000000000000000000 ) ) ;
#34 = CIRCLE ( 'NONE', #196, 0.2999999999999999334 ) ;
#35 = PRODUCT_DEFINITION_FORMATION_WITH_SPECIFIED_SOURCE ( 'LIBOVOLNÝ', '', #221, .NOT_KNOWN. ) ;
#36 = CARTESIAN_POINT ( 'NONE',  ( 0.000000000000000000, 0.000000000000000000, 3.000000000000000000 ) ) ;
#37 = DIRECTION ( 'NONE',  ( -0.000000000000000000, -0.000000000000000000, -1.000000000000000000 ) ) ;
#38 = CARTESIAN_POINT ( 'NONE',  ( 5.000000000000000000, 6.123233995736766282E-16, 3.000000000000000000 ) ) ;
#39 = CIRCLE ( 'NONE', #149, 5.000000000000000000 ) ;
#40 = FACE_OUTER_BOUND ( 'NONE', #361, .T. ) ;
#41 = FACE_OUTER_BOUND ( 'NONE', #246, .T. ) ;
#42 = CARTESIAN_POINT ( 'NONE',  ( -5.000000000000000000, 0.000000000000000000, 3.000000000000000000 ) ) ;
#43 = EDGE_CURVE ( 'NONE', #114, #225, #27, .T. ) ;
#44 = EDGE_LOOP ( 'NONE', ( #367, #10, #69, #50 ) ) ;
#45 = AXIS2_PLACEMENT_3D ( 'NONE', #206, #147, #299 ) ;
#46 = DIRECTION ( 'NONE',  ( 0.000000000000000000, 0.000000000000000000, 1.000000000000000000 ) ) ;
#47 = PRODUCT_RELATED_PRODUCT_CATEGORY ( 'detail', '', ( #221 ) ) ;
#48 = CARTESIAN_POINT ( 'NONE',  ( 0.000000000000000000, 0.000000000000000000, 303.0000000000000000 ) ) ;
#49 = CARTESIAN_POINT ( 'NONE',  ( 0.000000000000000000, 0.000000000000000000, 3.000000000000000000 ) ) ;
#50 = ORIENTED_EDGE ( 'NONE', *, *, #309, .F. ) ;
#51 = EDGE_CURVE ( 'NONE', #308, #225, #244, .T. ) ;
#52 = AXIS2_PLACEMENT_3D ( 'NONE', #72, #305, #99 ) ;
#53 = PERSON_AND_ORGANIZATION_ROLE ( 'creator' ) ;
#54 = ORIENTED_EDGE ( 'NONE', *, *, #65, .T. ) ;
#55 =( LENGTH_UNIT ( ) NAMED_UNIT ( * ) SI_UNIT ( .MILLI., .METRE. ) );
#56 = EDGE_CURVE ( 'NONE', #140, #58, #92, .T. ) ;
#57 = CALENDAR_DATE ( 2022, 8, 7 ) ;
#58 = VERTEX_POINT ( 'NONE', #237 ) ;
#59 = FACE_OUTER_BOUND ( 'NONE', #44, .T. ) ;
#60 = APPROVAL_ROLE ( '' ) ;
#61 = AXIS2_PLACEMENT_3D ( 'NONE', #359, #208, #1 ) ;
#62 = DIRECTION ( 'NONE',  ( 0.000000000000000000, 0.000000000000000000, 1.000000000000000000 ) ) ;
#63 = CYLINDRICAL_SURFACE ( 'NONE', #157, 2.500000000000000000 ) ;
#64 = DIRECTION ( 'NONE',  ( -0.000000000000000000, -0.000000000000000000, -1.000000000000000000 ) ) ;
#65 = EDGE_CURVE ( 'NONE', #345, #235, #97, .T. ) ;
#66 = EDGE_CURVE ( 'NONE', #58, #283, #28, .T. ) ;
#67 = CARTESIAN_POINT ( 'NONE',  ( 0.000000000000000000, 0.000000000000000000, 303.0000000000000000 ) ) ;
#68 = CARTESIAN_POINT ( 'NONE',  ( -5.000000000000000000, 0.000000000000000000, 0.000000000000000000 ) ) ;
#69 = ORIENTED_EDGE ( 'NONE', *, *, #120, .T. ) ;
#70 = CYLINDRICAL_SURFACE ( 'NONE', #203, 1.250000000000000000 ) ;
#71 = EDGE_LOOP ( 'NONE', ( #349, #25, #285, #189 ) ) ;
#72 = CARTESIAN_POINT ( 'NONE',  ( 0.000000000000000000, 0.000000000000000000, 303.0000000000000000 ) ) ;
#73 = ORIENTED_EDGE ( 'NONE', *, *, #51, .T. ) ;
#74 = AXIS2_PLACEMENT_3D ( 'NONE', #36, #176, #293 ) ;
#75 = CIRCLE ( 'NONE', #265, 0.2999999999999999334 ) ;
#76 = DIRECTION ( 'NONE',  ( 1.000000000000000000, 0.000000000000000000, 0.000000000000000000 ) ) ;
#77 = ORIENTED_EDGE ( 'NONE', *, *, #81, .T. ) ;
#78 = DIRECTION ( 'NONE',  ( 0.000000000000000000, 0.000000000000000000, 1.000000000000000000 ) ) ;
#79 = EDGE_LOOP ( 'NONE', ( #168, #252, #77, #372 ) ) ;
#80 = ADVANCED_FACE ( 'NONE', ( #266 ), #90, .F. ) ;
#81 = EDGE_CURVE ( 'NONE', #277, #283, #210, .T. ) ;
#82 = PERSON_AND_ORGANIZATION_ROLE ( 'design_owner' ) ;
#83 = MECHANICAL_CONTEXT ( 'NONE', #229, 'mechanical' ) ;
#84 = ORIENTED_EDGE ( 'NONE', *, *, #141, .F. ) ;
#85 = APPROVAL ( #315, 'NEURÈENÝ' ) ;
#86 = APPROVAL_ROLE ( '' ) ;
#87 = DIRECTION ( 'NONE',  ( 0.000000000000000000, 0.000000000000000000, 1.000000000000000000 ) ) ;
#88 = PERSON_AND_ORGANIZATION ( #12, #295 ) ;
#89 = EDGE_LOOP ( 'NONE', ( #19, #22 ) ) ;
#90 = TOROIDAL_SURFACE ( 'NONE', #61, 2.799999999999999822, 0.2999999999999999889 ) ;
#91 = DATE_AND_TIME ( #199, #145 ) ;
#92 = LINE ( 'NONE', #205, #144 ) ;
#93 = DIRECTION ( 'NONE',  ( -1.000000000000000000, 0.000000000000000000, 0.000000000000000000 ) ) ;
#94 = EDGE_CURVE ( 'NONE', #235, #100, #177, .T. ) ;
#95 = DIRECTION ( 'NONE',  ( 1.000000000000000000, 0.000000000000000000, 0.000000000000000000 ) ) ;
#96 = DIRECTION ( 'NONE',  ( 1.000000000000000000, 0.000000000000000000, 0.000000000000000000 ) ) ;
#97 = CIRCLE ( 'NONE', #294, 5.000000000000000000 ) ;
#98 = DIRECTION ( 'NONE',  ( -0.000000000000000000, -0.000000000000000000, -1.000000000000000000 ) ) ;
#99 = DIRECTION ( 'NONE',  ( -1.000000000000000000, 0.000000000000000000, 0.000000000000000000 ) ) ;
#100 = VERTEX_POINT ( 'NONE', #2 ) ;
#101 = DIRECTION ( 'NONE',  ( -1.000000000000000000, 0.000000000000000000, 0.000000000000000000 ) ) ;
#102 = CIRCLE ( 'NONE', #238, 1.250000000000000000 ) ;
#103 = DIRECTION ( 'NONE',  ( -1.000000000000000000, 0.000000000000000000, 0.000000000000000000 ) ) ;
#104 = ADVANCED_FACE ( 'NONE', ( #271 ), #5, .T. ) ;
#105 = EDGE_CURVE ( 'NONE', #140, #277, #109, .T. ) ;
#106 = PERSON_AND_ORGANIZATION ( #12, #295 ) ;
#107 = DATE_AND_TIME ( #21, #332 ) ;
#108 = ORIENTED_EDGE ( 'NONE', *, *, #105, .F. ) ;
#109 = CIRCLE ( 'NONE', #258, 2.500000000000000000 ) ;
#110 = CIRCLE ( 'NONE', #298, 5.000000000000000000 ) ;
#111 = DIRECTION ( 'NONE',  ( 0.000000000000000000, 0.000000000000000000, 1.000000000000000000 ) ) ;
#112 = ORIENTED_EDGE ( 'NONE', *, *, #327, .T. ) ;
#113 = APPROVAL_DATE_TIME ( #91, #85 ) ;
#114 = VERTEX_POINT ( 'NONE', #363 ) ;
#115 =( NAMED_UNIT ( * ) SI_UNIT ( $, .STERADIAN. ) SOLID_ANGLE_UNIT ( ) );
#116 = APPROVAL_PERSON_ORGANIZATION ( #234, #259, #204 ) ;
#117 = ADVANCED_BREP_SHAPE_REPRESENTATION ( '3c23', ( #330, #311 ), #304 ) ;
#118 = DIRECTION ( 'NONE',  ( -0.000000000000000000, -0.000000000000000000, -1.000000000000000000 ) ) ;
#119 = DIRECTION ( 'NONE',  ( -0.000000000000000000, -0.000000000000000000, -1.000000000000000000 ) ) ;
#120 = EDGE_CURVE ( 'NONE', #100, #250, #360, .T. ) ;
#121 = CC_DESIGN_APPROVAL ( #85, ( #148 ) ) ;
#122 = CARTESIAN_POINT ( 'NONE',  ( 0.000000000000000000, 0.000000000000000000, 303.0000000000000000 ) ) ;
#123 = DIRECTION ( 'NONE',  ( -1.000000000000000000, 1.224646799147353207E-16, 0.000000000000000000 ) ) ;
#124 = CARTESIAN_POINT ( 'NONE',  ( -2.799999999999999822, 3.429011037612589276E-16, 3.000000000000012434 ) ) ;
#125 = CIRCLE ( 'NONE', #188, 2.500000000000000000 ) ;
#126 = DIRECTION ( 'NONE',  ( 1.000000000000000000, 0.000000000000000000, 0.000000000000000000 ) ) ;
#127 = DIRECTION ( 'NONE',  ( 1.224646799147353207E-16, 1.000000000000000000, -0.000000000000000000 ) ) ;
#128 = ORIENTED_EDGE ( 'NONE', *, *, #43, .T. ) ;
#129 = APPROVAL ( #346, 'NEURÈENÝ' ) ;
#130 = ADVANCED_FACE ( 'NONE', ( #328 ), #63, .T. ) ;
#131 = DIRECTION ( 'NONE',  ( 0.000000000000000000, 0.000000000000000000, 1.000000000000000000 ) ) ;
#132 = EDGE_LOOP ( 'NONE', ( #198, #291 ) ) ;
#133 = AXIS2_PLACEMENT_3D ( 'NONE', #342, #78, #76 ) ;
#134 = DIRECTION ( 'NONE',  ( 0.000000000000000000, 0.000000000000000000, -1.000000000000000000 ) ) ;
#135 = UNCERTAINTY_MEASURE_WITH_UNIT (LENGTH_MEASURE( 1.000000000000000082E-05 ), #55, 'distance_accuracy_value', 'NONE');
#136 = COORDINATED_UNIVERSAL_TIME_OFFSET ( 1, 0, .AHEAD. ) ;
#137 = ORIENTED_EDGE ( 'NONE', *, *, #24, .T. ) ;
#138 =( NAMED_UNIT ( * ) PLANE_ANGLE_UNIT ( ) SI_UNIT ( $, .RADIAN. ) );
#139 = DIRECTION ( 'NONE',  ( 1.000000000000000000, 0.000000000000000000, 0.000000000000000000 ) ) ;
#140 = VERTEX_POINT ( 'NONE', #324 ) ;
#141 = EDGE_CURVE ( 'NONE', #228, #217, #209, .T. ) ;
#142 = ADVANCED_FACE ( 'NONE', ( #296, #40 ), #322, .T. ) ;
#143 = ORIENTED_EDGE ( 'NONE', *, *, #380, .F. ) ;
#144 = VECTOR ( 'NONE', #240, 1000.000000000000000 ) ;
#145 = LOCAL_TIME ( 17, 47, 14.00000000000000000, #377 ) ;
#146 = CARTESIAN_POINT ( 'NONE',  ( 0.000000000000000000, 0.000000000000000000, 0.000000000000000000 ) ) ;
#147 = DIRECTION ( 'NONE',  ( -0.000000000000000000, -0.000000000000000000, -1.000000000000000000 ) ) ;
#148 = PRODUCT_DEFINITION ( 'NEZNÁMÝ', '', #35, #227 ) ;
#149 = AXIS2_PLACEMENT_3D ( 'NONE', #186, #46, #370 ) ;
#150 = DIRECTION ( 'NONE',  ( -0.000000000000000000, -0.000000000000000000, -1.000000000000000000 ) ) ;
#151 = AXIS2_PLACEMENT_3D ( 'NONE', #16, #222, #251 ) ;
#152 = CARTESIAN_POINT ( 'NONE',  ( 0.000000000000000000, 0.000000000000000000, 303.0000000000000000 ) ) ;
#153 = ADVANCED_FACE ( 'NONE', ( #59 ), #272, .T. ) ;
#154 = CARTESIAN_POINT ( 'NONE',  ( 0.000000000000000000, 0.000000000000000000, 0.000000000000000000 ) ) ;
#155 = EDGE_LOOP ( 'NONE', ( #137, #128, #306, #232 ) ) ;
#156 = DIRECTION ( 'NONE',  ( -0.000000000000000000, -0.000000000000000000, -1.000000000000000000 ) ) ;
#157 = AXIS2_PLACEMENT_3D ( 'NONE', #331, #118, #179 ) ;
#158 = FACE_BOUND ( 'NONE', #89, .T. ) ;
#159 = EDGE_CURVE ( 'NONE', #225, #308, #102, .T. ) ;
#160 = PRODUCT_DEFINITION_SHAPE ( 'NONE', 'NONE',  #148 ) ;
#161 = CARTESIAN_POINT ( 'NONE',  ( -5.000000000000000000, 0.000000000000000000, 3.000000000000000000 ) ) ;
#162 = FACE_OUTER_BOUND ( 'NONE', #155, .T. ) ;
#163 = VERTEX_POINT ( 'NONE', #191 ) ;
#164 = AXIS2_PLACEMENT_3D ( 'NONE', #352, #87, #262 ) ;
#165 = CC_DESIGN_SECURITY_CLASSIFICATION ( #180, ( #35 ) ) ;
#166 = PERSON_AND_ORGANIZATION ( #12, #295 ) ;
#167 = DIRECTION ( 'NONE',  ( 0.000000000000000000, 0.000000000000000000, 1.000000000000000000 ) ) ;
#168 = ORIENTED_EDGE ( 'NONE', *, *, #56, .F. ) ;
#169 = ORIENTED_EDGE ( 'NONE', *, *, #43, .F. ) ;
#170 = ADVANCED_FACE ( 'NONE', ( #300 ), #70, .F. ) ;
#171 = CC_DESIGN_PERSON_AND_ORGANIZATION_ASSIGNMENT ( #290, #53, ( #148 ) ) ;
#172 = PERSON_AND_ORGANIZATION_ROLE ( 'classification_officer' ) ;
#173 = CIRCLE ( 'NONE', #275, 1.250000000000000000 ) ;
#174 = LOCAL_TIME ( 17, 47, 14.00000000000000000, #329 ) ;
#175 = DIRECTION ( 'NONE',  ( 1.000000000000000000, 0.000000000000000000, -0.000000000000000000 ) ) ;
#176 = DIRECTION ( 'NONE',  ( -0.000000000000000000, -0.000000000000000000, -1.000000000000000000 ) ) ;
#177 = LINE ( 'NONE', #38, #268 ) ;
#178 = AXIS2_PLACEMENT_3D ( 'NONE', #364, #276, #101 ) ;
#179 = DIRECTION ( 'NONE',  ( -1.000000000000000000, 0.000000000000000000, 0.000000000000000000 ) ) ;
#180 = SECURITY_CLASSIFICATION ( '', '', #379 ) ;
#181 = ORIENTED_EDGE ( 'NONE', *, *, #120, .F. ) ;
#182 = EDGE_CURVE ( 'NONE', #250, #100, #39, .T. ) ;
#183 = PLANE ( 'NONE',  #297 ) ;
#184 = ORIENTED_EDGE ( 'NONE', *, *, #230, .T. ) ;
#185 = DIRECTION ( 'NONE',  ( 1.000000000000000000, 0.000000000000000000, 0.000000000000000000 ) ) ;
#186 = CARTESIAN_POINT ( 'NONE',  ( 0.000000000000000000, 0.000000000000000000, 0.000000000000000000 ) ) ;
#187 = ADVANCED_FACE ( 'NONE', ( #158, #41 ), #183, .F. ) ;
#188 = AXIS2_PLACEMENT_3D ( 'NONE', #333, #131, #313 ) ;
#189 = ORIENTED_EDGE ( 'NONE', *, *, #182, .T. ) ;
#190 = DIRECTION ( 'NONE',  ( 0.000000000000000000, 0.000000000000000000, 1.000000000000000000 ) ) ;
#191 = CARTESIAN_POINT ( 'NONE',  ( -1.250000000000000000, 0.000000000000000000, 303.0000000000000000 ) ) ;
#192 = ORIENTED_EDGE ( 'NONE', *, *, #218, .T. ) ;
#193 = APPROVAL_DATE_TIME ( #31, #259 ) ;
#194 = CLOSED_SHELL ( 'NONE', ( #321, #80, #130, #153, #202, #254, #187, #104, #142, #7, #170 ) ) ;
#195 = TOROIDAL_SURFACE ( 'NONE', #164, 2.799999999999999822, 0.2999999999999999889 ) ;
#196 = AXIS2_PLACEMENT_3D ( 'NONE', #26, #233, #134 ) ;
#197 = DATE_TIME_ROLE ( 'classification_date' ) ;
#198 = ORIENTED_EDGE ( 'NONE', *, *, #24, .F. ) ;
#199 = CALENDAR_DATE ( 2022, 8, 7 ) ;
#200 = COORDINATED_UNIVERSAL_TIME_OFFSET ( 1, 0, .AHEAD. ) ;
#201 = CC_DESIGN_DATE_AND_TIME_ASSIGNMENT ( #107, #197, ( #180 ) ) ;
#202 = ADVANCED_FACE ( 'NONE', ( #307 ), #273, .T. ) ;
#203 = AXIS2_PLACEMENT_3D ( 'NONE', #18, #336, #103 ) ;
#204 = APPROVAL_ROLE ( '' ) ;
#205 = CARTESIAN_POINT ( 'NONE',  ( 2.500000000000000000, 3.061616997868383141E-16, 303.0000000000000000 ) ) ;
#206 = CARTESIAN_POINT ( 'NONE',  ( 0.000000000000000000, 0.000000000000000000, 3.000000000000000000 ) ) ;
#207 = DATE_AND_TIME ( #356, #174 ) ;
#208 = DIRECTION ( 'NONE',  ( 0.000000000000000000, 0.000000000000000000, 1.000000000000000000 ) ) ;
#209 = CIRCLE ( 'NONE', #45, 2.799999999999999822 ) ;
#210 = LINE ( 'NONE', #211, #317 ) ;
#211 = CARTESIAN_POINT ( 'NONE',  ( -2.500000000000000000, 0.000000000000000000, 303.0000000000000000 ) ) ;
#212 = DIRECTION ( 'NONE',  ( 0.000000000000000000, 0.000000000000000000, 1.000000000000000000 ) ) ;
#213 = EDGE_CURVE ( 'NONE', #217, #228, #353, .T. ) ;
#214 = VECTOR ( 'NONE', #376, 1000.000000000000000 ) ;
#215 = CARTESIAN_POINT ( 'NONE',  ( 2.799999999999999822, 0.000000000000000000, 3.000000000000012434 ) ) ;
#216 = CARTESIAN_POINT ( 'NONE',  ( -2.500000000000000000, 0.000000000000000000, 3.300000000000025135 ) ) ;
#217 = VERTEX_POINT ( 'NONE', #215 ) ;
#218 = EDGE_CURVE ( 'NONE', #283, #228, #75, .T. ) ;
#219 = DIRECTION ( 'NONE',  ( 0.000000000000000000, 0.000000000000000000, -1.000000000000000000 ) ) ;
#220 = ORIENTED_EDGE ( 'NONE', *, *, #218, .F. ) ;
#221 = PRODUCT ( '3c23', '3c23', '', ( #83 ) ) ;
#222 = DIRECTION ( 'NONE',  ( 0.000000000000000000, 0.000000000000000000, 1.000000000000000000 ) ) ;
#223 = AXIS2_PLACEMENT_3D ( 'NONE', #122, #119, #93 ) ;
#224 = DIRECTION ( 'NONE',  ( 1.000000000000000000, 0.000000000000000000, -0.000000000000000000 ) ) ;
#225 = VERTEX_POINT ( 'NONE', #243 ) ;
#226 = DATE_TIME_ROLE ( 'creation_date' ) ;
#227 = DESIGN_CONTEXT ( 'detailed design', #6, 'design' ) ;
#228 = VERTEX_POINT ( 'NONE', #124 ) ;
#229 = APPLICATION_CONTEXT ( 'configuration controlled 3d designs of mechanical parts and assemblies' ) ;
#230 = EDGE_CURVE ( 'NONE', #277, #140, #4, .T. ) ;
#231 = PERSON_AND_ORGANIZATION ( #12, #295 ) ;
#232 = ORIENTED_EDGE ( 'NONE', *, *, #334, .F. ) ;
#233 = DIRECTION ( 'NONE',  ( 0.000000000000000000, -1.000000000000000000, 0.000000000000000000 ) ) ;
#234 = PERSON_AND_ORGANIZATION ( #12, #295 ) ;
#235 = VERTEX_POINT ( 'NONE', #278 ) ;
#236 = CARTESIAN_POINT ( 'NONE',  ( 0.000000000000000000, 0.000000000000000000, 3.300000000000025135 ) ) ;
#237 = CARTESIAN_POINT ( 'NONE',  ( 2.500000000000000000, 3.061616997868383141E-16, 3.300000000000025135 ) ) ;
#238 = AXIS2_PLACEMENT_3D ( 'NONE', #33, #37, #357 ) ;
#239 = VECTOR ( 'NONE', #219, 1000.000000000000000 ) ;
#240 = DIRECTION ( 'NONE',  ( -0.000000000000000000, -0.000000000000000000, -1.000000000000000000 ) ) ;
#241 = DIRECTION ( 'NONE',  ( 0.000000000000000000, 0.000000000000000000, 1.000000000000000000 ) ) ;
#242 = CC_DESIGN_PERSON_AND_ORGANIZATION_ASSIGNMENT ( #106, #82, ( #221 ) ) ;
#243 = CARTESIAN_POINT ( 'NONE',  ( 1.250000000000000000, 1.530808498934191571E-16, 0.000000000000000000 ) ) ;
#244 = CIRCLE ( 'NONE', #11, 1.250000000000000000 ) ;
#245 = FACE_OUTER_BOUND ( 'NONE', #274, .T. ) ;
#246 = EDGE_LOOP ( 'NONE', ( #341, #181 ) ) ;
#247 = LINE ( 'NONE', #368, #239 ) ;
#248 = ORIENTED_EDGE ( 'NONE', *, *, #213, .F. ) ;
#249 = PLANE ( 'NONE',  #151 ) ;
#250 = VERTEX_POINT ( 'NONE', #68 ) ;
#251 = DIRECTION ( 'NONE',  ( 1.000000000000000000, 0.000000000000000000, -0.000000000000000000 ) ) ;
#252 = ORIENTED_EDGE ( 'NONE', *, *, #230, .F. ) ;
#253 = CARTESIAN_POINT ( 'NONE',  ( 0.000000000000000000, 0.000000000000000000, 0.000000000000000000 ) ) ;
#254 = ADVANCED_FACE ( 'NONE', ( #9, #245 ), #249, .T. ) ;
#255 = CALENDAR_DATE ( 2022, 8, 7 ) ;
#256 = APPLICATION_PROTOCOL_DEFINITION ( 'international standard', 'config_control_design', 1994, #6 ) ;
#257 = CARTESIAN_POINT ( 'NONE',  ( 1.250000000000000000, 1.530808498934191571E-16, 303.0000000000000000 ) ) ;
#258 = AXIS2_PLACEMENT_3D ( 'NONE', #67, #241, #267 ) ;
#259 = APPROVAL ( #373, 'NEURÈENÝ' ) ;
#260 = FACE_OUTER_BOUND ( 'NONE', #314, .T. ) ;
#261 = DATE_AND_TIME ( #57, #318 ) ;
#262 = DIRECTION ( 'NONE',  ( 1.000000000000000000, 0.000000000000000000, 0.000000000000000000 ) ) ;
#263 = ORIENTED_EDGE ( 'NONE', *, *, #66, .F. ) ;
#264 = AXIS2_PLACEMENT_3D ( 'NONE', #236, #362, #355 ) ;
#265 = AXIS2_PLACEMENT_3D ( 'NONE', #281, #127, #123 ) ;
#266 = FACE_OUTER_BOUND ( 'NONE', #378, .T. ) ;
#267 = DIRECTION ( 'NONE',  ( 1.000000000000000000, 0.000000000000000000, 0.000000000000000000 ) ) ;
#268 = VECTOR ( 'NONE', #150, 1000.000000000000000 ) ;
#269 = CC_DESIGN_PERSON_AND_ORGANIZATION_ASSIGNMENT ( #319, #172, ( #180 ) ) ;
#270 = SHAPE_DEFINITION_REPRESENTATION ( #160, #117 ) ;
#271 = FACE_OUTER_BOUND ( 'NONE', #79, .T. ) ;
#272 = CYLINDRICAL_SURFACE ( 'NONE', #74, 5.000000000000000000 ) ;
#273 = CYLINDRICAL_SURFACE ( 'NONE', #178, 5.000000000000000000 ) ;
#274 = EDGE_LOOP ( 'NONE', ( #54, #351 ) ) ;
#275 = AXIS2_PLACEMENT_3D ( 'NONE', #312, #167, #287 ) ;
#276 = DIRECTION ( 'NONE',  ( -0.000000000000000000, -0.000000000000000000, -1.000000000000000000 ) ) ;
#277 = VERTEX_POINT ( 'NONE', #366 ) ;
#278 = CARTESIAN_POINT ( 'NONE',  ( 5.000000000000000000, 6.123233995736766282E-16, 3.000000000000000000 ) ) ;
#279 = DIRECTION ( 'NONE',  ( 0.000000000000000000, 0.000000000000000000, 1.000000000000000000 ) ) ;
#280 = ORIENTED_EDGE ( 'NONE', *, *, #81, .F. ) ;
#281 = CARTESIAN_POINT ( 'NONE',  ( -2.799999999999999822, 3.429011037612588783E-16, 3.300000000000025135 ) ) ;
#282 = AXIS2_PLACEMENT_3D ( 'NONE', #48, #14, #126 ) ;
#283 = VERTEX_POINT ( 'NONE', #216 ) ;
#284 = PERSON_AND_ORGANIZATION ( #12, #295 ) ;
#285 = ORIENTED_EDGE ( 'NONE', *, *, #309, .T. ) ;
#286 = APPLICATION_PROTOCOL_DEFINITION ( 'international standard', 'config_control_design', 1994, #229 ) ;
#287 = DIRECTION ( 'NONE',  ( 1.000000000000000000, 0.000000000000000000, 0.000000000000000000 ) ) ;
#288 = EDGE_CURVE ( 'NONE', #235, #345, #110, .T. ) ;
#289 = APPROVAL_PERSON_ORGANIZATION ( #88, #85, #86 ) ;
#290 = PERSON_AND_ORGANIZATION ( #12, #295 ) ;
#291 = ORIENTED_EDGE ( 'NONE', *, *, #327, .F. ) ;
#292 = ORIENTED_EDGE ( 'NONE', *, *, #358, .F. ) ;
#293 = DIRECTION ( 'NONE',  ( -1.000000000000000000, 0.000000000000000000, 0.000000000000000000 ) ) ;
#294 = AXIS2_PLACEMENT_3D ( 'NONE', #3, #8, #95 ) ;
#295 = ORGANIZATION ( 'NEURÈENÝ', 'NEURÈENÝ', '' ) ;
#296 = FACE_BOUND ( 'NONE', #132, .T. ) ;
#297 = AXIS2_PLACEMENT_3D ( 'NONE', #154, #190, #224 ) ;
#298 = AXIS2_PLACEMENT_3D ( 'NONE', #371, #279, #335 ) ;
#299 = DIRECTION ( 'NONE',  ( 1.000000000000000000, 0.000000000000000000, 0.000000000000000000 ) ) ;
#300 = FACE_OUTER_BOUND ( 'NONE', #337, .T. ) ;
#301 = CARTESIAN_POINT ( 'NONE',  ( -1.250000000000000000, 0.000000000000000000, 0.000000000000000000 ) ) ;
#302 = ORIENTED_EDGE ( 'NONE', *, *, #66, .T. ) ;
#303 = AXIS2_PLACEMENT_3D ( 'NONE', #152, #62, #175 ) ;
#304 =( GEOMETRIC_REPRESENTATION_CONTEXT ( 3 ) GLOBAL_UNCERTAINTY_ASSIGNED_CONTEXT ( ( #135 ) ) GLOBAL_UNIT_ASSIGNED_CONTEXT ( ( #55, #138, #115 ) ) REPRESENTATION_CONTEXT ( 'NONE', 'WORKASPACE' ) );
#305 = DIRECTION ( 'NONE',  ( 0.000000000000000000, 0.000000000000000000, -1.000000000000000000 ) ) ;
#306 = ORIENTED_EDGE ( 'NONE', *, *, #159, .T. ) ;
#307 = FACE_OUTER_BOUND ( 'NONE', #71, .T. ) ;
#308 = VERTEX_POINT ( 'NONE', #301 ) ;
#309 = EDGE_CURVE ( 'NONE', #345, #250, #310, .T. ) ;
#310 = LINE ( 'NONE', #42, #326 ) ;
#311 = AXIS2_PLACEMENT_3D ( 'NONE', #253, #111, #344 ) ;
#312 = CARTESIAN_POINT ( 'NONE',  ( 0.000000000000000000, 0.000000000000000000, 303.0000000000000000 ) ) ;
#313 = DIRECTION ( 'NONE',  ( 1.000000000000000000, 0.000000000000000000, 0.000000000000000000 ) ) ;
#314 = EDGE_LOOP ( 'NONE', ( #220, #263, #320, #84 ) ) ;
#315 = APPROVAL_STATUS ( 'not_yet_approved' ) ;
#316 = ORIENTED_EDGE ( 'NONE', *, *, #141, .T. ) ;
#317 = VECTOR ( 'NONE', #64, 1000.000000000000000 ) ;
#318 = LOCAL_TIME ( 17, 47, 14.00000000000000000, #200 ) ;
#319 = PERSON_AND_ORGANIZATION ( #12, #295 ) ;
#320 = ORIENTED_EDGE ( 'NONE', *, *, #380, .T. ) ;
#321 = ADVANCED_FACE ( 'NONE', ( #162 ), #339, .F. ) ;
#322 = PLANE ( 'NONE',  #303 ) ;
#323 = APPROVAL_DATE_TIME ( #207, #129 ) ;
#324 = CARTESIAN_POINT ( 'NONE',  ( 2.500000000000000000, 3.061616997868383141E-16, 303.0000000000000000 ) ) ;
#325 = AXIS2_PLACEMENT_3D ( 'NONE', #146, #212, #96 ) ;
#326 = VECTOR ( 'NONE', #156, 1000.000000000000000 ) ;
#327 = EDGE_CURVE ( 'NONE', #114, #163, #365, .T. ) ;
#328 = FACE_OUTER_BOUND ( 'NONE', #348, .T. ) ;
#329 = COORDINATED_UNIVERSAL_TIME_OFFSET ( 1, 0, .AHEAD. ) ;
#330 = MANIFOLD_SOLID_BREP ( 'Odebrat vysunutím3', #194 ) ;
#331 = CARTESIAN_POINT ( 'NONE',  ( 0.000000000000000000, 0.000000000000000000, 303.0000000000000000 ) ) ;
#332 = LOCAL_TIME ( 17, 47, 14.00000000000000000, #136 ) ;
#333 = CARTESIAN_POINT ( 'NONE',  ( 0.000000000000000000, 0.000000000000000000, 3.300000000000025135 ) ) ;
#334 = EDGE_CURVE ( 'NONE', #163, #308, #247, .T. ) ;
#335 = DIRECTION ( 'NONE',  ( 1.000000000000000000, 0.000000000000000000, 0.000000000000000000 ) ) ;
#336 = DIRECTION ( 'NONE',  ( 0.000000000000000000, 0.000000000000000000, -1.000000000000000000 ) ) ;
#337 = EDGE_LOOP ( 'NONE', ( #169, #112, #369, #73 ) ) ;
#338 = CC_DESIGN_APPROVAL ( #259, ( #35 ) ) ;
#339 = CYLINDRICAL_SURFACE ( 'NONE', #52, 1.250000000000000000 ) ;
#340 = CC_DESIGN_PERSON_AND_ORGANIZATION_ASSIGNMENT ( #284, #23, ( #35 ) ) ;
#341 = ORIENTED_EDGE ( 'NONE', *, *, #182, .F. ) ;
#342 = CARTESIAN_POINT ( 'NONE',  ( 0.000000000000000000, 0.000000000000000000, 303.0000000000000000 ) ) ;
#343 = ORIENTED_EDGE ( 'NONE', *, *, #105, .T. ) ;
#344 = DIRECTION ( 'NONE',  ( 1.000000000000000000, 0.000000000000000000, 0.000000000000000000 ) ) ;
#345 = VERTEX_POINT ( 'NONE', #161 ) ;
#346 = APPROVAL_STATUS ( 'not_yet_approved' ) ;
#347 = APPROVAL_PERSON_ORGANIZATION ( #231, #129, #60 ) ;
#348 = EDGE_LOOP ( 'NONE', ( #108, #17, #302, #280 ) ) ;
#349 = ORIENTED_EDGE ( 'NONE', *, *, #94, .F. ) ;
#350 = COORDINATED_UNIVERSAL_TIME_OFFSET ( 1, 0, .AHEAD. ) ;
#351 = ORIENTED_EDGE ( 'NONE', *, *, #288, .T. ) ;
#352 = CARTESIAN_POINT ( 'NONE',  ( 0.000000000000000000, 0.000000000000000000, 3.300000000000025135 ) ) ;
#353 = CIRCLE ( 'NONE', #20, 2.799999999999999822 ) ;
#354 = LOCAL_TIME ( 17, 47, 14.00000000000000000, #350 ) ;
#355 = DIRECTION ( 'NONE',  ( 1.000000000000000000, 0.000000000000000000, 0.000000000000000000 ) ) ;
#356 = CALENDAR_DATE ( 2022, 8, 7 ) ;
#357 = DIRECTION ( 'NONE',  ( 1.000000000000000000, 0.000000000000000000, 0.000000000000000000 ) ) ;
#358 = EDGE_CURVE ( 'NONE', #283, #58, #125, .T. ) ;
#359 = CARTESIAN_POINT ( 'NONE',  ( 0.000000000000000000, 0.000000000000000000, 3.300000000000025135 ) ) ;
#360 = CIRCLE ( 'NONE', #325, 5.000000000000000000 ) ;
#361 = EDGE_LOOP ( 'NONE', ( #184, #343 ) ) ;
#362 = DIRECTION ( 'NONE',  ( 0.000000000000000000, 0.000000000000000000, 1.000000000000000000 ) ) ;
#363 = CARTESIAN_POINT ( 'NONE',  ( 1.250000000000000000, 1.530808498934191571E-16, 303.0000000000000000 ) ) ;
#364 = CARTESIAN_POINT ( 'NONE',  ( 0.000000000000000000, 0.000000000000000000, 3.000000000000000000 ) ) ;
#365 = CIRCLE ( 'NONE', #282, 1.250000000000000000 ) ;
#366 = CARTESIAN_POINT ( 'NONE',  ( -2.500000000000000000, 0.000000000000000000, 303.0000000000000000 ) ) ;
#367 = ORIENTED_EDGE ( 'NONE', *, *, #288, .F. ) ;
#368 = CARTESIAN_POINT ( 'NONE',  ( -1.250000000000000000, 0.000000000000000000, 303.0000000000000000 ) ) ;
#369 = ORIENTED_EDGE ( 'NONE', *, *, #334, .T. ) ;
#370 = DIRECTION ( 'NONE',  ( 1.000000000000000000, 0.000000000000000000, 0.000000000000000000 ) ) ;
#371 = CARTESIAN_POINT ( 'NONE',  ( 0.000000000000000000, 0.000000000000000000, 3.000000000000000000 ) ) ;
#372 = ORIENTED_EDGE ( 'NONE', *, *, #358, .T. ) ;
#373 = APPROVAL_STATUS ( 'not_yet_approved' ) ;
#374 = EDGE_LOOP ( 'NONE', ( #32, #316 ) ) ;
#375 = PERSON_AND_ORGANIZATION_ROLE ( 'creator' ) ;
#376 = DIRECTION ( 'NONE',  ( 0.000000000000000000, 0.000000000000000000, -1.000000000000000000 ) ) ;
#377 = COORDINATED_UNIVERSAL_TIME_OFFSET ( 1, 0, .AHEAD. ) ;
#378 = EDGE_LOOP ( 'NONE', ( #292, #192, #248, #143 ) ) ;
#379 = SECURITY_CLASSIFICATION_LEVEL ( 'unclassified' ) ;
#380 = EDGE_CURVE ( 'NONE', #58, #217, #34, .T. ) ;
#381 = CARTESIAN_POINT ( 'NONE',  ( 0.000000000000000000, 0.000000000000000000, 0.000000000000000000 ) ) ;
ENDSEC;
END-ISO-10303-21;
