ISO-10303-21;
HEADER;
FILE_DESCRIPTION (( 'STEP AP203' ),
    '1' );
FILE_NAME ('19df.STEP',
    '2022-07-08T15:26:07',
    ( '' ),
    ( '' ),
    'SwSTEP 2.0',
    'SolidWorks 2019',
    '' );
FILE_SCHEMA (( 'CONFIG_CONTROL_DESIGN' ));
ENDSEC;

DATA;
#1 = EDGE_LOOP ( 'NONE', ( #87, #352 ) ) ;
#2 =( GEOMETRIC_REPRESENTATION_CONTEXT ( 3 ) GLOBAL_UNCERTAINTY_ASSIGNED_CONTEXT ( ( #97 ) ) GLOBAL_UNIT_ASSIGNED_CONTEXT ( ( #337, #141, #165 ) ) REPRESENTATION_CONTEXT ( 'NONE', 'WORKASPACE' ) );
#3 = ADVANCED_FACE ( 'NONE', ( #315 ), #346, .T. ) ;
#4 = CARTESIAN_POINT ( 'NONE',  ( -7.000000000000000000, 0.000000000000000000, 5.000000000000000000 ) ) ;
#5 = CARTESIAN_POINT ( 'NONE',  ( -4.500000000000000888, 5.510910596163089556E-16, 5.499999999999949374 ) ) ;
#6 = LOCAL_TIME ( 17, 26, 7.000000000000000000, #286 ) ;
#7 = ADVANCED_FACE ( 'NONE', ( #362, #262 ), #374, .T. ) ;
#8 = CARTESIAN_POINT ( 'NONE',  ( 0.000000000000000000, 0.000000000000000000, 605.0000000000000000 ) ) ;
#9 = CARTESIAN_POINT ( 'NONE',  ( 0.000000000000000000, 0.000000000000000000, 605.0000000000000000 ) ) ;
#10 = CARTESIAN_POINT ( 'NONE',  ( -2.100000000000000089, 0.000000000000000000, 0.000000000000000000 ) ) ;
#11 = DIRECTION ( 'NONE',  ( 0.000000000000000000, 0.000000000000000000, 1.000000000000000000 ) ) ;
#12 = AXIS2_PLACEMENT_3D ( 'NONE', #110, #232, #274 ) ;
#13 = PERSON_AND_ORGANIZATION_ROLE ( 'design_owner' ) ;
#14 = DIRECTION ( 'NONE',  ( 1.000000000000000000, 0.000000000000000000, 0.000000000000000000 ) ) ;
#15 = DATE_AND_TIME ( #52, #261 ) ;
#16 = DIRECTION ( 'NONE',  ( 0.000000000000000000, 0.000000000000000000, 1.000000000000000000 ) ) ;
#17 = FACE_OUTER_BOUND ( 'NONE', #269, .T. ) ;
#18 = APPROVAL_DATE_TIME ( #107, #111 ) ;
#19 = ORIENTED_EDGE ( 'NONE', *, *, #178, .T. ) ;
#20 = CARTESIAN_POINT ( 'NONE',  ( 0.000000000000000000, 0.000000000000000000, 0.000000000000000000 ) ) ;
#21 = AXIS2_PLACEMENT_3D ( 'NONE', #9, #302, #299 ) ;
#22 = DATE_AND_TIME ( #176, #24 ) ;
#23 = AXIS2_PLACEMENT_3D ( 'NONE', #202, #109, #314 ) ;
#24 = LOCAL_TIME ( 17, 26, 7.000000000000000000, #173 ) ;
#25 = ORIENTED_EDGE ( 'NONE', *, *, #102, .T. ) ;
#26 = DIRECTION ( 'NONE',  ( 1.000000000000000000, 0.000000000000000000, 0.000000000000000000 ) ) ;
#27 = ADVANCED_FACE ( 'NONE', ( #367, #54 ), #115, .T. ) ;
#28 = DATE_TIME_ROLE ( 'classification_date' ) ;
#29 = EDGE_LOOP ( 'NONE', ( #114, #239, #62, #85 ) ) ;
#30 = EDGE_LOOP ( 'NONE', ( #122, #379, #350, #199 ) ) ;
#31 = APPLICATION_CONTEXT ( 'configuration controlled 3d designs of mechanical parts and assemblies' ) ;
#32 = EDGE_CURVE ( 'NONE', #236, #116, #287, .T. ) ;
#33 = ORIENTED_EDGE ( 'NONE', *, *, #246, .T. ) ;
#34 = CC_DESIGN_APPROVAL ( #292, ( #242 ) ) ;
#35 = EDGE_LOOP ( 'NONE', ( #121, #89, #90, #180 ) ) ;
#36 = EDGE_CURVE ( 'NONE', #151, #136, #51, .T. ) ;
#37 = CARTESIAN_POINT ( 'NONE',  ( 0.000000000000000000, 0.000000000000000000, 0.000000000000000000 ) ) ;
#38 = CYLINDRICAL_SURFACE ( 'NONE', #23, 7.000000000000000000 ) ;
#39 = EDGE_CURVE ( 'NONE', #136, #237, #191, .T. ) ;
#40 = DIRECTION ( 'NONE',  ( 0.000000000000000000, 0.000000000000000000, 1.000000000000000000 ) ) ;
#41 = CIRCLE ( 'NONE', #260, 4.000000000000000000 ) ;
#42 = DIRECTION ( 'NONE',  ( 0.000000000000000000, 0.000000000000000000, 1.000000000000000000 ) ) ;
#43 = DIRECTION ( 'NONE',  ( 0.000000000000000000, -1.000000000000000000, 0.000000000000000000 ) ) ;
#44 = PLANE ( 'NONE',  #372 ) ;
#45 = DIRECTION ( 'NONE',  ( -0.000000000000000000, -0.000000000000000000, -1.000000000000000000 ) ) ;
#46 = DIRECTION ( 'NONE',  ( 0.000000000000000000, 0.000000000000000000, -1.000000000000000000 ) ) ;
#47 = AXIS2_PLACEMENT_3D ( 'NONE', #101, #256, #370 ) ;
#48 = EDGE_CURVE ( 'NONE', #363, #376, #185, .T. ) ;
#49 = APPROVAL_STATUS ( 'not_yet_approved' ) ;
#50 = DIRECTION ( 'NONE',  ( 0.000000000000000000, 0.000000000000000000, -1.000000000000000000 ) ) ;
#51 = LINE ( 'NONE', #76, #112 ) ;
#52 = CALENDAR_DATE ( 2022, 8, 7 ) ;
#53 = DIRECTION ( 'NONE',  ( -1.000000000000000000, 0.000000000000000000, 0.000000000000000000 ) ) ;
#54 = FACE_OUTER_BOUND ( 'NONE', #306, .T. ) ;
#55 = APPROVAL_ROLE ( '' ) ;
#56 = ADVANCED_FACE ( 'NONE', ( #17 ), #133, .F. ) ;
#57 = CARTESIAN_POINT ( 'NONE',  ( -4.500000000000000888, 5.510910596163088569E-16, 4.999999999999975131 ) ) ;
#58 = AXIS2_PLACEMENT_3D ( 'NONE', #37, #335, #134 ) ;
#59 = CALENDAR_DATE ( 2022, 8, 7 ) ;
#60 = EDGE_LOOP ( 'NONE', ( #323, #33, #154, #353 ) ) ;
#61 = VERTEX_POINT ( 'NONE', #224 ) ;
#62 = ORIENTED_EDGE ( 'NONE', *, *, #120, .T. ) ;
#63 = CIRCLE ( 'NONE', #214, 2.100000000000000089 ) ;
#64 = VERTEX_POINT ( 'NONE', #305 ) ;
#65 = CC_DESIGN_PERSON_AND_ORGANIZATION_ASSIGNMENT ( #280, #13, ( #264 ) ) ;
#66 = CIRCLE ( 'NONE', #99, 2.100000000000000089 ) ;
#67 = CARTESIAN_POINT ( 'NONE',  ( 0.000000000000000000, 0.000000000000000000, 5.000000000000000000 ) ) ;
#68 = MANIFOLD_SOLID_BREP ( 'Odebrat vysunutím3', #208 ) ;
#69 = FACE_OUTER_BOUND ( 'NONE', #29, .T. ) ;
#70 = CC_DESIGN_PERSON_AND_ORGANIZATION_ASSIGNMENT ( #113, #82, ( #242 ) ) ;
#71 = DIRECTION ( 'NONE',  ( 1.224646799147353207E-16, 1.000000000000000000, -0.000000000000000000 ) ) ;
#72 = AXIS2_PLACEMENT_3D ( 'NONE', #142, #46, #170 ) ;
#73 = LINE ( 'NONE', #4, #279 ) ;
#74 = LOCAL_TIME ( 17, 26, 7.000000000000000000, #289 ) ;
#75 = DIRECTION ( 'NONE',  ( 0.000000000000000000, 0.000000000000000000, 1.000000000000000000 ) ) ;
#76 = CARTESIAN_POINT ( 'NONE',  ( -4.000000000000000000, 0.000000000000000000, 605.0000000000000000 ) ) ;
#77 = FACE_OUTER_BOUND ( 'NONE', #263, .T. ) ;
#78 = DIRECTION ( 'NONE',  ( 1.000000000000000000, 0.000000000000000000, -0.000000000000000000 ) ) ;
#79 = AXIS2_PLACEMENT_3D ( 'NONE', #20, #145, #235 ) ;
#80 = CARTESIAN_POINT ( 'NONE',  ( 4.000000000000000000, 4.898587196589412829E-16, 605.0000000000000000 ) ) ;
#81 = CARTESIAN_POINT ( 'NONE',  ( 0.000000000000000000, 0.000000000000000000, 5.000000000000000000 ) ) ;
#82 = PERSON_AND_ORGANIZATION_ROLE ( 'design_supplier' ) ;
#83 = EDGE_CURVE ( 'NONE', #319, #240, #152, .T. ) ;
#84 = DIRECTION ( 'NONE',  ( 1.000000000000000000, 0.000000000000000000, 0.000000000000000000 ) ) ;
#85 = ORIENTED_EDGE ( 'NONE', *, *, #36, .F. ) ;
#86 = CIRCLE ( 'NONE', #58, 7.000000000000000000 ) ;
#87 = ORIENTED_EDGE ( 'NONE', *, *, #273, .F. ) ;
#88 = PERSON ( 'NEURÈENÝ', 'NEURÈENÝ', 'NEURÈENÝ', ('NEURÈENÝ'), ('NEURÈENÝ'), ('NEURÈENÝ') ) ;
#89 = ORIENTED_EDGE ( 'NONE', *, *, #188, .T. ) ;
#90 = ORIENTED_EDGE ( 'NONE', *, *, #322, .F. ) ;
#91 = VECTOR ( 'NONE', #103, 1000.000000000000000 ) ;
#92 = ADVANCED_FACE ( 'NONE', ( #135, #252 ), #44, .F. ) ;
#93 = CIRCLE ( 'NONE', #271, 0.5000000000000004441 ) ;
#94 = ADVANCED_FACE ( 'NONE', ( #77 ), #198, .F. ) ;
#95 = DIRECTION ( 'NONE',  ( 0.000000000000000000, 0.000000000000000000, 1.000000000000000000 ) ) ;
#96 = CARTESIAN_POINT ( 'NONE',  ( -4.000000000000000000, 0.000000000000000000, 605.0000000000000000 ) ) ;
#97 = UNCERTAINTY_MEASURE_WITH_UNIT (LENGTH_MEASURE( 1.000000000000000082E-05 ), #337, 'distance_accuracy_value', 'NONE');
#98 = DIRECTION ( 'NONE',  ( -1.000000000000000000, 0.000000000000000000, 0.000000000000000000 ) ) ;
#99 = AXIS2_PLACEMENT_3D ( 'NONE', #166, #281, #14 ) ;
#100 = DIRECTION ( 'NONE',  ( -0.000000000000000000, -0.000000000000000000, -1.000000000000000000 ) ) ;
#101 = CARTESIAN_POINT ( 'NONE',  ( 0.000000000000000000, 0.000000000000000000, 605.0000000000000000 ) ) ;
#102 = EDGE_CURVE ( 'NONE', #61, #270, #66, .T. ) ;
#103 = DIRECTION ( 'NONE',  ( -0.000000000000000000, -0.000000000000000000, -1.000000000000000000 ) ) ;
#104 = DIRECTION ( 'NONE',  ( 0.000000000000000000, 0.000000000000000000, 1.000000000000000000 ) ) ;
#105 = APPROVAL_ROLE ( '' ) ;
#106 = DIRECTION ( 'NONE',  ( 1.000000000000000000, 0.000000000000000000, 0.000000000000000000 ) ) ;
#107 = DATE_AND_TIME ( #201, #127 ) ;
#108 = ORIENTED_EDGE ( 'NONE', *, *, #219, .T. ) ;
#109 = DIRECTION ( 'NONE',  ( -0.000000000000000000, -0.000000000000000000, -1.000000000000000000 ) ) ;
#110 = CARTESIAN_POINT ( 'NONE',  ( 0.000000000000000000, 0.000000000000000000, 5.499999999999949374 ) ) ;
#111 = APPROVAL ( #366, 'NEURÈENÝ' ) ;
#112 = VECTOR ( 'NONE', #283, 1000.000000000000000 ) ;
#113 = PERSON_AND_ORGANIZATION ( #88, #221 ) ;
#114 = ORIENTED_EDGE ( 'NONE', *, *, #155, .F. ) ;
#115 = PLANE ( 'NONE',  #47 ) ;
#116 = VERTEX_POINT ( 'NONE', #258 ) ;
#117 = ORIENTED_EDGE ( 'NONE', *, *, #131, .F. ) ;
#118 = EDGE_LOOP ( 'NONE', ( #213, #19 ) ) ;
#119 = CIRCLE ( 'NONE', #275, 7.000000000000000000 ) ;
#120 = EDGE_CURVE ( 'NONE', #237, #136, #328, .T. ) ;
#121 = ORIENTED_EDGE ( 'NONE', *, *, #39, .F. ) ;
#122 = ORIENTED_EDGE ( 'NONE', *, *, #246, .F. ) ;
#123 = EDGE_CURVE ( 'NONE', #354, #237, #220, .T. ) ;
#124 = AXIS2_PLACEMENT_3D ( 'NONE', #200, #11, #138 ) ;
#125 = DIRECTION ( 'NONE',  ( -0.000000000000000000, -0.000000000000000000, -1.000000000000000000 ) ) ;
#126 = APPLICATION_CONTEXT ( 'configuration controlled 3d designs of mechanical parts and assemblies' ) ;
#127 = LOCAL_TIME ( 17, 26, 7.000000000000000000, #227 ) ;
#128 = CARTESIAN_POINT ( 'NONE',  ( 4.000000000000000000, 4.898587196589412829E-16, 605.0000000000000000 ) ) ;
#129 = LINE ( 'NONE', #360, #216 ) ;
#130 = CARTESIAN_POINT ( 'NONE',  ( 7.000000000000000000, 8.572527594031473190E-16, 5.000000000000000000 ) ) ;
#131 = EDGE_CURVE ( 'NONE', #64, #179, #146, .T. ) ;
#132 = ORIENTED_EDGE ( 'NONE', *, *, #155, .T. ) ;
#133 = TOROIDAL_SURFACE ( 'NONE', #181, 4.500000000000000888, 0.5000000000000000000 ) ;
#134 = DIRECTION ( 'NONE',  ( 1.000000000000000000, 0.000000000000000000, 0.000000000000000000 ) ) ;
#135 = FACE_BOUND ( 'NONE', #1, .T. ) ;
#136 = VERTEX_POINT ( 'NONE', #331 ) ;
#137 = PERSON_AND_ORGANIZATION ( #88, #221 ) ;
#138 = DIRECTION ( 'NONE',  ( 1.000000000000000000, 0.000000000000000000, 0.000000000000000000 ) ) ;
#139 = SECURITY_CLASSIFICATION_LEVEL ( 'unclassified' ) ;
#140 = ADVANCED_FACE ( 'NONE', ( #157 ), #160, .T. ) ;
#141 =( NAMED_UNIT ( * ) PLANE_ANGLE_UNIT ( ) SI_UNIT ( $, .RADIAN. ) );
#142 = CARTESIAN_POINT ( 'NONE',  ( 0.000000000000000000, 0.000000000000000000, 605.0000000000000000 ) ) ;
#143 = PERSON_AND_ORGANIZATION ( #88, #221 ) ;
#144 = CARTESIAN_POINT ( 'NONE',  ( 0.000000000000000000, 0.000000000000000000, 5.000000000000000000 ) ) ;
#145 = DIRECTION ( 'NONE',  ( 0.000000000000000000, 0.000000000000000000, 1.000000000000000000 ) ) ;
#146 = CIRCLE ( 'NONE', #238, 2.100000000000000089 ) ;
#147 = APPROVAL_DATE_TIME ( #22, #326 ) ;
#148 = EDGE_LOOP ( 'NONE', ( #288, #266 ) ) ;
#149 = ORIENTED_EDGE ( 'NONE', *, *, #188, .F. ) ;
#150 = EDGE_CURVE ( 'NONE', #319, #116, #73, .T. ) ;
#151 = VERTEX_POINT ( 'NONE', #96 ) ;
#152 = CIRCLE ( 'NONE', #124, 7.000000000000000000 ) ;
#153 = ORIENTED_EDGE ( 'NONE', *, *, #219, .F. ) ;
#154 = ORIENTED_EDGE ( 'NONE', *, *, #32, .T. ) ;
#155 = EDGE_CURVE ( 'NONE', #354, #151, #41, .T. ) ;
#156 = AXIS2_PLACEMENT_3D ( 'NONE', #144, #45, #84 ) ;
#157 = FACE_OUTER_BOUND ( 'NONE', #60, .T. ) ;
#158 = CARTESIAN_POINT ( 'NONE',  ( 7.000000000000000000, 8.572527594031473190E-16, 0.000000000000000000 ) ) ;
#159 = CIRCLE ( 'NONE', #230, 0.5000000000000004441 ) ;
#160 = CYLINDRICAL_SURFACE ( 'NONE', #308, 7.000000000000000000 ) ;
#161 = CARTESIAN_POINT ( 'NONE',  ( 0.000000000000000000, 0.000000000000000000, 5.499999999999949374 ) ) ;
#162 = DIRECTION ( 'NONE',  ( 0.000000000000000000, 0.000000000000000000, -1.000000000000000000 ) ) ;
#163 = CARTESIAN_POINT ( 'NONE',  ( 0.000000000000000000, 0.000000000000000000, 0.000000000000000000 ) ) ;
#164 = TOROIDAL_SURFACE ( 'NONE', #193, 4.500000000000000888, 0.5000000000000000000 ) ;
#165 =( NAMED_UNIT ( * ) SI_UNIT ( $, .STERADIAN. ) SOLID_ANGLE_UNIT ( ) );
#166 = CARTESIAN_POINT ( 'NONE',  ( 0.000000000000000000, 0.000000000000000000, 0.000000000000000000 ) ) ;
#167 = PERSON_AND_ORGANIZATION_ROLE ( 'classification_officer' ) ;
#168 = CC_DESIGN_DATE_AND_TIME_ASSIGNMENT ( #368, #259, ( #351 ) ) ;
#169 = CYLINDRICAL_SURFACE ( 'NONE', #294, 2.100000000000000089 ) ;
#170 = DIRECTION ( 'NONE',  ( -1.000000000000000000, 0.000000000000000000, 0.000000000000000000 ) ) ;
#171 = FACE_OUTER_BOUND ( 'NONE', #210, .T. ) ;
#172 = CARTESIAN_POINT ( 'NONE',  ( 0.000000000000000000, 0.000000000000000000, 5.499999999999949374 ) ) ;
#173 = COORDINATED_UNIVERSAL_TIME_OFFSET ( 1, 0, .AHEAD. ) ;
#174 = DIRECTION ( 'NONE',  ( 0.000000000000000000, 0.000000000000000000, -1.000000000000000000 ) ) ;
#175 = CIRCLE ( 'NONE', #156, 4.500000000000000888 ) ;
#176 = CALENDAR_DATE ( 2022, 8, 7 ) ;
#177 = ORIENTED_EDGE ( 'NONE', *, *, #39, .T. ) ;
#178 = EDGE_CURVE ( 'NONE', #240, #319, #119, .T. ) ;
#179 = VERTEX_POINT ( 'NONE', #218 ) ;
#180 = ORIENTED_EDGE ( 'NONE', *, *, #253, .F. ) ;
#181 = AXIS2_PLACEMENT_3D ( 'NONE', #223, #311, #196 ) ;
#182 = EDGE_CURVE ( 'NONE', #116, #236, #86, .T. ) ;
#183 = ORIENTED_EDGE ( 'NONE', *, *, #182, .F. ) ;
#184 = AXIS2_PLACEMENT_3D ( 'NONE', #81, #204, #78 ) ;
#185 = CIRCLE ( 'NONE', #325, 4.500000000000000888 ) ;
#186 = SECURITY_CLASSIFICATION ( '', '', #139 ) ;
#187 = DIRECTION ( 'NONE',  ( 0.000000000000000000, 0.000000000000000000, -1.000000000000000000 ) ) ;
#188 = EDGE_CURVE ( 'NONE', #136, #363, #93, .T. ) ;
#189 = DIRECTION ( 'NONE',  ( 1.000000000000000000, 0.000000000000000000, 0.000000000000000000 ) ) ;
#190 = CARTESIAN_POINT ( 'NONE',  ( -2.100000000000000089, 0.000000000000000000, 605.0000000000000000 ) ) ;
#191 = CIRCLE ( 'NONE', #250, 4.000000000000000000 ) ;
#192 = EDGE_CURVE ( 'NONE', #64, #270, #359, .T. ) ;
#193 = AXIS2_PLACEMENT_3D ( 'NONE', #161, #75, #248 ) ;
#194 = DESIGN_CONTEXT ( 'detailed design', #126, 'design' ) ;
#195 = CARTESIAN_POINT ( 'NONE',  ( 4.000000000000000000, 4.898587196589412829E-16, 5.499999999999949374 ) ) ;
#196 = DIRECTION ( 'NONE',  ( 1.000000000000000000, 0.000000000000000000, 0.000000000000000000 ) ) ;
#197 = CARTESIAN_POINT ( 'NONE',  ( 0.000000000000000000, 0.000000000000000000, 605.0000000000000000 ) ) ;
#198 = CYLINDRICAL_SURFACE ( 'NONE', #72, 2.100000000000000089 ) ;
#199 = ORIENTED_EDGE ( 'NONE', *, *, #182, .T. ) ;
#200 = CARTESIAN_POINT ( 'NONE',  ( 0.000000000000000000, 0.000000000000000000, 5.000000000000000000 ) ) ;
#201 = CALENDAR_DATE ( 2022, 8, 7 ) ;
#202 = CARTESIAN_POINT ( 'NONE',  ( 0.000000000000000000, 0.000000000000000000, 5.000000000000000000 ) ) ;
#203 = ADVANCED_BREP_SHAPE_REPRESENTATION ( '19df', ( #68, #209 ), #2 ) ;
#204 = DIRECTION ( 'NONE',  ( 0.000000000000000000, 0.000000000000000000, 1.000000000000000000 ) ) ;
#205 = DATE_AND_TIME ( #233, #74 ) ;
#206 = ORIENTED_EDGE ( 'NONE', *, *, #342, .T. ) ;
#207 = PRODUCT_DEFINITION_SHAPE ( 'NONE', 'NONE',  #351 ) ;
#208 = CLOSED_SHELL ( 'NONE', ( #94, #212, #243, #140, #313, #7, #92, #3, #27, #56, #378 ) ) ;
#209 = AXIS2_PLACEMENT_3D ( 'NONE', #369, #16, #26 ) ;
#210 = EDGE_LOOP ( 'NONE', ( #293, #108, #381, #348 ) ) ;
#211 = EDGE_LOOP ( 'NONE', ( #117, #153 ) ) ;
#212 = ADVANCED_FACE ( 'NONE', ( #361 ), #164, .F. ) ;
#213 = ORIENTED_EDGE ( 'NONE', *, *, #83, .T. ) ;
#214 = AXIS2_PLACEMENT_3D ( 'NONE', #327, #297, #272 ) ;
#215 = PRODUCT_RELATED_PRODUCT_CATEGORY ( 'detail', '', ( #264 ) ) ;
#216 = VECTOR ( 'NONE', #125, 1000.000000000000000 ) ;
#217 = DIRECTION ( 'NONE',  ( 1.000000000000000000, 0.000000000000000000, 0.000000000000000000 ) ) ;
#218 = CARTESIAN_POINT ( 'NONE',  ( 2.100000000000000089, 2.571758278209441957E-16, 605.0000000000000000 ) ) ;
#219 = EDGE_CURVE ( 'NONE', #179, #64, #380, .T. ) ;
#220 = LINE ( 'NONE', #128, #91 ) ;
#221 = ORGANIZATION ( 'NEURÈENÝ', 'NEURÈENÝ', '' ) ;
#222 = CARTESIAN_POINT ( 'NONE',  ( 0.000000000000000000, 0.000000000000000000, 605.0000000000000000 ) ) ;
#223 = CARTESIAN_POINT ( 'NONE',  ( 0.000000000000000000, 0.000000000000000000, 5.499999999999949374 ) ) ;
#224 = CARTESIAN_POINT ( 'NONE',  ( 2.100000000000000089, 2.571758278209441957E-16, 0.000000000000000000 ) ) ;
#225 = ORIENTED_EDGE ( 'NONE', *, *, #303, .F. ) ;
#226 = CC_DESIGN_DATE_AND_TIME_ASSIGNMENT ( #205, #28, ( #186 ) ) ;
#227 = COORDINATED_UNIVERSAL_TIME_OFFSET ( 1, 0, .AHEAD. ) ;
#228 = CARTESIAN_POINT ( 'NONE',  ( 0.000000000000000000, 0.000000000000000000, 605.0000000000000000 ) ) ;
#229 = PERSON_AND_ORGANIZATION ( #88, #221 ) ;
#230 = AXIS2_PLACEMENT_3D ( 'NONE', #304, #43, #162 ) ;
#231 = LINE ( 'NONE', #345, #358 ) ;
#232 = DIRECTION ( 'NONE',  ( 0.000000000000000000, 0.000000000000000000, 1.000000000000000000 ) ) ;
#233 = CALENDAR_DATE ( 2022, 8, 7 ) ;
#234 = APPLICATION_PROTOCOL_DEFINITION ( 'international standard', 'config_control_design', 1994, #31 ) ;
#235 = DIRECTION ( 'NONE',  ( 1.000000000000000000, 0.000000000000000000, 0.000000000000000000 ) ) ;
#236 = VERTEX_POINT ( 'NONE', #158 ) ;
#237 = VERTEX_POINT ( 'NONE', #195 ) ;
#238 = AXIS2_PLACEMENT_3D ( 'NONE', #222, #95, #330 ) ;
#239 = ORIENTED_EDGE ( 'NONE', *, *, #123, .T. ) ;
#240 = VERTEX_POINT ( 'NONE', #130 ) ;
#241 = AXIS2_PLACEMENT_3D ( 'NONE', #244, #357, #189 ) ;
#242 = PRODUCT_DEFINITION_FORMATION_WITH_SPECIFIED_SOURCE ( 'LIBOVOLNÝ', '', #264, .NOT_KNOWN. ) ;
#243 = ADVANCED_FACE ( 'NONE', ( #69 ), #276, .T. ) ;
#244 = CARTESIAN_POINT ( 'NONE',  ( 0.000000000000000000, 0.000000000000000000, 605.0000000000000000 ) ) ;
#245 = APPROVAL_PERSON_ORGANIZATION ( #137, #111, #105 ) ;
#246 = EDGE_CURVE ( 'NONE', #240, #236, #129, .T. ) ;
#247 = DIRECTION ( 'NONE',  ( -0.000000000000000000, -0.000000000000000000, -1.000000000000000000 ) ) ;
#248 = DIRECTION ( 'NONE',  ( 1.000000000000000000, 0.000000000000000000, 0.000000000000000000 ) ) ;
#249 = DIRECTION ( 'NONE',  ( 1.000000000000000000, 0.000000000000000000, 0.000000000000000000 ) ) ;
#250 = AXIS2_PLACEMENT_3D ( 'NONE', #172, #336, #307 ) ;
#251 = CARTESIAN_POINT ( 'NONE',  ( 0.000000000000000000, 0.000000000000000000, 605.0000000000000000 ) ) ;
#252 = FACE_OUTER_BOUND ( 'NONE', #309, .T. ) ;
#253 = EDGE_CURVE ( 'NONE', #237, #376, #159, .T. ) ;
#254 = EDGE_LOOP ( 'NONE', ( #265, #225, #290, #177 ) ) ;
#255 = APPLICATION_PROTOCOL_DEFINITION ( 'international standard', 'config_control_design', 1994, #126 ) ;
#256 = DIRECTION ( 'NONE',  ( 0.000000000000000000, 0.000000000000000000, 1.000000000000000000 ) ) ;
#257 = PERSON_AND_ORGANIZATION ( #88, #221 ) ;
#258 = CARTESIAN_POINT ( 'NONE',  ( -7.000000000000000000, 0.000000000000000000, 0.000000000000000000 ) ) ;
#259 = DATE_TIME_ROLE ( 'creation_date' ) ;
#260 = AXIS2_PLACEMENT_3D ( 'NONE', #251, #40, #249 ) ;
#261 = LOCAL_TIME ( 17, 26, 7.000000000000000000, #318 ) ;
#262 = FACE_OUTER_BOUND ( 'NONE', #118, .T. ) ;
#263 = EDGE_LOOP ( 'NONE', ( #377, #206, #25, #291 ) ) ;
#264 = PRODUCT ( '19df', '19df', '', ( #317 ) ) ;
#265 = ORIENTED_EDGE ( 'NONE', *, *, #123, .F. ) ;
#266 = ORIENTED_EDGE ( 'NONE', *, *, #48, .T. ) ;
#267 = AXIS2_PLACEMENT_3D ( 'NONE', #228, #341, #349 ) ;
#268 = AXIS2_PLACEMENT_3D ( 'NONE', #8, #364, #277 ) ;
#269 = EDGE_LOOP ( 'NONE', ( #149, #324, #321, #339 ) ) ;
#270 = VERTEX_POINT ( 'NONE', #10 ) ;
#271 = AXIS2_PLACEMENT_3D ( 'NONE', #5, #71, #329 ) ;
#272 = DIRECTION ( 'NONE',  ( 1.000000000000000000, 0.000000000000000000, 0.000000000000000000 ) ) ;
#273 = EDGE_CURVE ( 'NONE', #270, #61, #63, .T. ) ;
#274 = DIRECTION ( 'NONE',  ( 1.000000000000000000, 0.000000000000000000, 0.000000000000000000 ) ) ;
#275 = AXIS2_PLACEMENT_3D ( 'NONE', #67, #42, #217 ) ;
#276 = CYLINDRICAL_SURFACE ( 'NONE', #268, 4.000000000000000000 ) ;
#277 = DIRECTION ( 'NONE',  ( -1.000000000000000000, 0.000000000000000000, 0.000000000000000000 ) ) ;
#278 = CARTESIAN_POINT ( 'NONE',  ( 0.000000000000000000, 0.000000000000000000, 5.000000000000000000 ) ) ;
#279 = VECTOR ( 'NONE', #247, 1000.000000000000000 ) ;
#280 = PERSON_AND_ORGANIZATION ( #88, #221 ) ;
#281 = DIRECTION ( 'NONE',  ( -0.000000000000000000, -0.000000000000000000, -1.000000000000000000 ) ) ;
#282 = APPROVAL_ROLE ( '' ) ;
#283 = DIRECTION ( 'NONE',  ( -0.000000000000000000, -0.000000000000000000, -1.000000000000000000 ) ) ;
#284 = PERSON_AND_ORGANIZATION_ROLE ( 'creator' ) ;
#285 = DIRECTION ( 'NONE',  ( -0.000000000000000000, -0.000000000000000000, -1.000000000000000000 ) ) ;
#286 = COORDINATED_UNIVERSAL_TIME_OFFSET ( 1, 0, .AHEAD. ) ;
#287 = CIRCLE ( 'NONE', #79, 7.000000000000000000 ) ;
#288 = ORIENTED_EDGE ( 'NONE', *, *, #322, .T. ) ;
#289 = COORDINATED_UNIVERSAL_TIME_OFFSET ( 1, 0, .AHEAD. ) ;
#290 = ORIENTED_EDGE ( 'NONE', *, *, #36, .T. ) ;
#291 = ORIENTED_EDGE ( 'NONE', *, *, #192, .F. ) ;
#292 = APPROVAL ( #375, 'NEURÈENÝ' ) ;
#293 = ORIENTED_EDGE ( 'NONE', *, *, #342, .F. ) ;
#294 = AXIS2_PLACEMENT_3D ( 'NONE', #197, #50, #53 ) ;
#295 = ORIENTED_EDGE ( 'NONE', *, *, #32, .F. ) ;
#296 = APPROVAL_PERSON_ORGANIZATION ( #316, #326, #55 ) ;
#297 = DIRECTION ( 'NONE',  ( -0.000000000000000000, -0.000000000000000000, -1.000000000000000000 ) ) ;
#298 = FACE_OUTER_BOUND ( 'NONE', #30, .T. ) ;
#299 = DIRECTION ( 'NONE',  ( 1.000000000000000000, 0.000000000000000000, 0.000000000000000000 ) ) ;
#300 = CIRCLE ( 'NONE', #241, 4.000000000000000000 ) ;
#301 = CC_DESIGN_SECURITY_CLASSIFICATION ( #186, ( #242 ) ) ;
#302 = DIRECTION ( 'NONE',  ( 0.000000000000000000, 0.000000000000000000, 1.000000000000000000 ) ) ;
#303 = EDGE_CURVE ( 'NONE', #151, #354, #300, .T. ) ;
#304 = CARTESIAN_POINT ( 'NONE',  ( 4.500000000000000888, 0.000000000000000000, 5.499999999999949374 ) ) ;
#305 = CARTESIAN_POINT ( 'NONE',  ( -2.100000000000000089, 0.000000000000000000, 605.0000000000000000 ) ) ;
#306 = EDGE_LOOP ( 'NONE', ( #373, #132 ) ) ;
#307 = DIRECTION ( 'NONE',  ( 1.000000000000000000, 0.000000000000000000, 0.000000000000000000 ) ) ;
#308 = AXIS2_PLACEMENT_3D ( 'NONE', #278, #100, #98 ) ;
#309 = EDGE_LOOP ( 'NONE', ( #183, #295 ) ) ;
#310 = CARTESIAN_POINT ( 'NONE',  ( -7.000000000000000000, 0.000000000000000000, 5.000000000000000000 ) ) ;
#311 = DIRECTION ( 'NONE',  ( 0.000000000000000000, 0.000000000000000000, 1.000000000000000000 ) ) ;
#312 = PERSON_AND_ORGANIZATION_ROLE ( 'creator' ) ;
#313 = ADVANCED_FACE ( 'NONE', ( #298 ), #38, .T. ) ;
#314 = DIRECTION ( 'NONE',  ( -1.000000000000000000, 0.000000000000000000, 0.000000000000000000 ) ) ;
#315 = FACE_OUTER_BOUND ( 'NONE', #254, .T. ) ;
#316 = PERSON_AND_ORGANIZATION ( #88, #221 ) ;
#317 = MECHANICAL_CONTEXT ( 'NONE', #31, 'mechanical' ) ;
#318 = COORDINATED_UNIVERSAL_TIME_OFFSET ( 1, 0, .AHEAD. ) ;
#319 = VERTEX_POINT ( 'NONE', #310 ) ;
#320 = CC_DESIGN_APPROVAL ( #326, ( #186 ) ) ;
#321 = ORIENTED_EDGE ( 'NONE', *, *, #253, .T. ) ;
#322 = EDGE_CURVE ( 'NONE', #376, #363, #175, .T. ) ;
#323 = ORIENTED_EDGE ( 'NONE', *, *, #178, .F. ) ;
#324 = ORIENTED_EDGE ( 'NONE', *, *, #120, .F. ) ;
#325 = AXIS2_PLACEMENT_3D ( 'NONE', #365, #285, #106 ) ;
#326 = APPROVAL ( #49, 'NEURÈENÝ' ) ;
#327 = CARTESIAN_POINT ( 'NONE',  ( 0.000000000000000000, 0.000000000000000000, 0.000000000000000000 ) ) ;
#328 = CIRCLE ( 'NONE', #12, 4.000000000000000000 ) ;
#329 = DIRECTION ( 'NONE',  ( -1.000000000000000000, 1.224646799147351482E-16, 0.000000000000000000 ) ) ;
#330 = DIRECTION ( 'NONE',  ( 1.000000000000000000, 0.000000000000000000, 0.000000000000000000 ) ) ;
#331 = CARTESIAN_POINT ( 'NONE',  ( -4.000000000000000000, 0.000000000000000000, 5.499999999999949374 ) ) ;
#332 = VECTOR ( 'NONE', #187, 1000.000000000000000 ) ;
#333 = APPROVAL_PERSON_ORGANIZATION ( #229, #292, #282 ) ;
#334 = CC_DESIGN_PERSON_AND_ORGANIZATION_ASSIGNMENT ( #257, #167, ( #186 ) ) ;
#335 = DIRECTION ( 'NONE',  ( 0.000000000000000000, 0.000000000000000000, 1.000000000000000000 ) ) ;
#336 = DIRECTION ( 'NONE',  ( 0.000000000000000000, 0.000000000000000000, 1.000000000000000000 ) ) ;
#337 =( LENGTH_UNIT ( ) NAMED_UNIT ( * ) SI_UNIT ( .MILLI., .METRE. ) );
#338 = DIRECTION ( 'NONE',  ( 1.000000000000000000, 0.000000000000000000, -0.000000000000000000 ) ) ;
#339 = ORIENTED_EDGE ( 'NONE', *, *, #48, .F. ) ;
#340 = CARTESIAN_POINT ( 'NONE',  ( 4.500000000000000888, 0.000000000000000000, 4.999999999999975131 ) ) ;
#341 = DIRECTION ( 'NONE',  ( -0.000000000000000000, -0.000000000000000000, -1.000000000000000000 ) ) ;
#342 = EDGE_CURVE ( 'NONE', #179, #61, #231, .T. ) ;
#343 = SHAPE_DEFINITION_REPRESENTATION ( #207, #203 ) ;
#344 = CC_DESIGN_APPROVAL ( #111, ( #351 ) ) ;
#345 = CARTESIAN_POINT ( 'NONE',  ( 2.100000000000000089, 2.571758278209441957E-16, 605.0000000000000000 ) ) ;
#346 = CYLINDRICAL_SURFACE ( 'NONE', #267, 4.000000000000000000 ) ;
#347 = APPROVAL_DATE_TIME ( #15, #292 ) ;
#348 = ORIENTED_EDGE ( 'NONE', *, *, #273, .T. ) ;
#349 = DIRECTION ( 'NONE',  ( -1.000000000000000000, 0.000000000000000000, 0.000000000000000000 ) ) ;
#350 = ORIENTED_EDGE ( 'NONE', *, *, #150, .T. ) ;
#351 = PRODUCT_DEFINITION ( 'NEZNÁMÝ', '', #242, #194 ) ;
#352 = ORIENTED_EDGE ( 'NONE', *, *, #102, .F. ) ;
#353 = ORIENTED_EDGE ( 'NONE', *, *, #150, .F. ) ;
#354 = VERTEX_POINT ( 'NONE', #80 ) ;
#355 = CC_DESIGN_PERSON_AND_ORGANIZATION_ASSIGNMENT ( #371, #284, ( #242 ) ) ;
#356 = CC_DESIGN_PERSON_AND_ORGANIZATION_ASSIGNMENT ( #143, #312, ( #351 ) ) ;
#357 = DIRECTION ( 'NONE',  ( 0.000000000000000000, 0.000000000000000000, 1.000000000000000000 ) ) ;
#358 = VECTOR ( 'NONE', #174, 1000.000000000000000 ) ;
#359 = LINE ( 'NONE', #190, #332 ) ;
#360 = CARTESIAN_POINT ( 'NONE',  ( 7.000000000000000000, 8.572527594031473190E-16, 5.000000000000000000 ) ) ;
#361 = FACE_OUTER_BOUND ( 'NONE', #35, .T. ) ;
#362 = FACE_BOUND ( 'NONE', #148, .T. ) ;
#363 = VERTEX_POINT ( 'NONE', #57 ) ;
#364 = DIRECTION ( 'NONE',  ( -0.000000000000000000, -0.000000000000000000, -1.000000000000000000 ) ) ;
#365 = CARTESIAN_POINT ( 'NONE',  ( 0.000000000000000000, 0.000000000000000000, 5.000000000000000000 ) ) ;
#366 = APPROVAL_STATUS ( 'not_yet_approved' ) ;
#367 = FACE_BOUND ( 'NONE', #211, .T. ) ;
#368 = DATE_AND_TIME ( #59, #6 ) ;
#369 = CARTESIAN_POINT ( 'NONE',  ( 0.000000000000000000, 0.000000000000000000, 0.000000000000000000 ) ) ;
#370 = DIRECTION ( 'NONE',  ( 1.000000000000000000, 0.000000000000000000, -0.000000000000000000 ) ) ;
#371 = PERSON_AND_ORGANIZATION ( #88, #221 ) ;
#372 = AXIS2_PLACEMENT_3D ( 'NONE', #163, #104, #338 ) ;
#373 = ORIENTED_EDGE ( 'NONE', *, *, #303, .T. ) ;
#374 = PLANE ( 'NONE',  #184 ) ;
#375 = APPROVAL_STATUS ( 'not_yet_approved' ) ;
#376 = VERTEX_POINT ( 'NONE', #340 ) ;
#377 = ORIENTED_EDGE ( 'NONE', *, *, #131, .T. ) ;
#378 = ADVANCED_FACE ( 'NONE', ( #171 ), #169, .F. ) ;
#379 = ORIENTED_EDGE ( 'NONE', *, *, #83, .F. ) ;
#380 = CIRCLE ( 'NONE', #21, 2.100000000000000089 ) ;
#381 = ORIENTED_EDGE ( 'NONE', *, *, #192, .T. ) ;
ENDSEC;
END-ISO-10303-21;
