ISO-10303-21;
HEADER;
FILE_DESCRIPTION (( 'STEP AP203' ),
    '1' );
FILE_NAME ('9fe8.STEP',
    '2022-07-08T14:52:27',
    ( '' ),
    ( '' ),
    'SwSTEP 2.0',
    'SolidWorks 2019',
    '' );
FILE_SCHEMA (( 'CONFIG_CONTROL_DESIGN' ));
ENDSEC;

DATA;
#1 = VERTEX_POINT ( 'NONE', #255 ) ;
#2 = COORDINATED_UNIVERSAL_TIME_OFFSET ( 1, 0, .AHEAD. ) ;
#3 = ORIENTED_EDGE ( 'NONE', *, *, #134, .T. ) ;
#4 = DIRECTION ( 'NONE',  ( -0.000000000000000000, -0.000000000000000000, -1.000000000000000000 ) ) ;
#5 = DATE_AND_TIME ( #234, #76 ) ;
#6 = EDGE_CURVE ( 'NONE', #37, #343, #285, .T. ) ;
#7 = LINE ( 'NONE', #29, #67 ) ;
#8 = EDGE_LOOP ( 'NONE', ( #92, #73 ) ) ;
#9 = AXIS2_PLACEMENT_3D ( 'NONE', #152, #58, #262 ) ;
#10 = APPROVAL_STATUS ( 'not_yet_approved' ) ;
#11 = ORIENTED_EDGE ( 'NONE', *, *, #342, .T. ) ;
#12 = PERSON_AND_ORGANIZATION ( #292, #256 ) ;
#13 = VERTEX_POINT ( 'NONE', #194 ) ;
#14 = EDGE_CURVE ( 'NONE', #93, #37, #333, .T. ) ;
#15 = FACE_OUTER_BOUND ( 'NONE', #162, .T. ) ;
#16 = ORIENTED_EDGE ( 'NONE', *, *, #6, .T. ) ;
#17 = EDGE_CURVE ( 'NONE', #240, #1, #254, .T. ) ;
#18 = ORIENTED_EDGE ( 'NONE', *, *, #52, .F. ) ;
#19 = CARTESIAN_POINT ( 'NONE',  ( 0.000000000000000000, 0.000000000000000000, 7.499999999999951150 ) ) ;
#20 = CARTESIAN_POINT ( 'NONE',  ( 0.000000000000000000, 0.000000000000000000, 0.000000000000000000 ) ) ;
#21 = CARTESIAN_POINT ( 'NONE',  ( 3.000000000000000444, 3.673940397442060361E-16, 657.0000000000000000 ) ) ;
#22 = CARTESIAN_POINT ( 'NONE',  ( -6.500000000000000888, 7.960204194457796463E-16, 7.499999999999951150 ) ) ;
#23 = PRODUCT_RELATED_PRODUCT_CATEGORY ( 'detail', '', ( #376 ) ) ;
#24 = DIRECTION ( 'NONE',  ( -0.000000000000000000, -0.000000000000000000, -1.000000000000000000 ) ) ;
#25 = DIRECTION ( 'NONE',  ( -0.000000000000000000, -0.000000000000000000, -1.000000000000000000 ) ) ;
#26 = APPROVAL ( #10, 'NEURÈENÝ' ) ;
#27 = UNCERTAINTY_MEASURE_WITH_UNIT (LENGTH_MEASURE( 1.000000000000000082E-05 ), #357, 'distance_accuracy_value', 'NONE');
#28 = CARTESIAN_POINT ( 'NONE',  ( 0.000000000000000000, 0.000000000000000000, 7.000000000000000000 ) ) ;
#29 = CARTESIAN_POINT ( 'NONE',  ( -3.000000000000000444, 0.000000000000000000, 657.0000000000000000 ) ) ;
#30 = AXIS2_PLACEMENT_3D ( 'NONE', #165, #193, #197 ) ;
#31 = PERSON_AND_ORGANIZATION ( #292, #256 ) ;
#32 = EDGE_LOOP ( 'NONE', ( #125, #237, #97, #48 ) ) ;
#33 = ADVANCED_FACE ( 'NONE', ( #311 ), #45, .F. ) ;
#34 = APPLICATION_PROTOCOL_DEFINITION ( 'international standard', 'config_control_design', 1994, #142 ) ;
#35 = ORIENTED_EDGE ( 'NONE', *, *, #228, .F. ) ;
#36 = PERSON_AND_ORGANIZATION_ROLE ( 'classification_officer' ) ;
#37 = VERTEX_POINT ( 'NONE', #143 ) ;
#38 = CIRCLE ( 'NONE', #348, 6.000000000000000888 ) ;
#39 = AXIS2_PLACEMENT_3D ( 'NONE', #249, #221, #339 ) ;
#40 = PERSON_AND_ORGANIZATION_ROLE ( 'creator' ) ;
#41 = ORIENTED_EDGE ( 'NONE', *, *, #200, .F. ) ;
#42 =( GEOMETRIC_REPRESENTATION_CONTEXT ( 3 ) GLOBAL_UNCERTAINTY_ASSIGNED_CONTEXT ( ( #27 ) ) GLOBAL_UNIT_ASSIGNED_CONTEXT ( ( #357, #182, #156 ) ) REPRESENTATION_CONTEXT ( 'NONE', 'WORKASPACE' ) );
#43 = CARTESIAN_POINT ( 'NONE',  ( 0.000000000000000000, 0.000000000000000000, 657.0000000000000000 ) ) ;
#44 = CIRCLE ( 'NONE', #260, 6.500000000000000888 ) ;
#45 = TOROIDAL_SURFACE ( 'NONE', #141, 6.500000000000000888, 0.5000000000000000000 ) ;
#46 = DIRECTION ( 'NONE',  ( 1.000000000000000000, 0.000000000000000000, 0.000000000000000000 ) ) ;
#47 = DIRECTION ( 'NONE',  ( 1.000000000000000000, 0.000000000000000000, 0.000000000000000000 ) ) ;
#48 = ORIENTED_EDGE ( 'NONE', *, *, #103, .F. ) ;
#49 = AXIS2_PLACEMENT_3D ( 'NONE', #315, #291, #372 ) ;
#50 = DIRECTION ( 'NONE',  ( 1.000000000000000000, 0.000000000000000000, -0.000000000000000000 ) ) ;
#51 = CIRCLE ( 'NONE', #9, 6.000000000000000888 ) ;
#52 = EDGE_CURVE ( 'NONE', #1, #240, #74, .T. ) ;
#53 = CARTESIAN_POINT ( 'NONE',  ( -6.500000000000000888, 7.960204194457796463E-16, 6.999999999999975131 ) ) ;
#54 = FACE_OUTER_BOUND ( 'NONE', #8, .T. ) ;
#55 = PRODUCT_DEFINITION_SHAPE ( 'NONE', 'NONE',  #113 ) ;
#56 = ADVANCED_FACE ( 'NONE', ( #106, #15 ), #104, .T. ) ;
#57 = DIRECTION ( 'NONE',  ( 0.000000000000000000, 0.000000000000000000, 1.000000000000000000 ) ) ;
#58 = DIRECTION ( 'NONE',  ( 0.000000000000000000, 0.000000000000000000, 1.000000000000000000 ) ) ;
#59 = PERSON_AND_ORGANIZATION ( #292, #256 ) ;
#60 = DIRECTION ( 'NONE',  ( -0.000000000000000000, -0.000000000000000000, -1.000000000000000000 ) ) ;
#61 = ADVANCED_FACE ( 'NONE', ( #346 ), #78, .F. ) ;
#62 = ORIENTED_EDGE ( 'NONE', *, *, #353, .T. ) ;
#63 = ORIENTED_EDGE ( 'NONE', *, *, #89, .F. ) ;
#64 = APPROVAL_DATE_TIME ( #119, #358 ) ;
#65 = EDGE_CURVE ( 'NONE', #37, #93, #309, .T. ) ;
#66 = ORIENTED_EDGE ( 'NONE', *, *, #189, .F. ) ;
#67 = VECTOR ( 'NONE', #330, 1000.000000000000000 ) ;
#68 = DIRECTION ( 'NONE',  ( -0.000000000000000000, -0.000000000000000000, -1.000000000000000000 ) ) ;
#69 = ORIENTED_EDGE ( 'NONE', *, *, #14, .F. ) ;
#70 = LOCAL_TIME ( 16, 52, 27.00000000000000000, #123 ) ;
#71 = FACE_OUTER_BOUND ( 'NONE', #313, .T. ) ;
#72 = DIRECTION ( 'NONE',  ( 0.000000000000000000, 0.000000000000000000, 1.000000000000000000 ) ) ;
#73 = ORIENTED_EDGE ( 'NONE', *, *, #14, .T. ) ;
#74 = CIRCLE ( 'NONE', #222, 3.000000000000000444 ) ;
#75 = EDGE_LOOP ( 'NONE', ( #18, #281 ) ) ;
#76 = LOCAL_TIME ( 16, 52, 27.00000000000000000, #180 ) ;
#77 = DIRECTION ( 'NONE',  ( -0.000000000000000000, -0.000000000000000000, -1.000000000000000000 ) ) ;
#78 = CYLINDRICAL_SURFACE ( 'NONE', #30, 3.000000000000000444 ) ;
#79 = CIRCLE ( 'NONE', #117, 3.000000000000000444 ) ;
#80 = CARTESIAN_POINT ( 'NONE',  ( 0.000000000000000000, 0.000000000000000000, 0.000000000000000000 ) ) ;
#81 = CARTESIAN_POINT ( 'NONE',  ( 6.000000000000000888, 7.347880794884120722E-16, 7.499999999999951150 ) ) ;
#82 = AXIS2_PLACEMENT_3D ( 'NONE', #233, #354, #329 ) ;
#83 = FACE_BOUND ( 'NONE', #212, .T. ) ;
#84 = FACE_OUTER_BOUND ( 'NONE', #130, .T. ) ;
#85 = DIRECTION ( 'NONE',  ( 1.000000000000000000, 0.000000000000000000, 0.000000000000000000 ) ) ;
#86 = AXIS2_PLACEMENT_3D ( 'NONE', #80, #349, #175 ) ;
#87 = APPROVAL_PERSON_ORGANIZATION ( #304, #358, #307 ) ;
#88 = DATE_AND_TIME ( #355, #70 ) ;
#89 = EDGE_CURVE ( 'NONE', #272, #331, #135, .T. ) ;
#90 = ORIENTED_EDGE ( 'NONE', *, *, #6, .F. ) ;
#91 = COORDINATED_UNIVERSAL_TIME_OFFSET ( 1, 0, .AHEAD. ) ;
#92 = ORIENTED_EDGE ( 'NONE', *, *, #65, .T. ) ;
#93 = VERTEX_POINT ( 'NONE', #198 ) ;
#94 = CC_DESIGN_DATE_AND_TIME_ASSIGNMENT ( #356, #158, ( #302 ) ) ;
#95 = COORDINATED_UNIVERSAL_TIME_OFFSET ( 1, 0, .AHEAD. ) ;
#96 = DIRECTION ( 'NONE',  ( 1.000000000000000000, 0.000000000000000000, 0.000000000000000000 ) ) ;
#97 = ORIENTED_EDGE ( 'NONE', *, *, #174, .T. ) ;
#98 = DIRECTION ( 'NONE',  ( -1.000000000000000000, 0.000000000000000000, 0.000000000000000000 ) ) ;
#99 = CARTESIAN_POINT ( 'NONE',  ( 0.000000000000000000, 0.000000000000000000, 7.000000000000000000 ) ) ;
#100 = SHAPE_DEFINITION_REPRESENTATION ( #55, #219 ) ;
#101 = PRODUCT_DEFINITION_FORMATION_WITH_SPECIFIED_SOURCE ( 'LIBOVOLNÝ', '', #376, .NOT_KNOWN. ) ;
#102 = CYLINDRICAL_SURFACE ( 'NONE', #321, 6.000000000000000888 ) ;
#103 = EDGE_CURVE ( 'NONE', #1, #369, #7, .T. ) ;
#104 = PLANE ( 'NONE',  #362 ) ;
#105 = ORIENTED_EDGE ( 'NONE', *, *, #139, .T. ) ;
#106 = FACE_BOUND ( 'NONE', #75, .T. ) ;
#107 = CARTESIAN_POINT ( 'NONE',  ( 3.000000000000000444, 3.673940397442060361E-16, 657.0000000000000000 ) ) ;
#108 = DIRECTION ( 'NONE',  ( 1.000000000000000000, 0.000000000000000000, -0.000000000000000000 ) ) ;
#109 = FACE_OUTER_BOUND ( 'NONE', #334, .T. ) ;
#110 = AXIS2_PLACEMENT_3D ( 'NONE', #295, #230, #196 ) ;
#111 = PLANE ( 'NONE',  #266 ) ;
#112 = CYLINDRICAL_SURFACE ( 'NONE', #176, 10.00000000000000000 ) ;
#113 = PRODUCT_DEFINITION ( 'NEZNÁMÝ', '', #101, #264 ) ;
#114 = CARTESIAN_POINT ( 'NONE',  ( 0.000000000000000000, 0.000000000000000000, 7.000000000000000000 ) ) ;
#115 = CYLINDRICAL_SURFACE ( 'NONE', #82, 6.000000000000000888 ) ;
#116 = CARTESIAN_POINT ( 'NONE',  ( 10.00000000000000000, 1.224646799147353256E-15, 7.000000000000000000 ) ) ;
#117 = AXIS2_PLACEMENT_3D ( 'NONE', #338, #68, #271 ) ;
#118 = ADVANCED_FACE ( 'NONE', ( #71 ), #102, .T. ) ;
#119 = DATE_AND_TIME ( #129, #263 ) ;
#120 = ORIENTED_EDGE ( 'NONE', *, *, #210, .T. ) ;
#121 = CALENDAR_DATE ( 2022, 8, 7 ) ;
#122 = MANIFOLD_SOLID_BREP ( 'Odebrat vysunutím3', #133 ) ;
#123 = COORDINATED_UNIVERSAL_TIME_OFFSET ( 1, 0, .AHEAD. ) ;
#124 = CIRCLE ( 'NONE', #216, 6.500000000000000888 ) ;
#125 = ORIENTED_EDGE ( 'NONE', *, *, #52, .T. ) ;
#126 = PERSON_AND_ORGANIZATION ( #292, #256 ) ;
#127 = ORIENTED_EDGE ( 'NONE', *, *, #17, .T. ) ;
#128 = AXIS2_PLACEMENT_3D ( 'NONE', #155, #324, #301 ) ;
#129 = CALENDAR_DATE ( 2022, 8, 7 ) ;
#130 = EDGE_LOOP ( 'NONE', ( #326, #137, #62, #360 ) ) ;
#131 = ORIENTED_EDGE ( 'NONE', *, *, #363, .T. ) ;
#132 = AXIS2_PLACEMENT_3D ( 'NONE', #347, #350, #50 ) ;
#133 = CLOSED_SHELL ( 'NONE', ( #61, #33, #373, #159, #367, #296, #239, #118, #56, #150, #286 ) ) ;
#134 = EDGE_CURVE ( 'NONE', #93, #247, #380, .T. ) ;
#135 = LINE ( 'NONE', #167, #283 ) ;
#136 = APPROVAL_PERSON_ORGANIZATION ( #273, #26, #359 ) ;
#137 = ORIENTED_EDGE ( 'NONE', *, *, #210, .F. ) ;
#138 = DIRECTION ( 'NONE',  ( 0.000000000000000000, 0.000000000000000000, 1.000000000000000000 ) ) ;
#139 = EDGE_CURVE ( 'NONE', #369, #161, #79, .T. ) ;
#140 = AXIS2_PLACEMENT_3D ( 'NONE', #312, #251, #47 ) ;
#141 = AXIS2_PLACEMENT_3D ( 'NONE', #19, #252, #364 ) ;
#142 = APPLICATION_CONTEXT ( 'configuration controlled 3d designs of mechanical parts and assemblies' ) ;
#143 = CARTESIAN_POINT ( 'NONE',  ( -10.00000000000000000, 0.000000000000000000, 7.000000000000000000 ) ) ;
#144 = DIRECTION ( 'NONE',  ( -0.000000000000000000, -0.000000000000000000, -1.000000000000000000 ) ) ;
#145 = DIRECTION ( 'NONE',  ( 1.000000000000000000, 0.000000000000000000, 0.000000000000000000 ) ) ;
#146 = DIRECTION ( 'NONE',  ( -1.000000000000000000, 1.224646799147351482E-16, 0.000000000000000000 ) ) ;
#147 = DIRECTION ( 'NONE',  ( 0.000000000000000000, 0.000000000000000000, 1.000000000000000000 ) ) ;
#148 = CIRCLE ( 'NONE', #166, 10.00000000000000000 ) ;
#149 = FACE_OUTER_BOUND ( 'NONE', #226, .T. ) ;
#150 = ADVANCED_FACE ( 'NONE', ( #84 ), #248, .F. ) ;
#151 = CARTESIAN_POINT ( 'NONE',  ( 0.000000000000000000, 0.000000000000000000, 657.0000000000000000 ) ) ;
#152 = CARTESIAN_POINT ( 'NONE',  ( 0.000000000000000000, 0.000000000000000000, 7.499999999999951150 ) ) ;
#153 = VECTOR ( 'NONE', #308, 1000.000000000000000 ) ;
#154 = ORIENTED_EDGE ( 'NONE', *, *, #276, .F. ) ;
#155 = CARTESIAN_POINT ( 'NONE',  ( 0.000000000000000000, 0.000000000000000000, 0.000000000000000000 ) ) ;
#156 =( NAMED_UNIT ( * ) SI_UNIT ( $, .STERADIAN. ) SOLID_ANGLE_UNIT ( ) );
#157 = ORIENTED_EDGE ( 'NONE', *, *, #89, .T. ) ;
#158 = DATE_TIME_ROLE ( 'classification_date' ) ;
#159 = ADVANCED_FACE ( 'NONE', ( #352 ), #280, .T. ) ;
#160 = VECTOR ( 'NONE', #288, 1000.000000000000000 ) ;
#161 = VERTEX_POINT ( 'NONE', #214 ) ;
#162 = EDGE_LOOP ( 'NONE', ( #218, #337 ) ) ;
#163 = ORIENTED_EDGE ( 'NONE', *, *, #164, .F. ) ;
#164 = EDGE_CURVE ( 'NONE', #207, #243, #287, .T. ) ;
#165 = CARTESIAN_POINT ( 'NONE',  ( 0.000000000000000000, 0.000000000000000000, 657.0000000000000000 ) ) ;
#166 = AXIS2_PLACEMENT_3D ( 'NONE', #199, #317, #85 ) ;
#167 = CARTESIAN_POINT ( 'NONE',  ( 6.000000000000000888, 7.347880794884120722E-16, 657.0000000000000000 ) ) ;
#168 = CC_DESIGN_PERSON_AND_ORGANIZATION_ASSIGNMENT ( #59, #269, ( #101 ) ) ;
#169 = CARTESIAN_POINT ( 'NONE',  ( -10.00000000000000000, 0.000000000000000000, 7.000000000000000000 ) ) ;
#170 = ORIENTED_EDGE ( 'NONE', *, *, #139, .F. ) ;
#171 = CARTESIAN_POINT ( 'NONE',  ( 6.000000000000000888, 7.347880794884120722E-16, 657.0000000000000000 ) ) ;
#172 = CARTESIAN_POINT ( 'NONE',  ( -6.000000000000000888, 0.000000000000000000, 657.0000000000000000 ) ) ;
#173 = CC_DESIGN_SECURITY_CLASSIFICATION ( #302, ( #101 ) ) ;
#174 = EDGE_CURVE ( 'NONE', #161, #369, #368, .T. ) ;
#175 = DIRECTION ( 'NONE',  ( 1.000000000000000000, 0.000000000000000000, 0.000000000000000000 ) ) ;
#176 = AXIS2_PLACEMENT_3D ( 'NONE', #202, #25, #205 ) ;
#177 = CARTESIAN_POINT ( 'NONE',  ( 6.500000000000000888, 0.000000000000000000, 7.499999999999951150 ) ) ;
#178 = CARTESIAN_POINT ( 'NONE',  ( 0.000000000000000000, 0.000000000000000000, 7.000000000000000000 ) ) ;
#179 = CC_DESIGN_APPROVAL ( #26, ( #302 ) ) ;
#180 = COORDINATED_UNIVERSAL_TIME_OFFSET ( 1, 0, .AHEAD. ) ;
#181 = AXIS2_PLACEMENT_3D ( 'NONE', #258, #351, #320 ) ;
#182 =( NAMED_UNIT ( * ) PLANE_ANGLE_UNIT ( ) SI_UNIT ( $, .RADIAN. ) );
#183 = EDGE_CURVE ( 'NONE', #240, #161, #257, .T. ) ;
#184 = PERSON_AND_ORGANIZATION_ROLE ( 'design_owner' ) ;
#185 = ORIENTED_EDGE ( 'NONE', *, *, #174, .F. ) ;
#186 = APPROVAL_STATUS ( 'not_yet_approved' ) ;
#187 = VECTOR ( 'NONE', #225, 1000.000000000000000 ) ;
#188 = EDGE_LOOP ( 'NONE', ( #310, #300 ) ) ;
#189 = EDGE_CURVE ( 'NONE', #243, #331, #294, .T. ) ;
#190 = EDGE_LOOP ( 'NONE', ( #35, #157, #120, #163 ) ) ;
#191 = CC_DESIGN_APPROVAL ( #358, ( #113 ) ) ;
#192 = APPROVAL_DATE_TIME ( #365, #26 ) ;
#193 = DIRECTION ( 'NONE',  ( 0.000000000000000000, 0.000000000000000000, -1.000000000000000000 ) ) ;
#194 = CARTESIAN_POINT ( 'NONE',  ( 6.500000000000000888, 0.000000000000000000, 6.999999999999975131 ) ) ;
#195 = AXIS2_PLACEMENT_3D ( 'NONE', #22, #289, #146 ) ;
#196 = DIRECTION ( 'NONE',  ( 1.000000000000000000, 0.000000000000000000, 0.000000000000000000 ) ) ;
#197 = DIRECTION ( 'NONE',  ( -1.000000000000000000, 0.000000000000000000, 0.000000000000000000 ) ) ;
#198 = CARTESIAN_POINT ( 'NONE',  ( 10.00000000000000000, 1.224646799147353256E-15, 7.000000000000000000 ) ) ;
#199 = CARTESIAN_POINT ( 'NONE',  ( 0.000000000000000000, 0.000000000000000000, 0.000000000000000000 ) ) ;
#200 = EDGE_CURVE ( 'NONE', #13, #366, #124, .T. ) ;
#201 = PLANE ( 'NONE',  #132 ) ;
#202 = CARTESIAN_POINT ( 'NONE',  ( 0.000000000000000000, 0.000000000000000000, 7.000000000000000000 ) ) ;
#203 = CC_DESIGN_PERSON_AND_ORGANIZATION_ASSIGNMENT ( #31, #36, ( #302 ) ) ;
#204 = AXIS2_PLACEMENT_3D ( 'NONE', #20, #144, #345 ) ;
#205 = DIRECTION ( 'NONE',  ( -1.000000000000000000, 0.000000000000000000, 0.000000000000000000 ) ) ;
#206 = PERSON_AND_ORGANIZATION ( #292, #256 ) ;
#207 = VERTEX_POINT ( 'NONE', #172 ) ;
#208 = APPROVAL_ROLE ( '' ) ;
#209 = AXIS2_PLACEMENT_3D ( 'NONE', #177, #322, #375 ) ;
#210 = EDGE_CURVE ( 'NONE', #331, #243, #51, .T. ) ;
#211 = EDGE_LOOP ( 'NONE', ( #170, #185 ) ) ;
#212 = EDGE_LOOP ( 'NONE', ( #246, #131 ) ) ;
#213 = ORIENTED_EDGE ( 'NONE', *, *, #65, .F. ) ;
#214 = CARTESIAN_POINT ( 'NONE',  ( 3.000000000000000444, 3.673940397442060361E-16, 0.000000000000000000 ) ) ;
#215 = CIRCLE ( 'NONE', #49, 6.000000000000000888 ) ;
#216 = AXIS2_PLACEMENT_3D ( 'NONE', #28, #77, #261 ) ;
#217 = ORIENTED_EDGE ( 'NONE', *, *, #164, .T. ) ;
#218 = ORIENTED_EDGE ( 'NONE', *, *, #276, .T. ) ;
#219 = ADVANCED_BREP_SHAPE_REPRESENTATION ( '9fe8', ( #122, #128 ), #42 ) ;
#220 = DIRECTION ( 'NONE',  ( 1.000000000000000000, 0.000000000000000000, 0.000000000000000000 ) ) ;
#221 = DIRECTION ( 'NONE',  ( 0.000000000000000000, 0.000000000000000000, 1.000000000000000000 ) ) ;
#222 = AXIS2_PLACEMENT_3D ( 'NONE', #341, #138, #46 ) ;
#223 = CC_DESIGN_PERSON_AND_ORGANIZATION_ASSIGNMENT ( #126, #40, ( #113 ) ) ;
#224 = ORIENTED_EDGE ( 'NONE', *, *, #103, .T. ) ;
#225 = DIRECTION ( 'NONE',  ( 0.000000000000000000, 0.000000000000000000, -1.000000000000000000 ) ) ;
#226 = EDGE_LOOP ( 'NONE', ( #279, #213, #16, #361 ) ) ;
#227 = CYLINDRICAL_SURFACE ( 'NONE', #181, 3.000000000000000444 ) ;
#228 = EDGE_CURVE ( 'NONE', #272, #207, #215, .T. ) ;
#229 = CARTESIAN_POINT ( 'NONE',  ( 10.00000000000000000, 1.224646799147353256E-15, 0.000000000000000000 ) ) ;
#230 = DIRECTION ( 'NONE',  ( 0.000000000000000000, 0.000000000000000000, 1.000000000000000000 ) ) ;
#231 = CC_DESIGN_PERSON_AND_ORGANIZATION_ASSIGNMENT ( #206, #325, ( #101 ) ) ;
#232 = DIRECTION ( 'NONE',  ( 0.000000000000000000, 0.000000000000000000, 1.000000000000000000 ) ) ;
#233 = CARTESIAN_POINT ( 'NONE',  ( 0.000000000000000000, 0.000000000000000000, 657.0000000000000000 ) ) ;
#234 = CALENDAR_DATE ( 2022, 8, 7 ) ;
#235 = DIRECTION ( 'NONE',  ( -0.000000000000000000, -0.000000000000000000, -1.000000000000000000 ) ) ;
#236 = APPROVAL_PERSON_ORGANIZATION ( #12, #305, #208 ) ;
#237 = ORIENTED_EDGE ( 'NONE', *, *, #183, .T. ) ;
#238 = APPROVAL_STATUS ( 'not_yet_approved' ) ;
#239 = ADVANCED_FACE ( 'NONE', ( #259, #318 ), #201, .F. ) ;
#240 = VERTEX_POINT ( 'NONE', #21 ) ;
#241 = APPLICATION_PROTOCOL_DEFINITION ( 'international standard', 'config_control_design', 1994, #298 ) ;
#242 = AXIS2_PLACEMENT_3D ( 'NONE', #99, #72, #220 ) ;
#243 = VERTEX_POINT ( 'NONE', #377 ) ;
#244 = CARTESIAN_POINT ( 'NONE',  ( 0.000000000000000000, 0.000000000000000000, 7.000000000000000000 ) ) ;
#245 = MECHANICAL_CONTEXT ( 'NONE', #142, 'mechanical' ) ;
#246 = ORIENTED_EDGE ( 'NONE', *, *, #200, .T. ) ;
#247 = VERTEX_POINT ( 'NONE', #229 ) ;
#248 = TOROIDAL_SURFACE ( 'NONE', #340, 6.500000000000000888, 0.5000000000000000000 ) ;
#249 = CARTESIAN_POINT ( 'NONE',  ( 0.000000000000000000, 0.000000000000000000, 7.000000000000000000 ) ) ;
#250 = DIRECTION ( 'NONE',  ( 0.000000000000000000, 0.000000000000000000, 1.000000000000000000 ) ) ;
#251 = DIRECTION ( 'NONE',  ( 0.000000000000000000, 0.000000000000000000, 1.000000000000000000 ) ) ;
#252 = DIRECTION ( 'NONE',  ( 0.000000000000000000, 0.000000000000000000, 1.000000000000000000 ) ) ;
#253 = CIRCLE ( 'NONE', #195, 0.5000000000000004441 ) ;
#254 = CIRCLE ( 'NONE', #140, 3.000000000000000444 ) ;
#255 = CARTESIAN_POINT ( 'NONE',  ( -3.000000000000000444, 0.000000000000000000, 657.0000000000000000 ) ) ;
#256 = ORGANIZATION ( 'NEURÈENÝ', 'NEURÈENÝ', '' ) ;
#257 = LINE ( 'NONE', #107, #187 ) ;
#258 = CARTESIAN_POINT ( 'NONE',  ( 0.000000000000000000, 0.000000000000000000, 657.0000000000000000 ) ) ;
#259 = FACE_BOUND ( 'NONE', #211, .T. ) ;
#260 = AXIS2_PLACEMENT_3D ( 'NONE', #178, #24, #265 ) ;
#261 = DIRECTION ( 'NONE',  ( 1.000000000000000000, 0.000000000000000000, 0.000000000000000000 ) ) ;
#262 = DIRECTION ( 'NONE',  ( 1.000000000000000000, 0.000000000000000000, 0.000000000000000000 ) ) ;
#263 = LOCAL_TIME ( 16, 52, 27.00000000000000000, #91 ) ;
#264 = DESIGN_CONTEXT ( 'detailed design', #298, 'design' ) ;
#265 = DIRECTION ( 'NONE',  ( 1.000000000000000000, 0.000000000000000000, 0.000000000000000000 ) ) ;
#266 = AXIS2_PLACEMENT_3D ( 'NONE', #114, #57, #371 ) ;
#267 = PERSON_AND_ORGANIZATION ( #292, #256 ) ;
#268 = ORIENTED_EDGE ( 'NONE', *, *, #189, .T. ) ;
#269 = PERSON_AND_ORGANIZATION_ROLE ( 'design_supplier' ) ;
#270 = ORIENTED_EDGE ( 'NONE', *, *, #284, .T. ) ;
#271 = DIRECTION ( 'NONE',  ( 1.000000000000000000, 0.000000000000000000, 0.000000000000000000 ) ) ;
#272 = VERTEX_POINT ( 'NONE', #171 ) ;
#273 = PERSON_AND_ORGANIZATION ( #292, #256 ) ;
#274 = CARTESIAN_POINT ( 'NONE',  ( 0.000000000000000000, 0.000000000000000000, 657.0000000000000000 ) ) ;
#275 = VECTOR ( 'NONE', #370, 1000.000000000000000 ) ;
#276 = EDGE_CURVE ( 'NONE', #207, #272, #38, .T. ) ;
#277 = EDGE_LOOP ( 'NONE', ( #66, #270, #41, #328 ) ) ;
#278 = DATE_TIME_ROLE ( 'creation_date' ) ;
#279 = ORIENTED_EDGE ( 'NONE', *, *, #134, .F. ) ;
#280 = CYLINDRICAL_SURFACE ( 'NONE', #381, 10.00000000000000000 ) ;
#281 = ORIENTED_EDGE ( 'NONE', *, *, #17, .F. ) ;
#282 = CALENDAR_DATE ( 2022, 8, 7 ) ;
#283 = VECTOR ( 'NONE', #235, 1000.000000000000000 ) ;
#284 = EDGE_CURVE ( 'NONE', #243, #366, #253, .T. ) ;
#285 = LINE ( 'NONE', #169, #275 ) ;
#286 = ADVANCED_FACE ( 'NONE', ( #109 ), #227, .F. ) ;
#287 = LINE ( 'NONE', #314, #160 ) ;
#288 = DIRECTION ( 'NONE',  ( -0.000000000000000000, -0.000000000000000000, -1.000000000000000000 ) ) ;
#289 = DIRECTION ( 'NONE',  ( 1.224646799147353207E-16, 1.000000000000000000, -0.000000000000000000 ) ) ;
#290 = CC_DESIGN_APPROVAL ( #305, ( #101 ) ) ;
#291 = DIRECTION ( 'NONE',  ( 0.000000000000000000, 0.000000000000000000, 1.000000000000000000 ) ) ;
#292 = PERSON ( 'NEURÈENÝ', 'NEURÈENÝ', 'NEURÈENÝ', ('NEURÈENÝ'), ('NEURÈENÝ'), ('NEURÈENÝ') ) ;
#293 = CARTESIAN_POINT ( 'NONE',  ( -10.00000000000000000, 0.000000000000000000, 0.000000000000000000 ) ) ;
#294 = CIRCLE ( 'NONE', #110, 6.000000000000000888 ) ;
#295 = CARTESIAN_POINT ( 'NONE',  ( 0.000000000000000000, 0.000000000000000000, 7.499999999999951150 ) ) ;
#296 = ADVANCED_FACE ( 'NONE', ( #83, #54 ), #111, .T. ) ;
#297 = CARTESIAN_POINT ( 'NONE',  ( -3.000000000000000444, 0.000000000000000000, 0.000000000000000000 ) ) ;
#298 = APPLICATION_CONTEXT ( 'configuration controlled 3d designs of mechanical parts and assemblies' ) ;
#299 = SECURITY_CLASSIFICATION_LEVEL ( 'unclassified' ) ;
#300 = ORIENTED_EDGE ( 'NONE', *, *, #342, .F. ) ;
#301 = DIRECTION ( 'NONE',  ( 1.000000000000000000, 0.000000000000000000, 0.000000000000000000 ) ) ;
#302 = SECURITY_CLASSIFICATION ( '', '', #299 ) ;
#303 = ORIENTED_EDGE ( 'NONE', *, *, #183, .F. ) ;
#304 = PERSON_AND_ORGANIZATION ( #292, #256 ) ;
#305 = APPROVAL ( #238, 'NEURÈENÝ' ) ;
#306 = EDGE_LOOP ( 'NONE', ( #69, #3, #11, #90 ) ) ;
#307 = APPROVAL_ROLE ( '' ) ;
#308 = DIRECTION ( 'NONE',  ( -0.000000000000000000, -0.000000000000000000, -1.000000000000000000 ) ) ;
#309 = CIRCLE ( 'NONE', #242, 10.00000000000000000 ) ;
#310 = ORIENTED_EDGE ( 'NONE', *, *, #335, .F. ) ;
#311 = FACE_OUTER_BOUND ( 'NONE', #277, .T. ) ;
#312 = CARTESIAN_POINT ( 'NONE',  ( 0.000000000000000000, 0.000000000000000000, 657.0000000000000000 ) ) ;
#313 = EDGE_LOOP ( 'NONE', ( #63, #154, #217, #268 ) ) ;
#314 = CARTESIAN_POINT ( 'NONE',  ( -6.000000000000000888, 0.000000000000000000, 657.0000000000000000 ) ) ;
#315 = CARTESIAN_POINT ( 'NONE',  ( 0.000000000000000000, 0.000000000000000000, 657.0000000000000000 ) ) ;
#316 = CIRCLE ( 'NONE', #86, 10.00000000000000000 ) ;
#317 = DIRECTION ( 'NONE',  ( 0.000000000000000000, 0.000000000000000000, 1.000000000000000000 ) ) ;
#318 = FACE_OUTER_BOUND ( 'NONE', #188, .T. ) ;
#319 = CC_DESIGN_PERSON_AND_ORGANIZATION_ASSIGNMENT ( #267, #184, ( #376 ) ) ;
#320 = DIRECTION ( 'NONE',  ( -1.000000000000000000, 0.000000000000000000, 0.000000000000000000 ) ) ;
#321 = AXIS2_PLACEMENT_3D ( 'NONE', #274, #60, #378 ) ;
#322 = DIRECTION ( 'NONE',  ( 0.000000000000000000, -1.000000000000000000, 0.000000000000000000 ) ) ;
#323 = CARTESIAN_POINT ( 'NONE',  ( 0.000000000000000000, 0.000000000000000000, 7.499999999999951150 ) ) ;
#324 = DIRECTION ( 'NONE',  ( 0.000000000000000000, 0.000000000000000000, 1.000000000000000000 ) ) ;
#325 = PERSON_AND_ORGANIZATION_ROLE ( 'creator' ) ;
#326 = ORIENTED_EDGE ( 'NONE', *, *, #284, .F. ) ;
#327 = APPROVAL_DATE_TIME ( #88, #305 ) ;
#328 = ORIENTED_EDGE ( 'NONE', *, *, #353, .F. ) ;
#329 = DIRECTION ( 'NONE',  ( -1.000000000000000000, 0.000000000000000000, 0.000000000000000000 ) ) ;
#330 = DIRECTION ( 'NONE',  ( 0.000000000000000000, 0.000000000000000000, -1.000000000000000000 ) ) ;
#331 = VERTEX_POINT ( 'NONE', #81 ) ;
#332 = CC_DESIGN_DATE_AND_TIME_ASSIGNMENT ( #5, #278, ( #113 ) ) ;
#333 = CIRCLE ( 'NONE', #39, 10.00000000000000000 ) ;
#334 = EDGE_LOOP ( 'NONE', ( #303, #127, #224, #105 ) ) ;
#335 = EDGE_CURVE ( 'NONE', #343, #247, #316, .T. ) ;
#336 = LOCAL_TIME ( 16, 52, 27.00000000000000000, #95 ) ;
#337 = ORIENTED_EDGE ( 'NONE', *, *, #228, .T. ) ;
#338 = CARTESIAN_POINT ( 'NONE',  ( 0.000000000000000000, 0.000000000000000000, 0.000000000000000000 ) ) ;
#339 = DIRECTION ( 'NONE',  ( 1.000000000000000000, 0.000000000000000000, 0.000000000000000000 ) ) ;
#340 = AXIS2_PLACEMENT_3D ( 'NONE', #323, #147, #96 ) ;
#341 = CARTESIAN_POINT ( 'NONE',  ( 0.000000000000000000, 0.000000000000000000, 657.0000000000000000 ) ) ;
#342 = EDGE_CURVE ( 'NONE', #247, #343, #148, .T. ) ;
#343 = VERTEX_POINT ( 'NONE', #293 ) ;
#344 = LOCAL_TIME ( 16, 52, 27.00000000000000000, #2 ) ;
#345 = DIRECTION ( 'NONE',  ( 1.000000000000000000, 0.000000000000000000, 0.000000000000000000 ) ) ;
#346 = FACE_OUTER_BOUND ( 'NONE', #32, .T. ) ;
#347 = CARTESIAN_POINT ( 'NONE',  ( 0.000000000000000000, 0.000000000000000000, 0.000000000000000000 ) ) ;
#348 = AXIS2_PLACEMENT_3D ( 'NONE', #151, #232, #145 ) ;
#349 = DIRECTION ( 'NONE',  ( 0.000000000000000000, 0.000000000000000000, 1.000000000000000000 ) ) ;
#350 = DIRECTION ( 'NONE',  ( 0.000000000000000000, 0.000000000000000000, 1.000000000000000000 ) ) ;
#351 = DIRECTION ( 'NONE',  ( 0.000000000000000000, 0.000000000000000000, -1.000000000000000000 ) ) ;
#352 = FACE_OUTER_BOUND ( 'NONE', #306, .T. ) ;
#353 = EDGE_CURVE ( 'NONE', #331, #13, #374, .T. ) ;
#354 = DIRECTION ( 'NONE',  ( -0.000000000000000000, -0.000000000000000000, -1.000000000000000000 ) ) ;
#355 = CALENDAR_DATE ( 2022, 8, 7 ) ;
#356 = DATE_AND_TIME ( #121, #344 ) ;
#357 =( LENGTH_UNIT ( ) NAMED_UNIT ( * ) SI_UNIT ( .MILLI., .METRE. ) );
#358 = APPROVAL ( #186, 'NEURÈENÝ' ) ;
#359 = APPROVAL_ROLE ( '' ) ;
#360 = ORIENTED_EDGE ( 'NONE', *, *, #363, .F. ) ;
#361 = ORIENTED_EDGE ( 'NONE', *, *, #335, .T. ) ;
#362 = AXIS2_PLACEMENT_3D ( 'NONE', #43, #250, #108 ) ;
#363 = EDGE_CURVE ( 'NONE', #366, #13, #44, .T. ) ;
#364 = DIRECTION ( 'NONE',  ( 1.000000000000000000, 0.000000000000000000, 0.000000000000000000 ) ) ;
#365 = DATE_AND_TIME ( #282, #336 ) ;
#366 = VERTEX_POINT ( 'NONE', #53 ) ;
#367 = ADVANCED_FACE ( 'NONE', ( #149 ), #112, .T. ) ;
#368 = CIRCLE ( 'NONE', #204, 3.000000000000000444 ) ;
#369 = VERTEX_POINT ( 'NONE', #297 ) ;
#370 = DIRECTION ( 'NONE',  ( -0.000000000000000000, -0.000000000000000000, -1.000000000000000000 ) ) ;
#371 = DIRECTION ( 'NONE',  ( 1.000000000000000000, 0.000000000000000000, -0.000000000000000000 ) ) ;
#372 = DIRECTION ( 'NONE',  ( 1.000000000000000000, 0.000000000000000000, 0.000000000000000000 ) ) ;
#373 = ADVANCED_FACE ( 'NONE', ( #379 ), #115, .T. ) ;
#374 = CIRCLE ( 'NONE', #209, 0.5000000000000004441 ) ;
#375 = DIRECTION ( 'NONE',  ( 0.000000000000000000, 0.000000000000000000, -1.000000000000000000 ) ) ;
#376 = PRODUCT ( '9fe8', '9fe8', '', ( #245 ) ) ;
#377 = CARTESIAN_POINT ( 'NONE',  ( -6.000000000000000888, 0.000000000000000000, 7.499999999999951150 ) ) ;
#378 = DIRECTION ( 'NONE',  ( -1.000000000000000000, 0.000000000000000000, 0.000000000000000000 ) ) ;
#379 = FACE_OUTER_BOUND ( 'NONE', #190, .T. ) ;
#380 = LINE ( 'NONE', #116, #153 ) ;
#381 = AXIS2_PLACEMENT_3D ( 'NONE', #244, #4, #98 ) ;
ENDSEC;
END-ISO-10303-21;
