ISO-10303-21;
HEADER;
FILE_DESCRIPTION (( 'STEP AP203' ),
    '1' );
FILE_NAME ('bcbc.STEP',
    '2022-07-08T14:21:17',
    ( '' ),
    ( '' ),
    'SwSTEP 2.0',
    'SolidWorks 2019',
    '' );
FILE_SCHEMA (( 'CONFIG_CONTROL_DESIGN' ));
ENDSEC;

DATA;
#1 = PERSON_AND_ORGANIZATION_ROLE ( 'classification_officer' ) ;
#2 = EDGE_CURVE ( 'NONE', #228, #98, #260, .T. ) ;
#3 = CIRCLE ( 'NONE', #374, 5.000000000000000000 ) ;
#4 = DIRECTION ( 'NONE',  ( 1.000000000000000000, 0.000000000000000000, 0.000000000000000000 ) ) ;
#5 = DIRECTION ( 'NONE',  ( 1.000000000000000000, 0.000000000000000000, 0.000000000000000000 ) ) ;
#6 = ORIENTED_EDGE ( 'NONE', *, *, #99, .T. ) ;
#7 = AXIS2_PLACEMENT_3D ( 'NONE', #236, #26, #322 ) ;
#8 = AXIS2_PLACEMENT_3D ( 'NONE', #300, #153, #354 ) ;
#9 = APPROVAL ( #200, 'NEURÈENÝ' ) ;
#10 = DIRECTION ( 'NONE',  ( 0.000000000000000000, 0.000000000000000000, 1.000000000000000000 ) ) ;
#11 = ORIENTED_EDGE ( 'NONE', *, *, #215, .F. ) ;
#12 = APPROVAL_PERSON_ORGANIZATION ( #116, #106, #353 ) ;
#13 = EDGE_LOOP ( 'NONE', ( #41, #201, #363, #345 ) ) ;
#14 = DIRECTION ( 'NONE',  ( 0.000000000000000000, 0.000000000000000000, -1.000000000000000000 ) ) ;
#15 = ORIENTED_EDGE ( 'NONE', *, *, #53, .F. ) ;
#16 = VECTOR ( 'NONE', #174, 1000.000000000000000 ) ;
#17 = DIRECTION ( 'NONE',  ( -0.000000000000000000, -0.000000000000000000, -1.000000000000000000 ) ) ;
#18 = CC_DESIGN_APPROVAL ( #9, ( #147 ) ) ;
#19 = DIRECTION ( 'NONE',  ( 1.000000000000000000, 0.000000000000000000, 0.000000000000000000 ) ) ;
#20 = DIRECTION ( 'NONE',  ( 0.000000000000000000, -1.000000000000000000, 0.000000000000000000 ) ) ;
#21 = DIRECTION ( 'NONE',  ( -0.000000000000000000, -0.000000000000000000, -1.000000000000000000 ) ) ;
#22 = EDGE_CURVE ( 'NONE', #231, #359, #113, .T. ) ;
#23 = VECTOR ( 'NONE', #303, 1000.000000000000000 ) ;
#24 = CALENDAR_DATE ( 2022, 8, 7 ) ;
#25 = CARTESIAN_POINT ( 'NONE',  ( 5.000000000000000000, 6.123233995736766282E-16, 807.0000000000000000 ) ) ;
#26 = DIRECTION ( 'NONE',  ( -0.000000000000000000, -0.000000000000000000, -1.000000000000000000 ) ) ;
#27 = CC_DESIGN_PERSON_AND_ORGANIZATION_ASSIGNMENT ( #148, #1, ( #361 ) ) ;
#28 = CARTESIAN_POINT ( 'NONE',  ( -5.000000000000000000, 0.000000000000000000, 807.0000000000000000 ) ) ;
#29 = LOCAL_TIME ( 16, 21, 17.00000000000000000, #243 ) ;
#30 = CALENDAR_DATE ( 2022, 8, 7 ) ;
#31 = ORIENTED_EDGE ( 'NONE', *, *, #215, .T. ) ;
#32 = DIRECTION ( 'NONE',  ( -1.000000000000000000, 0.000000000000000000, 0.000000000000000000 ) ) ;
#33 = AXIS2_PLACEMENT_3D ( 'NONE', #256, #338, #190 ) ;
#34 = COORDINATED_UNIVERSAL_TIME_OFFSET ( 1, 0, .AHEAD. ) ;
#35 = CARTESIAN_POINT ( 'NONE',  ( 0.000000000000000000, 0.000000000000000000, 807.0000000000000000 ) ) ;
#36 = LOCAL_TIME ( 16, 21, 17.00000000000000000, #291 ) ;
#37 = DATE_AND_TIME ( #30, #117 ) ;
#38 = CARTESIAN_POINT ( 'NONE',  ( 0.000000000000000000, 0.000000000000000000, 7.700000000000040146 ) ) ;
#39 = CC_DESIGN_PERSON_AND_ORGANIZATION_ASSIGNMENT ( #351, #59, ( #335 ) ) ;
#40 = VECTOR ( 'NONE', #324, 1000.000000000000000 ) ;
#41 = ORIENTED_EDGE ( 'NONE', *, *, #340, .F. ) ;
#42 = DIRECTION ( 'NONE',  ( 1.000000000000000000, 0.000000000000000000, 0.000000000000000000 ) ) ;
#43 = EDGE_LOOP ( 'NONE', ( #254, #46, #159, #70 ) ) ;
#44 = VERTEX_POINT ( 'NONE', #204 ) ;
#45 = VERTEX_POINT ( 'NONE', #25 ) ;
#46 = ORIENTED_EDGE ( 'NONE', *, *, #317, .F. ) ;
#47 = LINE ( 'NONE', #289, #49 ) ;
#48 = APPROVAL ( #270, 'NEURÈENÝ' ) ;
#49 = VECTOR ( 'NONE', #319, 1000.000000000000000 ) ;
#50 = FACE_OUTER_BOUND ( 'NONE', #101, .T. ) ;
#51 = AXIS2_PLACEMENT_3D ( 'NONE', #336, #346, #347 ) ;
#52 = PERSON_AND_ORGANIZATION ( #263, #158 ) ;
#53 = EDGE_CURVE ( 'NONE', #44, #315, #47, .T. ) ;
#54 = CARTESIAN_POINT ( 'NONE',  ( 0.000000000000000000, 0.000000000000000000, 7.000000000000000000 ) ) ;
#55 = CARTESIAN_POINT ( 'NONE',  ( 5.000000000000000000, 6.123233995736766282E-16, 0.000000000000000000 ) ) ;
#56 = PERSON_AND_ORGANIZATION ( #263, #158 ) ;
#57 = AXIS2_PLACEMENT_3D ( 'NONE', #84, #290, #112 ) ;
#58 = CARTESIAN_POINT ( 'NONE',  ( 0.000000000000000000, 0.000000000000000000, 7.000000000000000000 ) ) ;
#59 = PERSON_AND_ORGANIZATION_ROLE ( 'creator' ) ;
#60 = FACE_OUTER_BOUND ( 'NONE', #13, .T. ) ;
#61 = APPROVAL_PERSON_ORGANIZATION ( #78, #9, #145 ) ;
#62 = EDGE_LOOP ( 'NONE', ( #161, #107 ) ) ;
#63 = DIRECTION ( 'NONE',  ( 0.000000000000000000, 0.000000000000000000, 1.000000000000000000 ) ) ;
#64 = SECURITY_CLASSIFICATION_LEVEL ( 'unclassified' ) ;
#65 = CYLINDRICAL_SURFACE ( 'NONE', #261, 7.000000000000000888 ) ;
#66 = DIRECTION ( 'NONE',  ( 1.000000000000000000, 0.000000000000000000, 0.000000000000000000 ) ) ;
#67 = ADVANCED_FACE ( 'NONE', ( #262 ), #265, .T. ) ;
#68 = CC_DESIGN_APPROVAL ( #106, ( #335 ) ) ;
#69 = CARTESIAN_POINT ( 'NONE',  ( 0.000000000000000000, 0.000000000000000000, 7.000000000000000000 ) ) ;
#70 = ORIENTED_EDGE ( 'NONE', *, *, #22, .T. ) ;
#71 = TOROIDAL_SURFACE ( 'NONE', #308, 7.700000000000001066, 0.6999999999999999556 ) ;
#72 = ORIENTED_EDGE ( 'NONE', *, *, #340, .T. ) ;
#73 = AXIS2_PLACEMENT_3D ( 'NONE', #240, #208, #176 ) ;
#74 = MANIFOLD_SOLID_BREP ( 'Odebrat vysunutím3', #127 ) ;
#75 = DIRECTION ( 'NONE',  ( 1.000000000000000000, 0.000000000000000000, 0.000000000000000000 ) ) ;
#76 = EDGE_LOOP ( 'NONE', ( #198, #355, #124, #6 ) ) ;
#77 = ORIENTED_EDGE ( 'NONE', *, *, #162, .T. ) ;
#78 = PERSON_AND_ORGANIZATION ( #263, #158 ) ;
#79 = ORIENTED_EDGE ( 'NONE', *, *, #317, .T. ) ;
#80 = EDGE_CURVE ( 'NONE', #44, #372, #234, .T. ) ;
#81 = DIRECTION ( 'NONE',  ( 1.000000000000000000, 0.000000000000000000, 0.000000000000000000 ) ) ;
#82 = CARTESIAN_POINT ( 'NONE',  ( -11.00000000000000000, 0.000000000000000000, 7.000000000000000000 ) ) ;
#83 = CARTESIAN_POINT ( 'NONE',  ( 7.000000000000000888, 8.572527594031474176E-16, 807.0000000000000000 ) ) ;
#84 = CARTESIAN_POINT ( 'NONE',  ( 0.000000000000000000, 0.000000000000000000, 807.0000000000000000 ) ) ;
#85 = TOROIDAL_SURFACE ( 'NONE', #306, 7.700000000000001066, 0.6999999999999999556 ) ;
#86 = CYLINDRICAL_SURFACE ( 'NONE', #8, 5.000000000000000000 ) ;
#87 = PERSON_AND_ORGANIZATION_ROLE ( 'design_supplier' ) ;
#88 = CARTESIAN_POINT ( 'NONE',  ( 0.000000000000000000, 0.000000000000000000, 807.0000000000000000 ) ) ;
#89 = EDGE_LOOP ( 'NONE', ( #191, #77, #251, #15 ) ) ;
#90 = DIRECTION ( 'NONE',  ( -0.000000000000000000, -0.000000000000000000, -1.000000000000000000 ) ) ;
#91 = PRODUCT ( 'bcbc', 'bcbc', '', ( #175 ) ) ;
#92 = EDGE_CURVE ( 'NONE', #365, #231, #142, .T. ) ;
#93 = FACE_OUTER_BOUND ( 'NONE', #281, .T. ) ;
#94 = VERTEX_POINT ( 'NONE', #55 ) ;
#95 = AXIS2_PLACEMENT_3D ( 'NONE', #295, #90, #149 ) ;
#96 = DIRECTION ( 'NONE',  ( -1.000000000000000000, 0.000000000000000000, 0.000000000000000000 ) ) ;
#97 = CC_DESIGN_APPROVAL ( #48, ( #361 ) ) ;
#98 = VERTEX_POINT ( 'NONE', #173 ) ;
#99 = EDGE_CURVE ( 'NONE', #309, #94, #244, .T. ) ;
#100 = DIRECTION ( 'NONE',  ( -1.000000000000000000, 0.000000000000000000, 0.000000000000000000 ) ) ;
#101 = EDGE_LOOP ( 'NONE', ( #185, #136, #368, #252 ) ) ;
#102 = CIRCLE ( 'NONE', #323, 11.00000000000000000 ) ;
#103 = PLANE ( 'NONE',  #199 ) ;
#104 = ORIENTED_EDGE ( 'NONE', *, *, #276, .T. ) ;
#105 = CARTESIAN_POINT ( 'NONE',  ( 5.000000000000000000, 6.123233995736766282E-16, 807.0000000000000000 ) ) ;
#106 = APPROVAL ( #334, 'NEURÈENÝ' ) ;
#107 = ORIENTED_EDGE ( 'NONE', *, *, #135, .F. ) ;
#108 = AXIS2_PLACEMENT_3D ( 'NONE', #246, #214, #5 ) ;
#109 = FACE_OUTER_BOUND ( 'NONE', #370, .T. ) ;
#110 = APPLICATION_CONTEXT ( 'configuration controlled 3d designs of mechanical parts and assemblies' ) ;
#111 = PERSON_AND_ORGANIZATION_ROLE ( 'design_owner' ) ;
#112 = DIRECTION ( 'NONE',  ( 1.000000000000000000, 0.000000000000000000, -0.000000000000000000 ) ) ;
#113 = CIRCLE ( 'NONE', #376, 11.00000000000000000 ) ;
#114 = PERSON_AND_ORGANIZATION_ROLE ( 'creator' ) ;
#115 = DIRECTION ( 'NONE',  ( 1.000000000000000000, 0.000000000000000000, 0.000000000000000000 ) ) ;
#116 = PERSON_AND_ORGANIZATION ( #263, #158 ) ;
#117 = LOCAL_TIME ( 16, 21, 17.00000000000000000, #34 ) ;
#118 = PLANE ( 'NONE',  #57 ) ;
#119 = ADVANCED_FACE ( 'NONE', ( #50 ), #85, .F. ) ;
#120 = CARTESIAN_POINT ( 'NONE',  ( -7.700000000000001066, 9.429780353434621002E-16, 7.000000000000020428 ) ) ;
#121 = AXIS2_PLACEMENT_3D ( 'NONE', #138, #21, #373 ) ;
#122 = DIRECTION ( 'NONE',  ( -0.000000000000000000, -0.000000000000000000, -1.000000000000000000 ) ) ;
#123 = VECTOR ( 'NONE', #212, 1000.000000000000000 ) ;
#124 = ORIENTED_EDGE ( 'NONE', *, *, #178, .T. ) ;
#125 = ADVANCED_FACE ( 'NONE', ( #177, #109 ), #350, .T. ) ;
#126 = DIRECTION ( 'NONE',  ( 0.000000000000000000, 0.000000000000000000, 1.000000000000000000 ) ) ;
#127 = CLOSED_SHELL ( 'NONE', ( #369, #259, #287, #224, #67, #125, #278, #248, #168, #119, #188 ) ) ;
#128 = FACE_OUTER_BOUND ( 'NONE', #89, .T. ) ;
#129 = EDGE_LOOP ( 'NONE', ( #218, #313 ) ) ;
#130 = FACE_BOUND ( 'NONE', #331, .T. ) ;
#131 = VERTEX_POINT ( 'NONE', #28 ) ;
#132 = CARTESIAN_POINT ( 'NONE',  ( 0.000000000000000000, 0.000000000000000000, 807.0000000000000000 ) ) ;
#133 = ORIENTED_EDGE ( 'NONE', *, *, #272, .T. ) ;
#134 = ORIENTED_EDGE ( 'NONE', *, *, #209, .F. ) ;
#135 = EDGE_CURVE ( 'NONE', #359, #231, #189, .T. ) ;
#136 = ORIENTED_EDGE ( 'NONE', *, *, #301, .F. ) ;
#137 = DATE_TIME_ROLE ( 'creation_date' ) ;
#138 = CARTESIAN_POINT ( 'NONE',  ( 0.000000000000000000, 0.000000000000000000, 0.000000000000000000 ) ) ;
#139 = AXIS2_PLACEMENT_3D ( 'NONE', #54, #268, #293 ) ;
#140 =( NAMED_UNIT ( * ) SI_UNIT ( $, .STERADIAN. ) SOLID_ANGLE_UNIT ( ) );
#141 = CC_DESIGN_PERSON_AND_ORGANIZATION_ASSIGNMENT ( #52, #111, ( #91 ) ) ;
#142 = LINE ( 'NONE', #82, #40 ) ;
#143 = DIRECTION ( 'NONE',  ( 0.000000000000000000, 0.000000000000000000, 1.000000000000000000 ) ) ;
#144 = DIRECTION ( 'NONE',  ( 1.000000000000000000, 0.000000000000000000, 0.000000000000000000 ) ) ;
#145 = APPROVAL_ROLE ( '' ) ;
#146 = CARTESIAN_POINT ( 'NONE',  ( 0.000000000000000000, 0.000000000000000000, 0.000000000000000000 ) ) ;
#147 = PRODUCT_DEFINITION ( 'NEZNÁMÝ', '', #335, #337 ) ;
#148 = PERSON_AND_ORGANIZATION ( #263, #158 ) ;
#149 = DIRECTION ( 'NONE',  ( 1.000000000000000000, 0.000000000000000000, 0.000000000000000000 ) ) ;
#150 = APPLICATION_CONTEXT ( 'configuration controlled 3d designs of mechanical parts and assemblies' ) ;
#151 = CYLINDRICAL_SURFACE ( 'NONE', #221, 11.00000000000000000 ) ;
#152 = DATE_AND_TIME ( #302, #181 ) ;
#153 = DIRECTION ( 'NONE',  ( 0.000000000000000000, 0.000000000000000000, -1.000000000000000000 ) ) ;
#154 = AXIS2_PLACEMENT_3D ( 'NONE', #38, #271, #280 ) ;
#155 = CC_DESIGN_DATE_AND_TIME_ASSIGNMENT ( #217, #294, ( #361 ) ) ;
#156 = CIRCLE ( 'NONE', #367, 7.000000000000000888 ) ;
#157 = DIRECTION ( 'NONE',  ( -0.000000000000000000, -0.000000000000000000, -1.000000000000000000 ) ) ;
#158 = ORGANIZATION ( 'NEURÈENÝ', 'NEURÈENÝ', '' ) ;
#159 = ORIENTED_EDGE ( 'NONE', *, *, #92, .T. ) ;
#160 = DIRECTION ( 'NONE',  ( 1.000000000000000000, 0.000000000000000000, 0.000000000000000000 ) ) ;
#161 = ORIENTED_EDGE ( 'NONE', *, *, #22, .F. ) ;
#162 = EDGE_CURVE ( 'NONE', #372, #228, #241, .T. ) ;
#163 = CYLINDRICAL_SURFACE ( 'NONE', #273, 5.000000000000000000 ) ;
#164 = ORIENTED_EDGE ( 'NONE', *, *, #272, .F. ) ;
#165 = ORIENTED_EDGE ( 'NONE', *, *, #80, .T. ) ;
#166 = CARTESIAN_POINT ( 'NONE',  ( -7.000000000000000888, 0.000000000000000000, 7.700000000000040146 ) ) ;
#167 = ORIENTED_EDGE ( 'NONE', *, *, #229, .F. ) ;
#168 = ADVANCED_FACE ( 'NONE', ( #320, #269 ), #118, .T. ) ;
#169 = CIRCLE ( 'NONE', #255, 11.00000000000000000 ) ;
#170 = CARTESIAN_POINT ( 'NONE',  ( 0.000000000000000000, 0.000000000000000000, 807.0000000000000000 ) ) ;
#171 = ORIENTED_EDGE ( 'NONE', *, *, #2, .F. ) ;
#172 = DATE_AND_TIME ( #318, #242 ) ;
#173 = CARTESIAN_POINT ( 'NONE',  ( 7.700000000000001066, 0.000000000000000000, 7.000000000000020428 ) ) ;
#174 = DIRECTION ( 'NONE',  ( -0.000000000000000000, -0.000000000000000000, -1.000000000000000000 ) ) ;
#175 = MECHANICAL_CONTEXT ( 'NONE', #110, 'mechanical' ) ;
#176 = DIRECTION ( 'NONE',  ( 1.000000000000000000, 0.000000000000000000, 0.000000000000000000 ) ) ;
#177 = FACE_BOUND ( 'NONE', #129, .T. ) ;
#178 = EDGE_CURVE ( 'NONE', #131, #309, #237, .T. ) ;
#179 = CIRCLE ( 'NONE', #108, 5.000000000000000000 ) ;
#180 = DIRECTION ( 'NONE',  ( -1.000000000000000000, 0.000000000000000000, 0.000000000000000000 ) ) ;
#181 = LOCAL_TIME ( 16, 21, 17.00000000000000000, #211 ) ;
#182 = PERSON_AND_ORGANIZATION ( #263, #158 ) ;
#183 = AXIS2_PLACEMENT_3D ( 'NONE', #284, #227, #42 ) ;
#184 = CARTESIAN_POINT ( 'NONE',  ( 11.00000000000000000, 1.347111479062088405E-15, 7.000000000000000000 ) ) ;
#185 = ORIENTED_EDGE ( 'NONE', *, *, #379, .F. ) ;
#186 = CARTESIAN_POINT ( 'NONE',  ( 11.00000000000000000, 1.347111479062088405E-15, 7.000000000000000000 ) ) ;
#187 = ORIENTED_EDGE ( 'NONE', *, *, #99, .F. ) ;
#188 = ADVANCED_FACE ( 'NONE', ( #358 ), #86, .F. ) ;
#189 = CIRCLE ( 'NONE', #205, 11.00000000000000000 ) ;
#190 = DIRECTION ( 'NONE',  ( 1.000000000000000000, 0.000000000000000000, 0.000000000000000000 ) ) ;
#191 = ORIENTED_EDGE ( 'NONE', *, *, #352, .F. ) ;
#192 = AXIS2_PLACEMENT_3D ( 'NONE', #330, #328, #160 ) ;
#193 = CARTESIAN_POINT ( 'NONE',  ( 0.000000000000000000, 0.000000000000000000, 7.000000000000000000 ) ) ;
#194 = ORIENTED_EDGE ( 'NONE', *, *, #53, .T. ) ;
#195 = CARTESIAN_POINT ( 'NONE',  ( 0.000000000000000000, 0.000000000000000000, 807.0000000000000000 ) ) ;
#196 = DIRECTION ( 'NONE',  ( 0.000000000000000000, 0.000000000000000000, -1.000000000000000000 ) ) ;
#197 = FACE_OUTER_BOUND ( 'NONE', #257, .T. ) ;
#198 = ORIENTED_EDGE ( 'NONE', *, *, #276, .F. ) ;
#199 = AXIS2_PLACEMENT_3D ( 'NONE', #277, #10, #230 ) ;
#200 = APPROVAL_STATUS ( 'not_yet_approved' ) ;
#201 = ORIENTED_EDGE ( 'NONE', *, *, #266, .T. ) ;
#202 = DIRECTION ( 'NONE',  ( 0.000000000000000000, 0.000000000000000000, 1.000000000000000000 ) ) ;
#203 =( LENGTH_UNIT ( ) NAMED_UNIT ( * ) SI_UNIT ( .MILLI., .METRE. ) );
#204 = CARTESIAN_POINT ( 'NONE',  ( -7.000000000000000888, 0.000000000000000000, 807.0000000000000000 ) ) ;
#205 = AXIS2_PLACEMENT_3D ( 'NONE', #146, #378, #115 ) ;
#206 = AXIS2_PLACEMENT_3D ( 'NONE', #132, #17, #100 ) ;
#207 = CIRCLE ( 'NONE', #33, 7.700000000000001066 ) ;
#208 = DIRECTION ( 'NONE',  ( 0.000000000000000000, 0.000000000000000000, 1.000000000000000000 ) ) ;
#209 = EDGE_CURVE ( 'NONE', #45, #131, #179, .T. ) ;
#210 = DIRECTION ( 'NONE',  ( 0.000000000000000000, 0.000000000000000000, 1.000000000000000000 ) ) ;
#211 = COORDINATED_UNIVERSAL_TIME_OFFSET ( 1, 0, .AHEAD. ) ;
#212 = DIRECTION ( 'NONE',  ( 0.000000000000000000, 0.000000000000000000, -1.000000000000000000 ) ) ;
#213 = AXIS2_PLACEMENT_3D ( 'NONE', #238, #143, #348 ) ;
#214 = DIRECTION ( 'NONE',  ( 0.000000000000000000, 0.000000000000000000, 1.000000000000000000 ) ) ;
#215 = EDGE_CURVE ( 'NONE', #94, #309, #283, .T. ) ;
#216 = PRODUCT_DEFINITION_SHAPE ( 'NONE', 'NONE',  #147 ) ;
#217 = DATE_AND_TIME ( #326, #29 ) ;
#218 = ORIENTED_EDGE ( 'NONE', *, *, #356, .T. ) ;
#219 = FACE_OUTER_BOUND ( 'NONE', #343, .T. ) ;
#220 = ORIENTED_EDGE ( 'NONE', *, *, #379, .T. ) ;
#221 = AXIS2_PLACEMENT_3D ( 'NONE', #58, #122, #32 ) ;
#222 = ORIENTED_EDGE ( 'NONE', *, *, #162, .F. ) ;
#223 = CARTESIAN_POINT ( 'NONE',  ( 7.000000000000000888, 8.572527594031474176E-16, 807.0000000000000000 ) ) ;
#224 = ADVANCED_FACE ( 'NONE', ( #60 ), #151, .T. ) ;
#225 = DIRECTION ( 'NONE',  ( 1.000000000000000000, 0.000000000000000000, 0.000000000000000000 ) ) ;
#226 = VERTEX_POINT ( 'NONE', #120 ) ;
#227 = DIRECTION ( 'NONE',  ( 0.000000000000000000, 0.000000000000000000, 1.000000000000000000 ) ) ;
#228 = VERTEX_POINT ( 'NONE', #274 ) ;
#229 = EDGE_CURVE ( 'NONE', #131, #45, #3, .T. ) ;
#230 = DIRECTION ( 'NONE',  ( 1.000000000000000000, 0.000000000000000000, -0.000000000000000000 ) ) ;
#231 = VERTEX_POINT ( 'NONE', #357 ) ;
#232 = CARTESIAN_POINT ( 'NONE',  ( 11.00000000000000000, 1.347111479062088405E-15, 0.000000000000000000 ) ) ;
#233 = ORIENTED_EDGE ( 'NONE', *, *, #80, .F. ) ;
#234 = CIRCLE ( 'NONE', #213, 7.000000000000000888 ) ;
#235 = ORIENTED_EDGE ( 'NONE', *, *, #229, .T. ) ;
#236 = CARTESIAN_POINT ( 'NONE',  ( 0.000000000000000000, 0.000000000000000000, 7.000000000000000000 ) ) ;
#237 = LINE ( 'NONE', #297, #123 ) ;
#238 = CARTESIAN_POINT ( 'NONE',  ( 0.000000000000000000, 0.000000000000000000, 807.0000000000000000 ) ) ;
#239 = EDGE_CURVE ( 'NONE', #226, #98, #360, .T. ) ;
#240 = CARTESIAN_POINT ( 'NONE',  ( 0.000000000000000000, 0.000000000000000000, 0.000000000000000000 ) ) ;
#241 = LINE ( 'NONE', #83, #16 ) ;
#242 = LOCAL_TIME ( 16, 21, 17.00000000000000000, #371 ) ;
#243 = COORDINATED_UNIVERSAL_TIME_OFFSET ( 1, 0, .AHEAD. ) ;
#244 = CIRCLE ( 'NONE', #121, 5.000000000000000000 ) ;
#245 =( GEOMETRIC_REPRESENTATION_CONTEXT ( 3 ) GLOBAL_UNCERTAINTY_ASSIGNED_CONTEXT ( ( #288 ) ) GLOBAL_UNIT_ASSIGNED_CONTEXT ( ( #203, #267, #140 ) ) REPRESENTATION_CONTEXT ( 'NONE', 'WORKASPACE' ) );
#246 = CARTESIAN_POINT ( 'NONE',  ( 0.000000000000000000, 0.000000000000000000, 807.0000000000000000 ) ) ;
#247 = LINE ( 'NONE', #184, #23 ) ;
#248 = ADVANCED_FACE ( 'NONE', ( #219 ), #65, .T. ) ;
#249 = CC_DESIGN_SECURITY_CLASSIFICATION ( #361, ( #335 ) ) ;
#250 = CARTESIAN_POINT ( 'NONE',  ( -5.000000000000000000, 0.000000000000000000, 0.000000000000000000 ) ) ;
#251 = ORIENTED_EDGE ( 'NONE', *, *, #301, .T. ) ;
#252 = ORIENTED_EDGE ( 'NONE', *, *, #239, .F. ) ;
#253 = CC_DESIGN_PERSON_AND_ORGANIZATION_ASSIGNMENT ( #182, #87, ( #335 ) ) ;
#254 = ORIENTED_EDGE ( 'NONE', *, *, #266, .F. ) ;
#255 = AXIS2_PLACEMENT_3D ( 'NONE', #193, #310, #225 ) ;
#256 = CARTESIAN_POINT ( 'NONE',  ( 0.000000000000000000, 0.000000000000000000, 7.000000000000000000 ) ) ;
#257 = EDGE_LOOP ( 'NONE', ( #235, #104, #31, #305 ) ) ;
#258 = DIRECTION ( 'NONE',  ( 0.000000000000000000, 0.000000000000000000, -1.000000000000000000 ) ) ;
#259 = ADVANCED_FACE ( 'NONE', ( #93 ), #71, .F. ) ;
#260 = CIRCLE ( 'NONE', #327, 0.7000000000000000666 ) ;
#261 = AXIS2_PLACEMENT_3D ( 'NONE', #35, #157, #180 ) ;
#262 = FACE_OUTER_BOUND ( 'NONE', #43, .T. ) ;
#263 = PERSON ( 'NEURÈENÝ', 'NEURÈENÝ', 'NEURÈENÝ', ('NEURÈENÝ'), ('NEURÈENÝ'), ('NEURÈENÝ') ) ;
#264 = DATE_AND_TIME ( #24, #36 ) ;
#265 = CYLINDRICAL_SURFACE ( 'NONE', #7, 11.00000000000000000 ) ;
#266 = EDGE_CURVE ( 'NONE', #279, #359, #247, .T. ) ;
#267 =( NAMED_UNIT ( * ) PLANE_ANGLE_UNIT ( ) SI_UNIT ( $, .RADIAN. ) );
#268 = DIRECTION ( 'NONE',  ( 0.000000000000000000, 0.000000000000000000, 1.000000000000000000 ) ) ;
#269 = FACE_OUTER_BOUND ( 'NONE', #339, .T. ) ;
#270 = APPROVAL_STATUS ( 'not_yet_approved' ) ;
#271 = DIRECTION ( 'NONE',  ( 0.000000000000000000, 0.000000000000000000, 1.000000000000000000 ) ) ;
#272 = EDGE_CURVE ( 'NONE', #315, #228, #316, .T. ) ;
#273 = AXIS2_PLACEMENT_3D ( 'NONE', #170, #258, #96 ) ;
#274 = CARTESIAN_POINT ( 'NONE',  ( 7.000000000000000888, 8.572527594031474176E-16, 7.700000000000040146 ) ) ;
#275 = CARTESIAN_POINT ( 'NONE',  ( 0.000000000000000000, 0.000000000000000000, 7.700000000000040146 ) ) ;
#276 = EDGE_CURVE ( 'NONE', #45, #94, #364, .T. ) ;
#277 = CARTESIAN_POINT ( 'NONE',  ( 0.000000000000000000, 0.000000000000000000, 0.000000000000000000 ) ) ;
#278 = ADVANCED_FACE ( 'NONE', ( #130, #314 ), #103, .F. ) ;
#279 = VERTEX_POINT ( 'NONE', #186 ) ;
#280 = DIRECTION ( 'NONE',  ( 1.000000000000000000, 0.000000000000000000, 0.000000000000000000 ) ) ;
#281 = EDGE_LOOP ( 'NONE', ( #164, #220, #282, #171 ) ) ;
#282 = ORIENTED_EDGE ( 'NONE', *, *, #356, .F. ) ;
#283 = CIRCLE ( 'NONE', #192, 5.000000000000000000 ) ;
#284 = CARTESIAN_POINT ( 'NONE',  ( 0.000000000000000000, 0.000000000000000000, 7.700000000000040146 ) ) ;
#285 = CARTESIAN_POINT ( 'NONE',  ( 7.700000000000001066, 0.000000000000000000, 7.700000000000040146 ) ) ;
#286 = APPROVAL_PERSON_ORGANIZATION ( #56, #48, #298 ) ;
#287 = ADVANCED_FACE ( 'NONE', ( #128 ), #342, .T. ) ;
#288 = UNCERTAINTY_MEASURE_WITH_UNIT (LENGTH_MEASURE( 1.000000000000000082E-05 ), #203, 'distance_accuracy_value', 'NONE');
#289 = CARTESIAN_POINT ( 'NONE',  ( -7.000000000000000888, 0.000000000000000000, 807.0000000000000000 ) ) ;
#290 = DIRECTION ( 'NONE',  ( 0.000000000000000000, 0.000000000000000000, 1.000000000000000000 ) ) ;
#291 = COORDINATED_UNIVERSAL_TIME_OFFSET ( 1, 0, .AHEAD. ) ;
#292 = APPROVAL_DATE_TIME ( #264, #9 ) ;
#293 = DIRECTION ( 'NONE',  ( 1.000000000000000000, 0.000000000000000000, -0.000000000000000000 ) ) ;
#294 = DATE_TIME_ROLE ( 'classification_date' ) ;
#295 = CARTESIAN_POINT ( 'NONE',  ( 0.000000000000000000, 0.000000000000000000, 7.000000000000000000 ) ) ;
#296 = SHAPE_DEFINITION_REPRESENTATION ( #216, #333 ) ;
#297 = CARTESIAN_POINT ( 'NONE',  ( -5.000000000000000000, 0.000000000000000000, 807.0000000000000000 ) ) ;
#298 = APPROVAL_ROLE ( '' ) ;
#299 = CIRCLE ( 'NONE', #51, 0.7000000000000000666 ) ;
#300 = CARTESIAN_POINT ( 'NONE',  ( 0.000000000000000000, 0.000000000000000000, 807.0000000000000000 ) ) ;
#301 = EDGE_CURVE ( 'NONE', #228, #315, #366, .T. ) ;
#302 = CALENDAR_DATE ( 2022, 8, 7 ) ;
#303 = DIRECTION ( 'NONE',  ( -0.000000000000000000, -0.000000000000000000, -1.000000000000000000 ) ) ;
#304 = DIRECTION ( 'NONE',  ( 0.000000000000000000, 0.000000000000000000, 1.000000000000000000 ) ) ;
#305 = ORIENTED_EDGE ( 'NONE', *, *, #178, .F. ) ;
#306 = AXIS2_PLACEMENT_3D ( 'NONE', #325, #202, #144 ) ;
#307 = CARTESIAN_POINT ( 'NONE',  ( -11.00000000000000000, 0.000000000000000000, 7.000000000000000000 ) ) ;
#308 = AXIS2_PLACEMENT_3D ( 'NONE', #275, #126, #66 ) ;
#309 = VERTEX_POINT ( 'NONE', #250 ) ;
#310 = DIRECTION ( 'NONE',  ( 0.000000000000000000, 0.000000000000000000, 1.000000000000000000 ) ) ;
#311 = EDGE_LOOP ( 'NONE', ( #167, #134 ) ) ;
#312 = DIRECTION ( 'NONE',  ( 0.000000000000000000, 0.000000000000000000, 1.000000000000000000 ) ) ;
#313 = ORIENTED_EDGE ( 'NONE', *, *, #239, .T. ) ;
#314 = FACE_OUTER_BOUND ( 'NONE', #62, .T. ) ;
#315 = VERTEX_POINT ( 'NONE', #166 ) ;
#316 = CIRCLE ( 'NONE', #154, 7.000000000000000888 ) ;
#317 = EDGE_CURVE ( 'NONE', #365, #279, #169, .T. ) ;
#318 = CALENDAR_DATE ( 2022, 8, 7 ) ;
#319 = DIRECTION ( 'NONE',  ( -0.000000000000000000, -0.000000000000000000, -1.000000000000000000 ) ) ;
#320 = FACE_BOUND ( 'NONE', #311, .T. ) ;
#321 = APPLICATION_PROTOCOL_DEFINITION ( 'international standard', 'config_control_design', 1994, #150 ) ;
#322 = DIRECTION ( 'NONE',  ( -1.000000000000000000, 0.000000000000000000, 0.000000000000000000 ) ) ;
#323 = AXIS2_PLACEMENT_3D ( 'NONE', #69, #304, #75 ) ;
#324 = DIRECTION ( 'NONE',  ( -0.000000000000000000, -0.000000000000000000, -1.000000000000000000 ) ) ;
#325 = CARTESIAN_POINT ( 'NONE',  ( 0.000000000000000000, 0.000000000000000000, 7.700000000000040146 ) ) ;
#326 = CALENDAR_DATE ( 2022, 8, 7 ) ;
#327 = AXIS2_PLACEMENT_3D ( 'NONE', #285, #20, #196 ) ;
#328 = DIRECTION ( 'NONE',  ( -0.000000000000000000, -0.000000000000000000, -1.000000000000000000 ) ) ;
#329 = CC_DESIGN_PERSON_AND_ORGANIZATION_ASSIGNMENT ( #377, #114, ( #147 ) ) ;
#330 = CARTESIAN_POINT ( 'NONE',  ( 0.000000000000000000, 0.000000000000000000, 0.000000000000000000 ) ) ;
#331 = EDGE_LOOP ( 'NONE', ( #187, #11 ) ) ;
#332 = APPROVAL_DATE_TIME ( #152, #106 ) ;
#333 = ADVANCED_BREP_SHAPE_REPRESENTATION ( 'bcbc', ( #74, #73 ), #245 ) ;
#334 = APPROVAL_STATUS ( 'not_yet_approved' ) ;
#335 = PRODUCT_DEFINITION_FORMATION_WITH_SPECIFIED_SOURCE ( 'LIBOVOLNÝ', '', #91, .NOT_KNOWN. ) ;
#336 = CARTESIAN_POINT ( 'NONE',  ( -7.700000000000001066, 9.429780353434621002E-16, 7.700000000000040146 ) ) ;
#337 = DESIGN_CONTEXT ( 'detailed design', #150, 'design' ) ;
#338 = DIRECTION ( 'NONE',  ( -0.000000000000000000, -0.000000000000000000, -1.000000000000000000 ) ) ;
#339 = EDGE_LOOP ( 'NONE', ( #165, #341 ) ) ;
#340 = EDGE_CURVE ( 'NONE', #279, #365, #102, .T. ) ;
#341 = ORIENTED_EDGE ( 'NONE', *, *, #352, .T. ) ;
#342 = CYLINDRICAL_SURFACE ( 'NONE', #206, 7.000000000000000888 ) ;
#343 = EDGE_LOOP ( 'NONE', ( #222, #233, #194, #133 ) ) ;
#344 = CC_DESIGN_DATE_AND_TIME_ASSIGNMENT ( #172, #137, ( #147 ) ) ;
#345 = ORIENTED_EDGE ( 'NONE', *, *, #92, .F. ) ;
#346 = DIRECTION ( 'NONE',  ( 1.224646799147353207E-16, 1.000000000000000000, -0.000000000000000000 ) ) ;
#347 = DIRECTION ( 'NONE',  ( -1.000000000000000000, 1.224646799147351975E-16, 0.000000000000000000 ) ) ;
#348 = DIRECTION ( 'NONE',  ( 1.000000000000000000, 0.000000000000000000, 0.000000000000000000 ) ) ;
#349 = VECTOR ( 'NONE', #14, 1000.000000000000000 ) ;
#350 = PLANE ( 'NONE',  #139 ) ;
#351 = PERSON_AND_ORGANIZATION ( #263, #158 ) ;
#352 = EDGE_CURVE ( 'NONE', #372, #44, #156, .T. ) ;
#353 = APPROVAL_ROLE ( '' ) ;
#354 = DIRECTION ( 'NONE',  ( -1.000000000000000000, 0.000000000000000000, 0.000000000000000000 ) ) ;
#355 = ORIENTED_EDGE ( 'NONE', *, *, #209, .T. ) ;
#356 = EDGE_CURVE ( 'NONE', #98, #226, #207, .T. ) ;
#357 = CARTESIAN_POINT ( 'NONE',  ( -11.00000000000000000, 0.000000000000000000, 0.000000000000000000 ) ) ;
#358 = FACE_OUTER_BOUND ( 'NONE', #76, .T. ) ;
#359 = VERTEX_POINT ( 'NONE', #232 ) ;
#360 = CIRCLE ( 'NONE', #95, 7.700000000000001066 ) ;
#361 = SECURITY_CLASSIFICATION ( '', '', #64 ) ;
#362 = PRODUCT_RELATED_PRODUCT_CATEGORY ( 'detail', '', ( #91 ) ) ;
#363 = ORIENTED_EDGE ( 'NONE', *, *, #135, .T. ) ;
#364 = LINE ( 'NONE', #105, #349 ) ;
#365 = VERTEX_POINT ( 'NONE', #307 ) ;
#366 = CIRCLE ( 'NONE', #183, 7.000000000000000888 ) ;
#367 = AXIS2_PLACEMENT_3D ( 'NONE', #195, #312, #19 ) ;
#368 = ORIENTED_EDGE ( 'NONE', *, *, #2, .T. ) ;
#369 = ADVANCED_FACE ( 'NONE', ( #197 ), #163, .F. ) ;
#370 = EDGE_LOOP ( 'NONE', ( #79, #72 ) ) ;
#371 = COORDINATED_UNIVERSAL_TIME_OFFSET ( 1, 0, .AHEAD. ) ;
#372 = VERTEX_POINT ( 'NONE', #223 ) ;
#373 = DIRECTION ( 'NONE',  ( 1.000000000000000000, 0.000000000000000000, 0.000000000000000000 ) ) ;
#374 = AXIS2_PLACEMENT_3D ( 'NONE', #88, #63, #4 ) ;
#375 = APPLICATION_PROTOCOL_DEFINITION ( 'international standard', 'config_control_design', 1994, #110 ) ;
#376 = AXIS2_PLACEMENT_3D ( 'NONE', #380, #210, #81 ) ;
#377 = PERSON_AND_ORGANIZATION ( #263, #158 ) ;
#378 = DIRECTION ( 'NONE',  ( 0.000000000000000000, 0.000000000000000000, 1.000000000000000000 ) ) ;
#379 = EDGE_CURVE ( 'NONE', #315, #226, #299, .T. ) ;
#380 = CARTESIAN_POINT ( 'NONE',  ( 0.000000000000000000, 0.000000000000000000, 0.000000000000000000 ) ) ;
#381 = APPROVAL_DATE_TIME ( #37, #48 ) ;
ENDSEC;
END-ISO-10303-21;
