ISO-10303-21;
HEADER;
FILE_DESCRIPTION (( 'STEP AP203' ),
    '1' );
FILE_NAME ('9f85.STEP',
    '2022-07-08T15:11:45',
    ( '' ),
    ( '' ),
    'SwSTEP 2.0',
    'SolidWorks 2019',
    '' );
FILE_SCHEMA (( 'CONFIG_CONTROL_DESIGN' ));
ENDSEC;

DATA;
#1 = VERTEX_POINT ( 'NONE', #158 ) ;
#2 = APPROVAL_ROLE ( '' ) ;
#3 = AXIS2_PLACEMENT_3D ( 'NONE', #264, #344, #46 ) ;
#4 = PERSON_AND_ORGANIZATION_ROLE ( 'design_owner' ) ;
#5 = AXIS2_PLACEMENT_3D ( 'NONE', #226, #18, #159 ) ;
#6 = EDGE_CURVE ( 'NONE', #13, #287, #113, .T. ) ;
#7 = ORIENTED_EDGE ( 'NONE', *, *, #155, .T. ) ;
#8 = CARTESIAN_POINT ( 'NONE',  ( -2.500000000000000000, 0.000000000000000000, 457.0000000000000000 ) ) ;
#9 = LINE ( 'NONE', #250, #19 ) ;
#10 = ORIENTED_EDGE ( 'NONE', *, *, #246, .T. ) ;
#11 = AXIS2_PLACEMENT_3D ( 'NONE', #238, #317, #50 ) ;
#12 = DIRECTION ( 'NONE',  ( -1.000000000000000000, 1.224646799147351482E-16, 0.000000000000000000 ) ) ;
#13 = VERTEX_POINT ( 'NONE', #370 ) ;
#14 = CARTESIAN_POINT ( 'NONE',  ( 0.000000000000000000, 0.000000000000000000, 457.0000000000000000 ) ) ;
#15 = ORIENTED_EDGE ( 'NONE', *, *, #345, .T. ) ;
#16 = LINE ( 'NONE', #342, #48 ) ;
#17 = DIRECTION ( 'NONE',  ( -1.000000000000000000, 0.000000000000000000, 0.000000000000000000 ) ) ;
#18 = DIRECTION ( 'NONE',  ( -0.000000000000000000, -0.000000000000000000, -1.000000000000000000 ) ) ;
#19 = VECTOR ( 'NONE', #311, 1000.000000000000000 ) ;
#20 = EDGE_CURVE ( 'NONE', #45, #41, #341, .T. ) ;
#21 = LINE ( 'NONE', #262, #124 ) ;
#22 = FACE_OUTER_BOUND ( 'NONE', #122, .T. ) ;
#23 = CARTESIAN_POINT ( 'NONE',  ( -6.500000000000000888, 7.960204194457796463E-16, 7.000000000000002665 ) ) ;
#24 = PRODUCT_DEFINITION ( 'NEZNÁMÝ', '', #235, #199 ) ;
#25 = DIRECTION ( 'NONE',  ( 1.000000000000000000, 0.000000000000000000, -0.000000000000000000 ) ) ;
#26 = CIRCLE ( 'NONE', #265, 6.500000000000000888 ) ;
#27 = AXIS2_PLACEMENT_3D ( 'NONE', #104, #132, #75 ) ;
#28 = PLANE ( 'NONE',  #376 ) ;
#29 = ORIENTED_EDGE ( 'NONE', *, *, #296, .T. ) ;
#30 = VECTOR ( 'NONE', #202, 1000.000000000000000 ) ;
#31 = ADVANCED_FACE ( 'NONE', ( #67 ), #251, .F. ) ;
#32 = AXIS2_PLACEMENT_3D ( 'NONE', #114, #143, #239 ) ;
#33 = ORIENTED_EDGE ( 'NONE', *, *, #353, .F. ) ;
#34 = APPROVAL_STATUS ( 'not_yet_approved' ) ;
#35 = ORIENTED_EDGE ( 'NONE', *, *, #74, .F. ) ;
#36 = CALENDAR_DATE ( 2022, 8, 7 ) ;
#37 = EDGE_CURVE ( 'NONE', #126, #1, #247, .T. ) ;
#38 = ORIENTED_EDGE ( 'NONE', *, *, #184, .T. ) ;
#39 = ORIENTED_EDGE ( 'NONE', *, *, #279, .F. ) ;
#40 = CARTESIAN_POINT ( 'NONE',  ( 0.000000000000000000, 0.000000000000000000, 457.0000000000000000 ) ) ;
#41 = VERTEX_POINT ( 'NONE', #343 ) ;
#42 = CARTESIAN_POINT ( 'NONE',  ( -6.500000000000000888, 7.960204194457796463E-16, 7.500000000000007105 ) ) ;
#43 = ORIENTED_EDGE ( 'NONE', *, *, #6, .T. ) ;
#44 = CARTESIAN_POINT ( 'NONE',  ( 0.000000000000000000, 0.000000000000000000, 0.000000000000000000 ) ) ;
#45 = VERTEX_POINT ( 'NONE', #292 ) ;
#46 = DIRECTION ( 'NONE',  ( 1.000000000000000000, 0.000000000000000000, 0.000000000000000000 ) ) ;
#47 = DIRECTION ( 'NONE',  ( 1.000000000000000000, 0.000000000000000000, 0.000000000000000000 ) ) ;
#48 = VECTOR ( 'NONE', #129, 1000.000000000000000 ) ;
#49 =( LENGTH_UNIT ( ) NAMED_UNIT ( * ) SI_UNIT ( .MILLI., .METRE. ) );
#50 = DIRECTION ( 'NONE',  ( 1.000000000000000000, 0.000000000000000000, 0.000000000000000000 ) ) ;
#51 = APPLICATION_PROTOCOL_DEFINITION ( 'international standard', 'config_control_design', 1994, #175 ) ;
#52 = CARTESIAN_POINT ( 'NONE',  ( 0.000000000000000000, 0.000000000000000000, 7.500000000000007105 ) ) ;
#53 = DIRECTION ( 'NONE',  ( 0.000000000000000000, 0.000000000000000000, 1.000000000000000000 ) ) ;
#54 = AXIS2_PLACEMENT_3D ( 'NONE', #40, #222, #256 ) ;
#55 = DIRECTION ( 'NONE',  ( -0.000000000000000000, -0.000000000000000000, -1.000000000000000000 ) ) ;
#56 = VERTEX_POINT ( 'NONE', #204 ) ;
#57 = DATE_AND_TIME ( #36, #281 ) ;
#58 = EDGE_LOOP ( 'NONE', ( #179, #177, #338, #357 ) ) ;
#59 = APPROVAL_PERSON_ORGANIZATION ( #89, #215, #214 ) ;
#60 = DATE_TIME_ROLE ( 'classification_date' ) ;
#61 = CALENDAR_DATE ( 2022, 8, 7 ) ;
#62 = PERSON_AND_ORGANIZATION ( #297, #131 ) ;
#63 = VERTEX_POINT ( 'NONE', #23 ) ;
#64 = AXIS2_PLACEMENT_3D ( 'NONE', #42, #280, #12 ) ;
#65 = APPROVAL_PERSON_ORGANIZATION ( #301, #128, #2 ) ;
#66 = CARTESIAN_POINT ( 'NONE',  ( -10.00000000000000000, 0.000000000000000000, 0.000000000000000000 ) ) ;
#67 = FACE_OUTER_BOUND ( 'NONE', #198, .T. ) ;
#68 = CARTESIAN_POINT ( 'NONE',  ( 0.000000000000000000, 0.000000000000000000, 457.0000000000000000 ) ) ;
#69 = DIRECTION ( 'NONE',  ( -1.000000000000000000, 0.000000000000000000, 0.000000000000000000 ) ) ;
#70 = EDGE_LOOP ( 'NONE', ( #218, #105 ) ) ;
#71 = AXIS2_PLACEMENT_3D ( 'NONE', #68, #135, #69 ) ;
#72 = CARTESIAN_POINT ( 'NONE',  ( 0.000000000000000000, 0.000000000000000000, 457.0000000000000000 ) ) ;
#73 = CARTESIAN_POINT ( 'NONE',  ( 2.500000000000000000, 3.061616997868383141E-16, 457.0000000000000000 ) ) ;
#74 = EDGE_CURVE ( 'NONE', #63, #96, #26, .T. ) ;
#75 = DIRECTION ( 'NONE',  ( 1.000000000000000000, 0.000000000000000000, -0.000000000000000000 ) ) ;
#76 = CARTESIAN_POINT ( 'NONE',  ( 0.000000000000000000, 0.000000000000000000, 7.000000000000000000 ) ) ;
#77 = FACE_OUTER_BOUND ( 'NONE', #88, .T. ) ;
#78 = DIRECTION ( 'NONE',  ( 1.000000000000000000, 0.000000000000000000, 0.000000000000000000 ) ) ;
#79 = LOCAL_TIME ( 17, 11, 45.00000000000000000, #327 ) ;
#80 = CC_DESIGN_DATE_AND_TIME_ASSIGNMENT ( #329, #60, ( #312 ) ) ;
#81 = CARTESIAN_POINT ( 'NONE',  ( 10.00000000000000000, 1.224646799147353256E-15, 0.000000000000000000 ) ) ;
#82 = DIRECTION ( 'NONE',  ( 1.000000000000000000, 0.000000000000000000, 0.000000000000000000 ) ) ;
#83 = CARTESIAN_POINT ( 'NONE',  ( 0.000000000000000000, 0.000000000000000000, 0.000000000000000000 ) ) ;
#84 = CIRCLE ( 'NONE', #98, 6.500000000000000888 ) ;
#85 = APPROVAL_PERSON_ORGANIZATION ( #87, #269, #358 ) ;
#86 = EDGE_CURVE ( 'NONE', #56, #133, #346, .T. ) ;
#87 = PERSON_AND_ORGANIZATION ( #297, #131 ) ;
#88 = EDGE_LOOP ( 'NONE', ( #362, #303, #378, #35 ) ) ;
#89 = PERSON_AND_ORGANIZATION ( #297, #131 ) ;
#90 = EDGE_CURVE ( 'NONE', #287, #13, #234, .T. ) ;
#91 = EDGE_LOOP ( 'NONE', ( #268, #240 ) ) ;
#92 = AXIS2_PLACEMENT_3D ( 'NONE', #52, #209, #318 ) ;
#93 = CALENDAR_DATE ( 2022, 8, 7 ) ;
#94 = ORIENTED_EDGE ( 'NONE', *, *, #196, .T. ) ;
#95 = DATE_TIME_ROLE ( 'creation_date' ) ;
#96 = VERTEX_POINT ( 'NONE', #375 ) ;
#97 = ORIENTED_EDGE ( 'NONE', *, *, #363, .T. ) ;
#98 = AXIS2_PLACEMENT_3D ( 'NONE', #347, #169, #82 ) ;
#99 = DIRECTION ( 'NONE',  ( 1.000000000000000000, 0.000000000000000000, 0.000000000000000000 ) ) ;
#100 = EDGE_LOOP ( 'NONE', ( #330, #38 ) ) ;
#101 = DIRECTION ( 'NONE',  ( 1.000000000000000000, 0.000000000000000000, 0.000000000000000000 ) ) ;
#102 = CARTESIAN_POINT ( 'NONE',  ( 0.000000000000000000, 0.000000000000000000, 457.0000000000000000 ) ) ;
#103 = UNCERTAINTY_MEASURE_WITH_UNIT (LENGTH_MEASURE( 1.000000000000000082E-05 ), #49, 'distance_accuracy_value', 'NONE');
#104 = CARTESIAN_POINT ( 'NONE',  ( 0.000000000000000000, 0.000000000000000000, 457.0000000000000000 ) ) ;
#105 = ORIENTED_EDGE ( 'NONE', *, *, #155, .F. ) ;
#106 = ADVANCED_FACE ( 'NONE', ( #207 ), #116, .T. ) ;
#107 = AXIS2_PLACEMENT_3D ( 'NONE', #236, #55, #295 ) ;
#108 = DIRECTION ( 'NONE',  ( 0.000000000000000000, 0.000000000000000000, 1.000000000000000000 ) ) ;
#109 = DIRECTION ( 'NONE',  ( -0.000000000000000000, -0.000000000000000000, -1.000000000000000000 ) ) ;
#110 = CYLINDRICAL_SURFACE ( 'NONE', #107, 10.00000000000000000 ) ;
#111 = CARTESIAN_POINT ( 'NONE',  ( 0.000000000000000000, 0.000000000000000000, 457.0000000000000000 ) ) ;
#112 = PLANE ( 'NONE',  #359 ) ;
#113 = CIRCLE ( 'NONE', #189, 6.000000000000000888 ) ;
#114 = CARTESIAN_POINT ( 'NONE',  ( 0.000000000000000000, 0.000000000000000000, 0.000000000000000000 ) ) ;
#115 = CC_DESIGN_APPROVAL ( #269, ( #24 ) ) ;
#116 = CYLINDRICAL_SURFACE ( 'NONE', #294, 6.000000000000000888 ) ;
#117 =( NAMED_UNIT ( * ) SI_UNIT ( $, .STERADIAN. ) SOLID_ANGLE_UNIT ( ) );
#118 = CC_DESIGN_PERSON_AND_ORGANIZATION_ASSIGNMENT ( #178, #299, ( #235 ) ) ;
#119 = APPLICATION_PROTOCOL_DEFINITION ( 'international standard', 'config_control_design', 1994, #350 ) ;
#120 = EDGE_LOOP ( 'NONE', ( #331, #160, #255, #39 ) ) ;
#121 = EDGE_CURVE ( 'NONE', #164, #287, #21, .T. ) ;
#122 = EDGE_LOOP ( 'NONE', ( #278, #94 ) ) ;
#123 = APPROVAL_STATUS ( 'not_yet_approved' ) ;
#124 = VECTOR ( 'NONE', #109, 1000.000000000000000 ) ;
#125 = AXIS2_PLACEMENT_3D ( 'NONE', #283, #134, #137 ) ;
#126 = VERTEX_POINT ( 'NONE', #374 ) ;
#127 = ORIENTED_EDGE ( 'NONE', *, *, #188, .T. ) ;
#128 = APPROVAL ( #34, 'NEURÈENÝ' ) ;
#129 = DIRECTION ( 'NONE',  ( -0.000000000000000000, -0.000000000000000000, -1.000000000000000000 ) ) ;
#130 = CARTESIAN_POINT ( 'NONE',  ( 0.000000000000000000, 0.000000000000000000, 7.500000000000007105 ) ) ;
#131 = ORGANIZATION ( 'NEURÈENÝ', 'NEURÈENÝ', '' ) ;
#132 = DIRECTION ( 'NONE',  ( 0.000000000000000000, 0.000000000000000000, 1.000000000000000000 ) ) ;
#133 = VERTEX_POINT ( 'NONE', #168 ) ;
#134 = DIRECTION ( 'NONE',  ( -0.000000000000000000, -0.000000000000000000, -1.000000000000000000 ) ) ;
#135 = DIRECTION ( 'NONE',  ( 0.000000000000000000, 0.000000000000000000, -1.000000000000000000 ) ) ;
#136 = DIRECTION ( 'NONE',  ( 1.000000000000000000, 0.000000000000000000, 0.000000000000000000 ) ) ;
#137 = DIRECTION ( 'NONE',  ( -1.000000000000000000, 0.000000000000000000, 0.000000000000000000 ) ) ;
#138 = DIRECTION ( 'NONE',  ( 1.000000000000000000, 0.000000000000000000, -0.000000000000000000 ) ) ;
#139 = FACE_BOUND ( 'NONE', #275, .T. ) ;
#140 = DIRECTION ( 'NONE',  ( -0.000000000000000000, -0.000000000000000000, -1.000000000000000000 ) ) ;
#141 = LOCAL_TIME ( 17, 11, 45.00000000000000000, #185 ) ;
#142 = DIRECTION ( 'NONE',  ( -0.000000000000000000, -0.000000000000000000, -1.000000000000000000 ) ) ;
#143 = DIRECTION ( 'NONE',  ( 0.000000000000000000, 0.000000000000000000, 1.000000000000000000 ) ) ;
#144 = ADVANCED_FACE ( 'NONE', ( #139, #288 ), #112, .F. ) ;
#145 = ORIENTED_EDGE ( 'NONE', *, *, #20, .F. ) ;
#146 = PERSON_AND_ORGANIZATION ( #297, #131 ) ;
#147 = AXIS2_PLACEMENT_3D ( 'NONE', #263, #53, #47 ) ;
#148 = CC_DESIGN_APPROVAL ( #128, ( #312 ) ) ;
#149 = EDGE_LOOP ( 'NONE', ( #253, #336, #191, #10 ) ) ;
#150 = CC_DESIGN_PERSON_AND_ORGANIZATION_ASSIGNMENT ( #146, #4, ( #217 ) ) ;
#151 = MECHANICAL_CONTEXT ( 'NONE', #175, 'mechanical' ) ;
#152 = COORDINATED_UNIVERSAL_TIME_OFFSET ( 1, 0, .AHEAD. ) ;
#153 = VERTEX_POINT ( 'NONE', #261 ) ;
#154 = CIRCLE ( 'NONE', #190, 10.00000000000000000 ) ;
#155 = EDGE_CURVE ( 'NONE', #126, #45, #324, .T. ) ;
#156 = ORIENTED_EDGE ( 'NONE', *, *, #37, .T. ) ;
#157 = DIRECTION ( 'NONE',  ( 1.000000000000000000, 0.000000000000000000, 0.000000000000000000 ) ) ;
#158 = CARTESIAN_POINT ( 'NONE',  ( 2.500000000000000000, 3.061616997868383141E-16, 0.000000000000000000 ) ) ;
#159 = DIRECTION ( 'NONE',  ( -1.000000000000000000, 0.000000000000000000, 0.000000000000000000 ) ) ;
#160 = ORIENTED_EDGE ( 'NONE', *, *, #321, .T. ) ;
#161 = AXIS2_PLACEMENT_3D ( 'NONE', #72, #364, #157 ) ;
#162 = EDGE_CURVE ( 'NONE', #96, #63, #84, .T. ) ;
#163 = CYLINDRICAL_SURFACE ( 'NONE', #5, 10.00000000000000000 ) ;
#164 = VERTEX_POINT ( 'NONE', #208 ) ;
#165 = DIRECTION ( 'NONE',  ( 1.000000000000000000, 0.000000000000000000, 0.000000000000000000 ) ) ;
#166 = ORIENTED_EDGE ( 'NONE', *, *, #37, .F. ) ;
#167 = FACE_OUTER_BOUND ( 'NONE', #248, .T. ) ;
#168 = CARTESIAN_POINT ( 'NONE',  ( 10.00000000000000000, 1.224646799147353256E-15, 7.000000000000000000 ) ) ;
#169 = DIRECTION ( 'NONE',  ( -0.000000000000000000, -0.000000000000000000, -1.000000000000000000 ) ) ;
#170 = CLOSED_SHELL ( 'NONE', ( #224, #377, #231, #219, #333, #325, #144, #106, #237, #172, #31 ) ) ;
#171 = CARTESIAN_POINT ( 'NONE',  ( 0.000000000000000000, 0.000000000000000000, 0.000000000000000000 ) ) ;
#172 = ADVANCED_FACE ( 'NONE', ( #77 ), #379, .F. ) ;
#173 = DIRECTION ( 'NONE',  ( -0.000000000000000000, -0.000000000000000000, -1.000000000000000000 ) ) ;
#174 = CIRCLE ( 'NONE', #161, 6.000000000000000888 ) ;
#175 = APPLICATION_CONTEXT ( 'configuration controlled 3d designs of mechanical parts and assemblies' ) ;
#176 = DIRECTION ( 'NONE',  ( 1.000000000000000000, 0.000000000000000000, 0.000000000000000000 ) ) ;
#177 = ORIENTED_EDGE ( 'NONE', *, *, #121, .T. ) ;
#178 = PERSON_AND_ORGANIZATION ( #297, #131 ) ;
#179 = ORIENTED_EDGE ( 'NONE', *, *, #184, .F. ) ;
#180 = VECTOR ( 'NONE', #229, 1000.000000000000000 ) ;
#181 = PERSON_AND_ORGANIZATION_ROLE ( 'creator' ) ;
#182 = LOCAL_TIME ( 17, 11, 45.00000000000000000, #304 ) ;
#183 = VERTEX_POINT ( 'NONE', #81 ) ;
#184 = EDGE_CURVE ( 'NONE', #164, #153, #360, .T. ) ;
#185 = COORDINATED_UNIVERSAL_TIME_OFFSET ( 1, 0, .AHEAD. ) ;
#186 = ORIENTED_EDGE ( 'NONE', *, *, #252, .T. ) ;
#187 = APPROVAL_DATE_TIME ( #245, #269 ) ;
#188 = EDGE_CURVE ( 'NONE', #153, #13, #16, .T. ) ;
#189 = AXIS2_PLACEMENT_3D ( 'NONE', #130, #365, #276 ) ;
#190 = AXIS2_PLACEMENT_3D ( 'NONE', #44, #108, #277 ) ;
#191 = ORIENTED_EDGE ( 'NONE', *, *, #353, .T. ) ;
#192 = DIRECTION ( 'NONE',  ( 0.000000000000000000, 0.000000000000000000, 1.000000000000000000 ) ) ;
#193 = ORIENTED_EDGE ( 'NONE', *, *, #196, .F. ) ;
#194 = CARTESIAN_POINT ( 'NONE',  ( 6.500000000000000888, 0.000000000000000000, 7.500000000000007105 ) ) ;
#195 = VERTEX_POINT ( 'NONE', #66 ) ;
#196 = EDGE_CURVE ( 'NONE', #133, #56, #241, .T. ) ;
#197 = FACE_OUTER_BOUND ( 'NONE', #100, .T. ) ;
#198 = EDGE_LOOP ( 'NONE', ( #166, #7, #308, #15 ) ) ;
#199 = DESIGN_CONTEXT ( 'detailed design', #350, 'design' ) ;
#200 = AXIS2_PLACEMENT_3D ( 'NONE', #368, #192, #101 ) ;
#201 = CARTESIAN_POINT ( 'NONE',  ( 6.000000000000000888, 7.347880794884120722E-16, 7.500000000000007105 ) ) ;
#202 = DIRECTION ( 'NONE',  ( 0.000000000000000000, 0.000000000000000000, -1.000000000000000000 ) ) ;
#203 = DIRECTION ( 'NONE',  ( 0.000000000000000000, 0.000000000000000000, -1.000000000000000000 ) ) ;
#204 = CARTESIAN_POINT ( 'NONE',  ( -10.00000000000000000, 0.000000000000000000, 7.000000000000000000 ) ) ;
#205 = CARTESIAN_POINT ( 'NONE',  ( -10.00000000000000000, 0.000000000000000000, 7.000000000000000000 ) ) ;
#206 = CC_DESIGN_DATE_AND_TIME_ASSIGNMENT ( #272, #95, ( #24 ) ) ;
#207 = FACE_OUTER_BOUND ( 'NONE', #225, .T. ) ;
#208 = CARTESIAN_POINT ( 'NONE',  ( 6.000000000000000888, 7.347880794884120722E-16, 457.0000000000000000 ) ) ;
#209 = DIRECTION ( 'NONE',  ( 0.000000000000000000, 0.000000000000000000, 1.000000000000000000 ) ) ;
#210 = CARTESIAN_POINT ( 'NONE',  ( 0.000000000000000000, 0.000000000000000000, 0.000000000000000000 ) ) ;
#211 = AXIS2_PLACEMENT_3D ( 'NONE', #111, #233, #232 ) ;
#212 = FACE_OUTER_BOUND ( 'NONE', #120, .T. ) ;
#213 = CIRCLE ( 'NONE', #319, 2.500000000000000000 ) ;
#214 = APPROVAL_ROLE ( '' ) ;
#215 = APPROVAL ( #123, 'NEURÈENÝ' ) ;
#216 = PERSON_AND_ORGANIZATION_ROLE ( 'creator' ) ;
#217 = PRODUCT ( '9f85', '9f85', '', ( #151 ) ) ;
#218 = ORIENTED_EDGE ( 'NONE', *, *, #296, .F. ) ;
#219 = ADVANCED_FACE ( 'NONE', ( #167 ), #163, .T. ) ;
#220 = SHAPE_DEFINITION_REPRESENTATION ( #352, #227 ) ;
#221 = EDGE_LOOP ( 'NONE', ( #29, #156, #97, #145 ) ) ;
#222 = DIRECTION ( 'NONE',  ( 0.000000000000000000, 0.000000000000000000, 1.000000000000000000 ) ) ;
#223 = AXIS2_PLACEMENT_3D ( 'NONE', #83, #349, #78 ) ;
#224 = ADVANCED_FACE ( 'NONE', ( #228 ), #339, .F. ) ;
#225 = EDGE_LOOP ( 'NONE', ( #282, #371, #127, #43 ) ) ;
#226 = CARTESIAN_POINT ( 'NONE',  ( 0.000000000000000000, 0.000000000000000000, 7.000000000000000000 ) ) ;
#227 = ADVANCED_BREP_SHAPE_REPRESENTATION ( '9f85', ( #328, #32 ), #300 ) ;
#228 = FACE_OUTER_BOUND ( 'NONE', #221, .T. ) ;
#229 = DIRECTION ( 'NONE',  ( 0.000000000000000000, 0.000000000000000000, -1.000000000000000000 ) ) ;
#230 = AXIS2_PLACEMENT_3D ( 'NONE', #194, #309, #203 ) ;
#231 = ADVANCED_FACE ( 'NONE', ( #285 ), #307, .T. ) ;
#232 = DIRECTION ( 'NONE',  ( 1.000000000000000000, 0.000000000000000000, 0.000000000000000000 ) ) ;
#233 = DIRECTION ( 'NONE',  ( 0.000000000000000000, 0.000000000000000000, 1.000000000000000000 ) ) ;
#234 = CIRCLE ( 'NONE', #3, 6.000000000000000888 ) ;
#235 = PRODUCT_DEFINITION_FORMATION_WITH_SPECIFIED_SOURCE ( 'LIBOVOLNÝ', '', #217, .NOT_KNOWN. ) ;
#236 = CARTESIAN_POINT ( 'NONE',  ( 0.000000000000000000, 0.000000000000000000, 7.000000000000000000 ) ) ;
#237 = ADVANCED_FACE ( 'NONE', ( #372, #197 ), #337, .T. ) ;
#238 = CARTESIAN_POINT ( 'NONE',  ( 0.000000000000000000, 0.000000000000000000, 7.000000000000000000 ) ) ;
#239 = DIRECTION ( 'NONE',  ( 1.000000000000000000, 0.000000000000000000, 0.000000000000000000 ) ) ;
#240 = ORIENTED_EDGE ( 'NONE', *, *, #74, .T. ) ;
#241 = CIRCLE ( 'NONE', #200, 10.00000000000000000 ) ;
#242 = EDGE_CURVE ( 'NONE', #153, #164, #174, .T. ) ;
#243 = PERSON_AND_ORGANIZATION ( #297, #131 ) ;
#244 = ORIENTED_EDGE ( 'NONE', *, *, #363, .F. ) ;
#245 = DATE_AND_TIME ( #273, #79 ) ;
#246 = EDGE_CURVE ( 'NONE', #195, #183, #154, .T. ) ;
#247 = LINE ( 'NONE', #73, #30 ) ;
#248 = EDGE_LOOP ( 'NONE', ( #193, #186, #340, #33 ) ) ;
#249 = AXIS2_PLACEMENT_3D ( 'NONE', #102, #367, #310 ) ;
#250 = CARTESIAN_POINT ( 'NONE',  ( 10.00000000000000000, 1.224646799147353256E-15, 7.000000000000000000 ) ) ;
#251 = CYLINDRICAL_SURFACE ( 'NONE', #249, 2.500000000000000000 ) ;
#252 = EDGE_CURVE ( 'NONE', #133, #183, #9, .T. ) ;
#253 = ORIENTED_EDGE ( 'NONE', *, *, #252, .F. ) ;
#254 = DIRECTION ( 'NONE',  ( 0.000000000000000000, 0.000000000000000000, 1.000000000000000000 ) ) ;
#255 = ORIENTED_EDGE ( 'NONE', *, *, #162, .F. ) ;
#256 = DIRECTION ( 'NONE',  ( 1.000000000000000000, 0.000000000000000000, 0.000000000000000000 ) ) ;
#257 = CARTESIAN_POINT ( 'NONE',  ( 0.000000000000000000, 0.000000000000000000, 457.0000000000000000 ) ) ;
#258 = PRODUCT_RELATED_PRODUCT_CATEGORY ( 'detail', '', ( #217 ) ) ;
#259 = AXIS2_PLACEMENT_3D ( 'NONE', #14, #366, #99 ) ;
#260 = TOROIDAL_SURFACE ( 'NONE', #147, 6.500000000000000888, 0.5000000000000000000 ) ;
#261 = CARTESIAN_POINT ( 'NONE',  ( -6.000000000000000888, 0.000000000000000000, 457.0000000000000000 ) ) ;
#262 = CARTESIAN_POINT ( 'NONE',  ( 6.000000000000000888, 7.347880794884120722E-16, 457.0000000000000000 ) ) ;
#263 = CARTESIAN_POINT ( 'NONE',  ( 0.000000000000000000, 0.000000000000000000, 7.500000000000007105 ) ) ;
#264 = CARTESIAN_POINT ( 'NONE',  ( 0.000000000000000000, 0.000000000000000000, 7.500000000000007105 ) ) ;
#265 = AXIS2_PLACEMENT_3D ( 'NONE', #293, #142, #136 ) ;
#266 = CC_DESIGN_APPROVAL ( #215, ( #235 ) ) ;
#267 = LINE ( 'NONE', #205, #271 ) ;
#268 = ORIENTED_EDGE ( 'NONE', *, *, #162, .T. ) ;
#269 = APPROVAL ( #270, 'NEURÈENÝ' ) ;
#270 = APPROVAL_STATUS ( 'not_yet_approved' ) ;
#271 = VECTOR ( 'NONE', #173, 1000.000000000000000 ) ;
#272 = DATE_AND_TIME ( #355, #182 ) ;
#273 = CALENDAR_DATE ( 2022, 8, 7 ) ;
#274 = CIRCLE ( 'NONE', #259, 2.500000000000000000 ) ;
#275 = EDGE_LOOP ( 'NONE', ( #284, #244 ) ) ;
#276 = DIRECTION ( 'NONE',  ( 1.000000000000000000, 0.000000000000000000, 0.000000000000000000 ) ) ;
#277 = DIRECTION ( 'NONE',  ( 1.000000000000000000, 0.000000000000000000, 0.000000000000000000 ) ) ;
#278 = ORIENTED_EDGE ( 'NONE', *, *, #86, .T. ) ;
#279 = EDGE_CURVE ( 'NONE', #287, #96, #289, .T. ) ;
#280 = DIRECTION ( 'NONE',  ( 1.224646799147353207E-16, 1.000000000000000000, -0.000000000000000000 ) ) ;
#281 = LOCAL_TIME ( 17, 11, 45.00000000000000000, #152 ) ;
#282 = ORIENTED_EDGE ( 'NONE', *, *, #121, .F. ) ;
#283 = CARTESIAN_POINT ( 'NONE',  ( 0.000000000000000000, 0.000000000000000000, 457.0000000000000000 ) ) ;
#284 = ORIENTED_EDGE ( 'NONE', *, *, #345, .F. ) ;
#285 = FACE_OUTER_BOUND ( 'NONE', #58, .T. ) ;
#286 = CC_DESIGN_PERSON_AND_ORGANIZATION_ASSIGNMENT ( #380, #381, ( #312 ) ) ;
#287 = VERTEX_POINT ( 'NONE', #201 ) ;
#288 = FACE_OUTER_BOUND ( 'NONE', #313, .T. ) ;
#289 = CIRCLE ( 'NONE', #230, 0.5000000000000004441 ) ;
#290 = DIRECTION ( 'NONE',  ( -0.000000000000000000, -0.000000000000000000, -1.000000000000000000 ) ) ;
#291 = EDGE_CURVE ( 'NONE', #183, #195, #305, .T. ) ;
#292 = CARTESIAN_POINT ( 'NONE',  ( -2.500000000000000000, 0.000000000000000000, 457.0000000000000000 ) ) ;
#293 = CARTESIAN_POINT ( 'NONE',  ( 0.000000000000000000, 0.000000000000000000, 7.000000000000000000 ) ) ;
#294 = AXIS2_PLACEMENT_3D ( 'NONE', #257, #290, #17 ) ;
#295 = DIRECTION ( 'NONE',  ( -1.000000000000000000, 0.000000000000000000, 0.000000000000000000 ) ) ;
#296 = EDGE_CURVE ( 'NONE', #45, #126, #274, .T. ) ;
#297 = PERSON ( 'NEURÈENÝ', 'NEURÈENÝ', 'NEURÈENÝ', ('NEURÈENÝ'), ('NEURÈENÝ'), ('NEURÈENÝ') ) ;
#298 = SECURITY_CLASSIFICATION_LEVEL ( 'unclassified' ) ;
#299 = PERSON_AND_ORGANIZATION_ROLE ( 'design_supplier' ) ;
#300 =( GEOMETRIC_REPRESENTATION_CONTEXT ( 3 ) GLOBAL_UNCERTAINTY_ASSIGNED_CONTEXT ( ( #103 ) ) GLOBAL_UNIT_ASSIGNED_CONTEXT ( ( #49, #322, #117 ) ) REPRESENTATION_CONTEXT ( 'NONE', 'WORKASPACE' ) );
#301 = PERSON_AND_ORGANIZATION ( #297, #131 ) ;
#302 = APPROVAL_DATE_TIME ( #356, #128 ) ;
#303 = ORIENTED_EDGE ( 'NONE', *, *, #90, .F. ) ;
#304 = COORDINATED_UNIVERSAL_TIME_OFFSET ( 1, 0, .AHEAD. ) ;
#305 = CIRCLE ( 'NONE', #348, 10.00000000000000000 ) ;
#306 = CC_DESIGN_SECURITY_CLASSIFICATION ( #312, ( #235 ) ) ;
#307 = CYLINDRICAL_SURFACE ( 'NONE', #125, 6.000000000000000888 ) ;
#308 = ORIENTED_EDGE ( 'NONE', *, *, #20, .T. ) ;
#309 = DIRECTION ( 'NONE',  ( 0.000000000000000000, -1.000000000000000000, 0.000000000000000000 ) ) ;
#310 = DIRECTION ( 'NONE',  ( -1.000000000000000000, 0.000000000000000000, 0.000000000000000000 ) ) ;
#311 = DIRECTION ( 'NONE',  ( -0.000000000000000000, -0.000000000000000000, -1.000000000000000000 ) ) ;
#312 = SECURITY_CLASSIFICATION ( '', '', #298 ) ;
#313 = EDGE_LOOP ( 'NONE', ( #332, #315 ) ) ;
#314 = CC_DESIGN_PERSON_AND_ORGANIZATION_ASSIGNMENT ( #62, #181, ( #24 ) ) ;
#315 = ORIENTED_EDGE ( 'NONE', *, *, #291, .F. ) ;
#316 = CARTESIAN_POINT ( 'NONE',  ( 0.000000000000000000, 0.000000000000000000, 0.000000000000000000 ) ) ;
#317 = DIRECTION ( 'NONE',  ( 0.000000000000000000, 0.000000000000000000, 1.000000000000000000 ) ) ;
#318 = DIRECTION ( 'NONE',  ( 1.000000000000000000, 0.000000000000000000, 0.000000000000000000 ) ) ;
#319 = AXIS2_PLACEMENT_3D ( 'NONE', #210, #140, #176 ) ;
#320 = DIRECTION ( 'NONE',  ( 0.000000000000000000, 0.000000000000000000, 1.000000000000000000 ) ) ;
#321 = EDGE_CURVE ( 'NONE', #13, #63, #373, .T. ) ;
#322 =( NAMED_UNIT ( * ) PLANE_ANGLE_UNIT ( ) SI_UNIT ( $, .RADIAN. ) );
#323 = FACE_OUTER_BOUND ( 'NONE', #149, .T. ) ;
#324 = CIRCLE ( 'NONE', #211, 2.500000000000000000 ) ;
#325 = ADVANCED_FACE ( 'NONE', ( #351, #22 ), #28, .T. ) ;
#326 = APPROVAL_DATE_TIME ( #57, #215 ) ;
#327 = COORDINATED_UNIVERSAL_TIME_OFFSET ( 1, 0, .AHEAD. ) ;
#328 = MANIFOLD_SOLID_BREP ( 'Odebrat vysunutím3', #170 ) ;
#329 = DATE_AND_TIME ( #93, #141 ) ;
#330 = ORIENTED_EDGE ( 'NONE', *, *, #242, .T. ) ;
#331 = ORIENTED_EDGE ( 'NONE', *, *, #6, .F. ) ;
#332 = ORIENTED_EDGE ( 'NONE', *, *, #246, .F. ) ;
#333 = ADVANCED_FACE ( 'NONE', ( #323 ), #110, .T. ) ;
#334 = CIRCLE ( 'NONE', #223, 2.500000000000000000 ) ;
#335 = LOCAL_TIME ( 17, 11, 45.00000000000000000, #361 ) ;
#336 = ORIENTED_EDGE ( 'NONE', *, *, #86, .F. ) ;
#337 = PLANE ( 'NONE',  #27 ) ;
#338 = ORIENTED_EDGE ( 'NONE', *, *, #90, .T. ) ;
#339 = CYLINDRICAL_SURFACE ( 'NONE', #71, 2.500000000000000000 ) ;
#340 = ORIENTED_EDGE ( 'NONE', *, *, #291, .T. ) ;
#341 = LINE ( 'NONE', #8, #180 ) ;
#342 = CARTESIAN_POINT ( 'NONE',  ( -6.000000000000000888, 0.000000000000000000, 457.0000000000000000 ) ) ;
#343 = CARTESIAN_POINT ( 'NONE',  ( -2.500000000000000000, 0.000000000000000000, 0.000000000000000000 ) ) ;
#344 = DIRECTION ( 'NONE',  ( 0.000000000000000000, 0.000000000000000000, 1.000000000000000000 ) ) ;
#345 = EDGE_CURVE ( 'NONE', #41, #1, #334, .T. ) ;
#346 = CIRCLE ( 'NONE', #11, 10.00000000000000000 ) ;
#347 = CARTESIAN_POINT ( 'NONE',  ( 0.000000000000000000, 0.000000000000000000, 7.000000000000000000 ) ) ;
#348 = AXIS2_PLACEMENT_3D ( 'NONE', #316, #254, #165 ) ;
#349 = DIRECTION ( 'NONE',  ( -0.000000000000000000, -0.000000000000000000, -1.000000000000000000 ) ) ;
#350 = APPLICATION_CONTEXT ( 'configuration controlled 3d designs of mechanical parts and assemblies' ) ;
#351 = FACE_BOUND ( 'NONE', #91, .T. ) ;
#352 = PRODUCT_DEFINITION_SHAPE ( 'NONE', 'NONE',  #24 ) ;
#353 = EDGE_CURVE ( 'NONE', #56, #195, #267, .T. ) ;
#354 = DIRECTION ( 'NONE',  ( 0.000000000000000000, 0.000000000000000000, 1.000000000000000000 ) ) ;
#355 = CALENDAR_DATE ( 2022, 8, 7 ) ;
#356 = DATE_AND_TIME ( #61, #335 ) ;
#357 = ORIENTED_EDGE ( 'NONE', *, *, #188, .F. ) ;
#358 = APPROVAL_ROLE ( '' ) ;
#359 = AXIS2_PLACEMENT_3D ( 'NONE', #171, #320, #138 ) ;
#360 = CIRCLE ( 'NONE', #54, 6.000000000000000888 ) ;
#361 = COORDINATED_UNIVERSAL_TIME_OFFSET ( 1, 0, .AHEAD. ) ;
#362 = ORIENTED_EDGE ( 'NONE', *, *, #321, .F. ) ;
#363 = EDGE_CURVE ( 'NONE', #1, #41, #213, .T. ) ;
#364 = DIRECTION ( 'NONE',  ( 0.000000000000000000, 0.000000000000000000, 1.000000000000000000 ) ) ;
#365 = DIRECTION ( 'NONE',  ( 0.000000000000000000, 0.000000000000000000, 1.000000000000000000 ) ) ;
#366 = DIRECTION ( 'NONE',  ( 0.000000000000000000, 0.000000000000000000, 1.000000000000000000 ) ) ;
#367 = DIRECTION ( 'NONE',  ( 0.000000000000000000, 0.000000000000000000, -1.000000000000000000 ) ) ;
#368 = CARTESIAN_POINT ( 'NONE',  ( 0.000000000000000000, 0.000000000000000000, 7.000000000000000000 ) ) ;
#369 = CC_DESIGN_PERSON_AND_ORGANIZATION_ASSIGNMENT ( #243, #216, ( #235 ) ) ;
#370 = CARTESIAN_POINT ( 'NONE',  ( -6.000000000000000888, 0.000000000000000000, 7.500000000000007105 ) ) ;
#371 = ORIENTED_EDGE ( 'NONE', *, *, #242, .F. ) ;
#372 = FACE_BOUND ( 'NONE', #70, .T. ) ;
#373 = CIRCLE ( 'NONE', #64, 0.5000000000000004441 ) ;
#374 = CARTESIAN_POINT ( 'NONE',  ( 2.500000000000000000, 3.061616997868383141E-16, 457.0000000000000000 ) ) ;
#375 = CARTESIAN_POINT ( 'NONE',  ( 6.500000000000000888, 0.000000000000000000, 7.000000000000002665 ) ) ;
#376 = AXIS2_PLACEMENT_3D ( 'NONE', #76, #354, #25 ) ;
#377 = ADVANCED_FACE ( 'NONE', ( #212 ), #260, .F. ) ;
#378 = ORIENTED_EDGE ( 'NONE', *, *, #279, .T. ) ;
#379 = TOROIDAL_SURFACE ( 'NONE', #92, 6.500000000000000888, 0.5000000000000000000 ) ;
#380 = PERSON_AND_ORGANIZATION ( #297, #131 ) ;
#381 = PERSON_AND_ORGANIZATION_ROLE ( 'classification_officer' ) ;
ENDSEC;
END-ISO-10303-21;
