ISO-10303-21;
HEADER;
FILE_DESCRIPTION (( 'STEP AP203' ),
    '1' );
FILE_NAME ('f82c.STEP',
    '2022-07-08T14:52:36',
    ( '' ),
    ( '' ),
    'SwSTEP 2.0',
    'SolidWorks 2019',
    '' );
FILE_SCHEMA (( 'CONFIG_CONTROL_DESIGN' ));
ENDSEC;

DATA;
#1 = DIRECTION ( 'NONE',  ( 0.000000000000000000, 0.000000000000000000, 1.000000000000000000 ) ) ;
#2 = CIRCLE ( 'NONE', #264, 10.00000000000000000 ) ;
#3 = CARTESIAN_POINT ( 'NONE',  ( 0.000000000000000000, 0.000000000000000000, 607.0000000000000000 ) ) ;
#4 = DIRECTION ( 'NONE',  ( -0.000000000000000000, -0.000000000000000000, -1.000000000000000000 ) ) ;
#5 = ADVANCED_FACE ( 'NONE', ( #116 ), #148, .F. ) ;
#6 = AXIS2_PLACEMENT_3D ( 'NONE', #165, #81, #224 ) ;
#7 = ORIENTED_EDGE ( 'NONE', *, *, #64, .F. ) ;
#8 = PLANE ( 'NONE',  #184 ) ;
#9 = CARTESIAN_POINT ( 'NONE',  ( -3.000000000000000444, 0.000000000000000000, 607.0000000000000000 ) ) ;
#10 = ADVANCED_FACE ( 'NONE', ( #62 ), #231, .F. ) ;
#11 = CALENDAR_DATE ( 2022, 8, 7 ) ;
#12 = CALENDAR_DATE ( 2022, 8, 7 ) ;
#13 = DIRECTION ( 'NONE',  ( 0.000000000000000000, 0.000000000000000000, 1.000000000000000000 ) ) ;
#14 = PRODUCT_DEFINITION_SHAPE ( 'NONE', 'NONE',  #263 ) ;
#15 = CALENDAR_DATE ( 2022, 8, 7 ) ;
#16 = CARTESIAN_POINT ( 'NONE',  ( -6.000000000000000888, 0.000000000000000000, 607.0000000000000000 ) ) ;
#17 = DESIGN_CONTEXT ( 'detailed design', #178, 'design' ) ;
#18 = EDGE_CURVE ( 'NONE', #336, #232, #220, .T. ) ;
#19 = ORIENTED_EDGE ( 'NONE', *, *, #112, .T. ) ;
#20 = CIRCLE ( 'NONE', #293, 10.00000000000000000 ) ;
#21 = DIRECTION ( 'NONE',  ( 1.000000000000000000, 0.000000000000000000, 0.000000000000000000 ) ) ;
#22 = VERTEX_POINT ( 'NONE', #88 ) ;
#23 = ORIENTED_EDGE ( 'NONE', *, *, #334, .T. ) ;
#24 = ORIENTED_EDGE ( 'NONE', *, *, #196, .F. ) ;
#25 = CIRCLE ( 'NONE', #173, 6.500000000000000888 ) ;
#26 = DIRECTION ( 'NONE',  ( 0.000000000000000000, 0.000000000000000000, 1.000000000000000000 ) ) ;
#27 = VERTEX_POINT ( 'NONE', #271 ) ;
#28 = CC_DESIGN_PERSON_AND_ORGANIZATION_ASSIGNMENT ( #168, #157, ( #298 ) ) ;
#29 = CARTESIAN_POINT ( 'NONE',  ( 0.000000000000000000, 0.000000000000000000, 607.0000000000000000 ) ) ;
#30 = CIRCLE ( 'NONE', #215, 6.500000000000000888 ) ;
#31 = FACE_OUTER_BOUND ( 'NONE', #318, .T. ) ;
#32 = DIRECTION ( 'NONE',  ( 1.000000000000000000, 0.000000000000000000, -0.000000000000000000 ) ) ;
#33 = FACE_BOUND ( 'NONE', #348, .T. ) ;
#34 = LOCAL_TIME ( 16, 52, 36.00000000000000000, #285 ) ;
#35 = DIRECTION ( 'NONE',  ( 0.000000000000000000, 0.000000000000000000, 1.000000000000000000 ) ) ;
#36 = CIRCLE ( 'NONE', #357, 6.000000000000000888 ) ;
#37 = EDGE_CURVE ( 'NONE', #96, #321, #299, .T. ) ;
#38 = COORDINATED_UNIVERSAL_TIME_OFFSET ( 1, 0, .AHEAD. ) ;
#39 = DIRECTION ( 'NONE',  ( 0.000000000000000000, 0.000000000000000000, 1.000000000000000000 ) ) ;
#40 = VECTOR ( 'NONE', #242, 1000.000000000000000 ) ;
#41 = DATE_AND_TIME ( #12, #87 ) ;
#42 = ORIENTED_EDGE ( 'NONE', *, *, #44, .T. ) ;
#43 = APPROVAL_DATE_TIME ( #314, #120 ) ;
#44 = EDGE_CURVE ( 'NONE', #358, #22, #134, .T. ) ;
#45 = CARTESIAN_POINT ( 'NONE',  ( 0.000000000000000000, 0.000000000000000000, 7.000000000000000000 ) ) ;
#46 = ORIENTED_EDGE ( 'NONE', *, *, #343, .F. ) ;
#47 = PERSON_AND_ORGANIZATION_ROLE ( 'creator' ) ;
#48 = DIRECTION ( 'NONE',  ( 1.000000000000000000, 0.000000000000000000, 0.000000000000000000 ) ) ;
#49 = ORIENTED_EDGE ( 'NONE', *, *, #343, .T. ) ;
#50 = APPROVAL_ROLE ( '' ) ;
#51 = APPROVAL_PERSON_ORGANIZATION ( #108, #120, #223 ) ;
#52 = CYLINDRICAL_SURFACE ( 'NONE', #326, 6.000000000000000888 ) ;
#53 = ORIENTED_EDGE ( 'NONE', *, *, #294, .T. ) ;
#54 = ORIENTED_EDGE ( 'NONE', *, *, #166, .F. ) ;
#55 = CC_DESIGN_PERSON_AND_ORGANIZATION_ASSIGNMENT ( #368, #135, ( #303 ) ) ;
#56 = DIRECTION ( 'NONE',  ( -0.000000000000000000, -0.000000000000000000, -1.000000000000000000 ) ) ;
#57 = CIRCLE ( 'NONE', #159, 3.000000000000000444 ) ;
#58 = CARTESIAN_POINT ( 'NONE',  ( 0.000000000000000000, 0.000000000000000000, 0.000000000000000000 ) ) ;
#59 = CC_DESIGN_DATE_AND_TIME_ASSIGNMENT ( #41, #187, ( #263 ) ) ;
#60 = DIRECTION ( 'NONE',  ( -1.000000000000000000, 0.000000000000000000, 0.000000000000000000 ) ) ;
#61 = ORIENTED_EDGE ( 'NONE', *, *, #166, .T. ) ;
#62 = FACE_OUTER_BOUND ( 'NONE', #202, .T. ) ;
#63 = CARTESIAN_POINT ( 'NONE',  ( 6.000000000000000888, 7.347880794884120722E-16, 607.0000000000000000 ) ) ;
#64 = EDGE_CURVE ( 'NONE', #114, #27, #354, .T. ) ;
#65 = LINE ( 'NONE', #95, #379 ) ;
#66 = ORIENTED_EDGE ( 'NONE', *, *, #176, .T. ) ;
#67 = DIRECTION ( 'NONE',  ( -1.000000000000000000, 1.224646799147351482E-16, 0.000000000000000000 ) ) ;
#68 = ORIENTED_EDGE ( 'NONE', *, *, #44, .F. ) ;
#69 = LOCAL_TIME ( 16, 52, 36.00000000000000000, #38 ) ;
#70 = CARTESIAN_POINT ( 'NONE',  ( 6.000000000000000888, 7.347880794884120722E-16, 7.499999999999951150 ) ) ;
#71 = COORDINATED_UNIVERSAL_TIME_OFFSET ( 1, 0, .AHEAD. ) ;
#72 = DIRECTION ( 'NONE',  ( -0.000000000000000000, -0.000000000000000000, -1.000000000000000000 ) ) ;
#73 = VERTEX_POINT ( 'NONE', #204 ) ;
#74 = CIRCLE ( 'NONE', #107, 6.000000000000000888 ) ;
#75 = COORDINATED_UNIVERSAL_TIME_OFFSET ( 1, 0, .AHEAD. ) ;
#76 = DIRECTION ( 'NONE',  ( -1.000000000000000000, 0.000000000000000000, 0.000000000000000000 ) ) ;
#77 = ORIENTED_EDGE ( 'NONE', *, *, #305, .F. ) ;
#78 = DIRECTION ( 'NONE',  ( -0.000000000000000000, -0.000000000000000000, -1.000000000000000000 ) ) ;
#79 = ORIENTED_EDGE ( 'NONE', *, *, #97, .F. ) ;
#80 = DIRECTION ( 'NONE',  ( 0.000000000000000000, 0.000000000000000000, -1.000000000000000000 ) ) ;
#81 = DIRECTION ( 'NONE',  ( 0.000000000000000000, 0.000000000000000000, 1.000000000000000000 ) ) ;
#82 = APPROVAL ( #100, 'NEURÈENÝ' ) ;
#83 = ORIENTED_EDGE ( 'NONE', *, *, #112, .F. ) ;
#84 = CARTESIAN_POINT ( 'NONE',  ( 10.00000000000000000, 1.224646799147353256E-15, 7.000000000000000000 ) ) ;
#85 = DIRECTION ( 'NONE',  ( 0.000000000000000000, 0.000000000000000000, -1.000000000000000000 ) ) ;
#86 = CC_DESIGN_DATE_AND_TIME_ASSIGNMENT ( #104, #372, ( #303 ) ) ;
#87 = LOCAL_TIME ( 16, 52, 36.00000000000000000, #307 ) ;
#88 = CARTESIAN_POINT ( 'NONE',  ( 3.000000000000000444, 3.673940397442060361E-16, 607.0000000000000000 ) ) ;
#89 = CARTESIAN_POINT ( 'NONE',  ( 0.000000000000000000, 0.000000000000000000, 607.0000000000000000 ) ) ;
#90 = EDGE_LOOP ( 'NONE', ( #234, #54 ) ) ;
#91 = LINE ( 'NONE', #9, #365 ) ;
#92 = APPROVAL_PERSON_ORGANIZATION ( #131, #82, #50 ) ;
#93 = ADVANCED_FACE ( 'NONE', ( #323 ), #207, .T. ) ;
#94 = PERSON ( 'NEURÈENÝ', 'NEURÈENÝ', 'NEURÈENÝ', ('NEURÈENÝ'), ('NEURÈENÝ'), ('NEURÈENÝ') ) ;
#95 = CARTESIAN_POINT ( 'NONE',  ( 3.000000000000000444, 3.673940397442060361E-16, 607.0000000000000000 ) ) ;
#96 = VERTEX_POINT ( 'NONE', #143 ) ;
#97 = EDGE_CURVE ( 'NONE', #114, #137, #36, .T. ) ;
#98 = CARTESIAN_POINT ( 'NONE',  ( 0.000000000000000000, 0.000000000000000000, 607.0000000000000000 ) ) ;
#99 = CC_DESIGN_APPROVAL ( #226, ( #298 ) ) ;
#100 = APPROVAL_STATUS ( 'not_yet_approved' ) ;
#101 = DIRECTION ( 'NONE',  ( 0.000000000000000000, 0.000000000000000000, 1.000000000000000000 ) ) ;
#102 = DIRECTION ( 'NONE',  ( -1.000000000000000000, 0.000000000000000000, 0.000000000000000000 ) ) ;
#103 = ORIENTED_EDGE ( 'NONE', *, *, #334, .F. ) ;
#104 = DATE_AND_TIME ( #319, #69 ) ;
#105 = DIRECTION ( 'NONE',  ( -0.000000000000000000, -0.000000000000000000, -1.000000000000000000 ) ) ;
#106 = ORIENTED_EDGE ( 'NONE', *, *, #97, .T. ) ;
#107 = AXIS2_PLACEMENT_3D ( 'NONE', #258, #39, #378 ) ;
#108 = PERSON_AND_ORGANIZATION ( #94, #205 ) ;
#109 = UNCERTAINTY_MEASURE_WITH_UNIT (LENGTH_MEASURE( 1.000000000000000082E-05 ), #265, 'distance_accuracy_value', 'NONE');
#110 = ORIENTED_EDGE ( 'NONE', *, *, #324, .F. ) ;
#111 = ORIENTED_EDGE ( 'NONE', *, *, #252, .T. ) ;
#112 = EDGE_CURVE ( 'NONE', #137, #373, #181, .T. ) ;
#113 = CARTESIAN_POINT ( 'NONE',  ( -6.000000000000000888, 0.000000000000000000, 607.0000000000000000 ) ) ;
#114 = VERTEX_POINT ( 'NONE', #70 ) ;
#115 = AXIS2_PLACEMENT_3D ( 'NONE', #98, #306, #216 ) ;
#116 = FACE_OUTER_BOUND ( 'NONE', #228, .T. ) ;
#117 = ADVANCED_FACE ( 'NONE', ( #301 ), #363, .F. ) ;
#118 = AXIS2_PLACEMENT_3D ( 'NONE', #189, #335, #67 ) ;
#119 = DIRECTION ( 'NONE',  ( 1.000000000000000000, 0.000000000000000000, 0.000000000000000000 ) ) ;
#120 = APPROVAL ( #221, 'NEURÈENÝ' ) ;
#121 = LINE ( 'NONE', #151, #40 ) ;
#122 = DIRECTION ( 'NONE',  ( 1.000000000000000000, 0.000000000000000000, 0.000000000000000000 ) ) ;
#123 = VECTOR ( 'NONE', #4, 1000.000000000000000 ) ;
#124 = ORIENTED_EDGE ( 'NONE', *, *, #238, .T. ) ;
#125 = DIRECTION ( 'NONE',  ( 1.000000000000000000, 0.000000000000000000, 0.000000000000000000 ) ) ;
#126 = CC_DESIGN_PERSON_AND_ORGANIZATION_ASSIGNMENT ( #296, #375, ( #288 ) ) ;
#127 = APPLICATION_CONTEXT ( 'configuration controlled 3d designs of mechanical parts and assemblies' ) ;
#128 = CARTESIAN_POINT ( 'NONE',  ( -10.00000000000000000, 0.000000000000000000, 7.000000000000000000 ) ) ;
#129 = LOCAL_TIME ( 16, 52, 36.00000000000000000, #71 ) ;
#130 = MANIFOLD_SOLID_BREP ( 'Odebrat vysunutím3', #145 ) ;
#131 = PERSON_AND_ORGANIZATION ( #94, #205 ) ;
#132 = DATE_AND_TIME ( #15, #129 ) ;
#133 = DIRECTION ( 'NONE',  ( 0.000000000000000000, 0.000000000000000000, 1.000000000000000000 ) ) ;
#134 = CIRCLE ( 'NONE', #203, 3.000000000000000444 ) ;
#135 = PERSON_AND_ORGANIZATION_ROLE ( 'classification_officer' ) ;
#136 = FACE_OUTER_BOUND ( 'NONE', #174, .T. ) ;
#137 = VERTEX_POINT ( 'NONE', #333 ) ;
#138 = CIRCLE ( 'NONE', #345, 3.000000000000000444 ) ;
#139 = PLANE ( 'NONE',  #177 ) ;
#140 = FACE_OUTER_BOUND ( 'NONE', #256, .T. ) ;
#141 = ORIENTED_EDGE ( 'NONE', *, *, #243, .F. ) ;
#142 =( NAMED_UNIT ( * ) SI_UNIT ( $, .STERADIAN. ) SOLID_ANGLE_UNIT ( ) );
#143 = CARTESIAN_POINT ( 'NONE',  ( 10.00000000000000000, 1.224646799147353256E-15, 7.000000000000000000 ) ) ;
#144 = ORIENTED_EDGE ( 'NONE', *, *, #252, .F. ) ;
#145 = CLOSED_SHELL ( 'NONE', ( #5, #10, #361, #93, #274, #149, #212, #370, #374, #117, #330 ) ) ;
#146 = DIRECTION ( 'NONE',  ( 0.000000000000000000, 0.000000000000000000, 1.000000000000000000 ) ) ;
#147 = AXIS2_PLACEMENT_3D ( 'NONE', #320, #78, #76 ) ;
#148 = CYLINDRICAL_SURFACE ( 'NONE', #340, 3.000000000000000444 ) ;
#149 = ADVANCED_FACE ( 'NONE', ( #33, #364 ), #8, .T. ) ;
#150 = PLANE ( 'NONE',  #276 ) ;
#151 = CARTESIAN_POINT ( 'NONE',  ( -10.00000000000000000, 0.000000000000000000, 7.000000000000000000 ) ) ;
#152 =( GEOMETRIC_REPRESENTATION_CONTEXT ( 3 ) GLOBAL_UNCERTAINTY_ASSIGNED_CONTEXT ( ( #109 ) ) GLOBAL_UNIT_ASSIGNED_CONTEXT ( ( #265, #270, #142 ) ) REPRESENTATION_CONTEXT ( 'NONE', 'WORKASPACE' ) );
#153 = LINE ( 'NONE', #338, #123 ) ;
#154 = CC_DESIGN_PERSON_AND_ORGANIZATION_ASSIGNMENT ( #195, #47, ( #298 ) ) ;
#155 = ORIENTED_EDGE ( 'NONE', *, *, #313, .T. ) ;
#156 = DIRECTION ( 'NONE',  ( -0.000000000000000000, -0.000000000000000000, -1.000000000000000000 ) ) ;
#157 = PERSON_AND_ORGANIZATION_ROLE ( 'design_supplier' ) ;
#158 = CYLINDRICAL_SURFACE ( 'NONE', #331, 10.00000000000000000 ) ;
#159 = AXIS2_PLACEMENT_3D ( 'NONE', #180, #156, #279 ) ;
#160 = CARTESIAN_POINT ( 'NONE',  ( 0.000000000000000000, 0.000000000000000000, 7.000000000000000000 ) ) ;
#161 = EDGE_LOOP ( 'NONE', ( #83, #79, #350, #144 ) ) ;
#162 = ADVANCED_BREP_SHAPE_REPRESENTATION ( 'f82c', ( #130, #247 ), #152 ) ;
#163 = CARTESIAN_POINT ( 'NONE',  ( 0.000000000000000000, 0.000000000000000000, 7.000000000000000000 ) ) ;
#164 = APPROVAL_DATE_TIME ( #132, #226 ) ;
#165 = CARTESIAN_POINT ( 'NONE',  ( 0.000000000000000000, 0.000000000000000000, 0.000000000000000000 ) ) ;
#166 = EDGE_CURVE ( 'NONE', #73, #175, #57, .T. ) ;
#167 = CIRCLE ( 'NONE', #210, 10.00000000000000000 ) ;
#168 = PERSON_AND_ORGANIZATION ( #94, #205 ) ;
#169 = DIRECTION ( 'NONE',  ( 1.000000000000000000, 0.000000000000000000, -0.000000000000000000 ) ) ;
#170 = ORIENTED_EDGE ( 'NONE', *, *, #313, .F. ) ;
#171 = ORIENTED_EDGE ( 'NONE', *, *, #243, .T. ) ;
#172 = DIRECTION ( 'NONE',  ( -1.000000000000000000, 0.000000000000000000, 0.000000000000000000 ) ) ;
#173 = AXIS2_PLACEMENT_3D ( 'NONE', #349, #105, #347 ) ;
#174 = EDGE_LOOP ( 'NONE', ( #360, #297, #106, #77 ) ) ;
#175 = VERTEX_POINT ( 'NONE', #275 ) ;
#176 = EDGE_CURVE ( 'NONE', #358, #175, #91, .T. ) ;
#177 = AXIS2_PLACEMENT_3D ( 'NONE', #230, #308, #169 ) ;
#178 = APPLICATION_CONTEXT ( 'configuration controlled 3d designs of mechanical parts and assemblies' ) ;
#179 = DIRECTION ( 'NONE',  ( 0.000000000000000000, -1.000000000000000000, 0.000000000000000000 ) ) ;
#180 = CARTESIAN_POINT ( 'NONE',  ( 0.000000000000000000, 0.000000000000000000, 0.000000000000000000 ) ) ;
#181 = CIRCLE ( 'NONE', #118, 0.5000000000000004441 ) ;
#182 = EDGE_CURVE ( 'NONE', #232, #336, #235, .T. ) ;
#183 = VERTEX_POINT ( 'NONE', #128 ) ;
#184 = AXIS2_PLACEMENT_3D ( 'NONE', #246, #211, #32 ) ;
#185 = CARTESIAN_POINT ( 'NONE',  ( 0.000000000000000000, 0.000000000000000000, 0.000000000000000000 ) ) ;
#186 = CARTESIAN_POINT ( 'NONE',  ( 0.000000000000000000, 0.000000000000000000, 0.000000000000000000 ) ) ;
#187 = DATE_TIME_ROLE ( 'creation_date' ) ;
#188 = AXIS2_PLACEMENT_3D ( 'NONE', #240, #101, #339 ) ;
#189 = CARTESIAN_POINT ( 'NONE',  ( -6.500000000000000888, 7.960204194457796463E-16, 7.499999999999951150 ) ) ;
#190 = CC_DESIGN_PERSON_AND_ORGANIZATION_ASSIGNMENT ( #191, #309, ( #263 ) ) ;
#191 = PERSON_AND_ORGANIZATION ( #94, #205 ) ;
#192 = ORIENTED_EDGE ( 'NONE', *, *, #269, .T. ) ;
#193 = CALENDAR_DATE ( 2022, 8, 7 ) ;
#194 = DIRECTION ( 'NONE',  ( -0.000000000000000000, -0.000000000000000000, -1.000000000000000000 ) ) ;
#195 = PERSON_AND_ORGANIZATION ( #94, #205 ) ;
#196 = EDGE_CURVE ( 'NONE', #232, #114, #153, .T. ) ;
#197 = DIRECTION ( 'NONE',  ( -1.000000000000000000, 0.000000000000000000, 0.000000000000000000 ) ) ;
#198 = APPLICATION_PROTOCOL_DEFINITION ( 'international standard', 'config_control_design', 1994, #178 ) ;
#199 = CYLINDRICAL_SURFACE ( 'NONE', #147, 6.000000000000000888 ) ;
#200 = ORIENTED_EDGE ( 'NONE', *, *, #37, .F. ) ;
#201 = VECTOR ( 'NONE', #72, 1000.000000000000000 ) ;
#202 = EDGE_LOOP ( 'NONE', ( #295, #19, #103, #7 ) ) ;
#203 = AXIS2_PLACEMENT_3D ( 'NONE', #89, #146, #119 ) ;
#204 = CARTESIAN_POINT ( 'NONE',  ( 3.000000000000000444, 3.673940397442060361E-16, 0.000000000000000000 ) ) ;
#205 = ORGANIZATION ( 'NEURÈENÝ', 'NEURÈENÝ', '' ) ;
#206 = APPLICATION_PROTOCOL_DEFINITION ( 'international standard', 'config_control_design', 1994, #127 ) ;
#207 = CYLINDRICAL_SURFACE ( 'NONE', #261, 10.00000000000000000 ) ;
#208 = DIRECTION ( 'NONE',  ( 0.000000000000000000, 0.000000000000000000, 1.000000000000000000 ) ) ;
#209 = DIRECTION ( 'NONE',  ( 1.000000000000000000, 0.000000000000000000, 0.000000000000000000 ) ) ;
#210 = AXIS2_PLACEMENT_3D ( 'NONE', #45, #222, #341 ) ;
#211 = DIRECTION ( 'NONE',  ( 0.000000000000000000, 0.000000000000000000, 1.000000000000000000 ) ) ;
#212 = ADVANCED_FACE ( 'NONE', ( #367, #31 ), #150, .F. ) ;
#213 = CARTESIAN_POINT ( 'NONE',  ( 0.000000000000000000, 0.000000000000000000, 7.000000000000000000 ) ) ;
#214 = EDGE_LOOP ( 'NONE', ( #352, #53 ) ) ;
#215 = AXIS2_PLACEMENT_3D ( 'NONE', #213, #277, #125 ) ;
#216 = DIRECTION ( 'NONE',  ( 1.000000000000000000, 0.000000000000000000, 0.000000000000000000 ) ) ;
#217 = SHAPE_DEFINITION_REPRESENTATION ( #14, #162 ) ;
#218 = DIRECTION ( 'NONE',  ( 0.000000000000000000, 0.000000000000000000, -1.000000000000000000 ) ) ;
#219 = EDGE_CURVE ( 'NONE', #22, #358, #138, .T. ) ;
#220 = CIRCLE ( 'NONE', #322, 6.000000000000000888 ) ;
#221 = APPROVAL_STATUS ( 'not_yet_approved' ) ;
#222 = DIRECTION ( 'NONE',  ( 0.000000000000000000, 0.000000000000000000, 1.000000000000000000 ) ) ;
#223 = APPROVAL_ROLE ( '' ) ;
#224 = DIRECTION ( 'NONE',  ( 1.000000000000000000, 0.000000000000000000, 0.000000000000000000 ) ) ;
#225 = AXIS2_PLACEMENT_3D ( 'NONE', #185, #304, #369 ) ;
#226 = APPROVAL ( #229, 'NEURÈENÝ' ) ;
#227 = FACE_OUTER_BOUND ( 'NONE', #249, .T. ) ;
#228 = EDGE_LOOP ( 'NONE', ( #42, #171, #61, #253 ) ) ;
#229 = APPROVAL_STATUS ( 'not_yet_approved' ) ;
#230 = CARTESIAN_POINT ( 'NONE',  ( 0.000000000000000000, 0.000000000000000000, 607.0000000000000000 ) ) ;
#231 = TOROIDAL_SURFACE ( 'NONE', #284, 6.500000000000000888, 0.5000000000000000000 ) ;
#232 = VERTEX_POINT ( 'NONE', #63 ) ;
#233 = CARTESIAN_POINT ( 'NONE',  ( 10.00000000000000000, 1.224646799147353256E-15, 0.000000000000000000 ) ) ;
#234 = ORIENTED_EDGE ( 'NONE', *, *, #269, .F. ) ;
#235 = CIRCLE ( 'NONE', #115, 6.000000000000000888 ) ;
#236 = DIRECTION ( 'NONE',  ( 1.000000000000000000, 0.000000000000000000, 0.000000000000000000 ) ) ;
#237 = APPROVAL_PERSON_ORGANIZATION ( #248, #226, #366 ) ;
#238 = EDGE_CURVE ( 'NONE', #183, #268, #121, .T. ) ;
#239 = ORIENTED_EDGE ( 'NONE', *, *, #290, .T. ) ;
#240 = CARTESIAN_POINT ( 'NONE',  ( 0.000000000000000000, 0.000000000000000000, 7.499999999999951150 ) ) ;
#241 = CIRCLE ( 'NONE', #6, 10.00000000000000000 ) ;
#242 = DIRECTION ( 'NONE',  ( -0.000000000000000000, -0.000000000000000000, -1.000000000000000000 ) ) ;
#243 = EDGE_CURVE ( 'NONE', #22, #73, #65, .T. ) ;
#244 = ORIENTED_EDGE ( 'NONE', *, *, #37, .T. ) ;
#245 = DIRECTION ( 'NONE',  ( 0.000000000000000000, 0.000000000000000000, -1.000000000000000000 ) ) ;
#246 = CARTESIAN_POINT ( 'NONE',  ( 0.000000000000000000, 0.000000000000000000, 7.000000000000000000 ) ) ;
#247 = AXIS2_PLACEMENT_3D ( 'NONE', #58, #26, #267 ) ;
#248 = PERSON_AND_ORGANIZATION ( #94, #205 ) ;
#249 = EDGE_LOOP ( 'NONE', ( #200, #110, #124, #155 ) ) ;
#250 = VECTOR ( 'NONE', #328, 1000.000000000000000 ) ;
#251 = CARTESIAN_POINT ( 'NONE',  ( 0.000000000000000000, 0.000000000000000000, 607.0000000000000000 ) ) ;
#252 = EDGE_CURVE ( 'NONE', #373, #27, #30, .T. ) ;
#253 = ORIENTED_EDGE ( 'NONE', *, *, #176, .F. ) ;
#254 = CARTESIAN_POINT ( 'NONE',  ( 0.000000000000000000, 0.000000000000000000, 607.0000000000000000 ) ) ;
#255 = CC_DESIGN_APPROVAL ( #82, ( #263 ) ) ;
#256 = EDGE_LOOP ( 'NONE', ( #141, #283, #66, #192 ) ) ;
#257 = DATE_AND_TIME ( #11, #34 ) ;
#258 = CARTESIAN_POINT ( 'NONE',  ( 0.000000000000000000, 0.000000000000000000, 7.499999999999951150 ) ) ;
#259 = ORIENTED_EDGE ( 'NONE', *, *, #238, .F. ) ;
#260 = CYLINDRICAL_SURFACE ( 'NONE', #310, 3.000000000000000444 ) ;
#261 = AXIS2_PLACEMENT_3D ( 'NONE', #325, #56, #172 ) ;
#262 = ORIENTED_EDGE ( 'NONE', *, *, #294, .F. ) ;
#263 = PRODUCT_DEFINITION ( 'NEZNÁMÝ', '', #298, #17 ) ;
#264 = AXIS2_PLACEMENT_3D ( 'NONE', #163, #133, #21 ) ;
#265 =( LENGTH_UNIT ( ) NAMED_UNIT ( * ) SI_UNIT ( .MILLI., .METRE. ) );
#266 = CARTESIAN_POINT ( 'NONE',  ( 0.000000000000000000, 0.000000000000000000, 7.499999999999951150 ) ) ;
#267 = DIRECTION ( 'NONE',  ( 1.000000000000000000, 0.000000000000000000, 0.000000000000000000 ) ) ;
#268 = VERTEX_POINT ( 'NONE', #362 ) ;
#269 = EDGE_CURVE ( 'NONE', #175, #73, #280, .T. ) ;
#270 =( NAMED_UNIT ( * ) PLANE_ANGLE_UNIT ( ) SI_UNIT ( $, .RADIAN. ) );
#271 = CARTESIAN_POINT ( 'NONE',  ( 6.500000000000000888, 0.000000000000000000, 6.999999999999975131 ) ) ;
#272 = CC_DESIGN_SECURITY_CLASSIFICATION ( #303, ( #298 ) ) ;
#273 = DIRECTION ( 'NONE',  ( 0.000000000000000000, 0.000000000000000000, 1.000000000000000000 ) ) ;
#274 = ADVANCED_FACE ( 'NONE', ( #227 ), #158, .T. ) ;
#275 = CARTESIAN_POINT ( 'NONE',  ( -3.000000000000000444, 0.000000000000000000, 0.000000000000000000 ) ) ;
#276 = AXIS2_PLACEMENT_3D ( 'NONE', #186, #35, #359 ) ;
#277 = DIRECTION ( 'NONE',  ( -0.000000000000000000, -0.000000000000000000, -1.000000000000000000 ) ) ;
#278 = EDGE_LOOP ( 'NONE', ( #302, #356 ) ) ;
#279 = DIRECTION ( 'NONE',  ( 1.000000000000000000, 0.000000000000000000, 0.000000000000000000 ) ) ;
#280 = CIRCLE ( 'NONE', #225, 3.000000000000000444 ) ;
#281 = DIRECTION ( 'NONE',  ( -0.000000000000000000, -0.000000000000000000, -1.000000000000000000 ) ) ;
#282 = CARTESIAN_POINT ( 'NONE',  ( 0.000000000000000000, 0.000000000000000000, 0.000000000000000000 ) ) ;
#283 = ORIENTED_EDGE ( 'NONE', *, *, #219, .T. ) ;
#284 = AXIS2_PLACEMENT_3D ( 'NONE', #355, #1, #381 ) ;
#285 = COORDINATED_UNIVERSAL_TIME_OFFSET ( 1, 0, .AHEAD. ) ;
#286 = FACE_OUTER_BOUND ( 'NONE', #278, .T. ) ;
#287 = LOCAL_TIME ( 16, 52, 36.00000000000000000, #75 ) ;
#288 = PRODUCT ( 'f82c', 'f82c', '', ( #327 ) ) ;
#289 = ORIENTED_EDGE ( 'NONE', *, *, #219, .F. ) ;
#290 = EDGE_CURVE ( 'NONE', #137, #114, #74, .T. ) ;
#291 = EDGE_LOOP ( 'NONE', ( #68, #289 ) ) ;
#292 = EDGE_LOOP ( 'NONE', ( #24, #312, #342, #239 ) ) ;
#293 = AXIS2_PLACEMENT_3D ( 'NONE', #282, #13, #48 ) ;
#294 = EDGE_CURVE ( 'NONE', #96, #183, #167, .T. ) ;
#295 = ORIENTED_EDGE ( 'NONE', *, *, #290, .F. ) ;
#296 = PERSON_AND_ORGANIZATION ( #94, #205 ) ;
#297 = ORIENTED_EDGE ( 'NONE', *, *, #196, .T. ) ;
#298 = PRODUCT_DEFINITION_FORMATION_WITH_SPECIFIED_SOURCE ( 'LIBOVOLNÝ', '', #288, .NOT_KNOWN. ) ;
#299 = LINE ( 'NONE', #84, #250 ) ;
#300 = PRODUCT_RELATED_PRODUCT_CATEGORY ( 'detail', '', ( #288 ) ) ;
#301 = FACE_OUTER_BOUND ( 'NONE', #161, .T. ) ;
#302 = ORIENTED_EDGE ( 'NONE', *, *, #18, .T. ) ;
#303 = SECURITY_CLASSIFICATION ( '', '', #371 ) ;
#304 = DIRECTION ( 'NONE',  ( -0.000000000000000000, -0.000000000000000000, -1.000000000000000000 ) ) ;
#305 = EDGE_CURVE ( 'NONE', #336, #137, #311, .T. ) ;
#306 = DIRECTION ( 'NONE',  ( 0.000000000000000000, 0.000000000000000000, 1.000000000000000000 ) ) ;
#307 = COORDINATED_UNIVERSAL_TIME_OFFSET ( 1, 0, .AHEAD. ) ;
#308 = DIRECTION ( 'NONE',  ( 0.000000000000000000, 0.000000000000000000, 1.000000000000000000 ) ) ;
#309 = PERSON_AND_ORGANIZATION_ROLE ( 'creator' ) ;
#310 = AXIS2_PLACEMENT_3D ( 'NONE', #251, #80, #197 ) ;
#311 = LINE ( 'NONE', #113, #201 ) ;
#312 = ORIENTED_EDGE ( 'NONE', *, *, #18, .F. ) ;
#313 = EDGE_CURVE ( 'NONE', #268, #321, #20, .T. ) ;
#314 = DATE_AND_TIME ( #193, #287 ) ;
#315 = DIRECTION ( 'NONE',  ( -1.000000000000000000, 0.000000000000000000, 0.000000000000000000 ) ) ;
#316 = EDGE_LOOP ( 'NONE', ( #262, #244, #49, #259 ) ) ;
#317 = CARTESIAN_POINT ( 'NONE',  ( -6.500000000000000888, 7.960204194457796463E-16, 6.999999999999975131 ) ) ;
#318 = EDGE_LOOP ( 'NONE', ( #170, #46 ) ) ;
#319 = CALENDAR_DATE ( 2022, 8, 7 ) ;
#320 = CARTESIAN_POINT ( 'NONE',  ( 0.000000000000000000, 0.000000000000000000, 607.0000000000000000 ) ) ;
#321 = VERTEX_POINT ( 'NONE', #233 ) ;
#322 = AXIS2_PLACEMENT_3D ( 'NONE', #3, #208, #209 ) ;
#323 = FACE_OUTER_BOUND ( 'NONE', #316, .T. ) ;
#324 = EDGE_CURVE ( 'NONE', #183, #96, #2, .T. ) ;
#325 = CARTESIAN_POINT ( 'NONE',  ( 0.000000000000000000, 0.000000000000000000, 7.000000000000000000 ) ) ;
#326 = AXIS2_PLACEMENT_3D ( 'NONE', #254, #194, #315 ) ;
#327 = MECHANICAL_CONTEXT ( 'NONE', #127, 'mechanical' ) ;
#328 = DIRECTION ( 'NONE',  ( -0.000000000000000000, -0.000000000000000000, -1.000000000000000000 ) ) ;
#329 = CARTESIAN_POINT ( 'NONE',  ( 6.500000000000000888, 0.000000000000000000, 7.499999999999951150 ) ) ;
#330 = ADVANCED_FACE ( 'NONE', ( #140 ), #260, .F. ) ;
#331 = AXIS2_PLACEMENT_3D ( 'NONE', #160, #281, #102 ) ;
#332 = CARTESIAN_POINT ( 'NONE',  ( 0.000000000000000000, 0.000000000000000000, 607.0000000000000000 ) ) ;
#333 = CARTESIAN_POINT ( 'NONE',  ( -6.000000000000000888, 0.000000000000000000, 7.499999999999951150 ) ) ;
#334 = EDGE_CURVE ( 'NONE', #27, #373, #25, .T. ) ;
#335 = DIRECTION ( 'NONE',  ( 1.224646799147353207E-16, 1.000000000000000000, -0.000000000000000000 ) ) ;
#336 = VERTEX_POINT ( 'NONE', #16 ) ;
#337 = CC_DESIGN_APPROVAL ( #120, ( #303 ) ) ;
#338 = CARTESIAN_POINT ( 'NONE',  ( 6.000000000000000888, 7.347880794884120722E-16, 607.0000000000000000 ) ) ;
#339 = DIRECTION ( 'NONE',  ( 1.000000000000000000, 0.000000000000000000, 0.000000000000000000 ) ) ;
#340 = AXIS2_PLACEMENT_3D ( 'NONE', #29, #353, #60 ) ;
#341 = DIRECTION ( 'NONE',  ( 1.000000000000000000, 0.000000000000000000, 0.000000000000000000 ) ) ;
#342 = ORIENTED_EDGE ( 'NONE', *, *, #305, .T. ) ;
#343 = EDGE_CURVE ( 'NONE', #321, #268, #241, .T. ) ;
#344 = APPROVAL_DATE_TIME ( #257, #82 ) ;
#345 = AXIS2_PLACEMENT_3D ( 'NONE', #332, #273, #122 ) ;
#346 = CARTESIAN_POINT ( 'NONE',  ( -3.000000000000000444, 0.000000000000000000, 607.0000000000000000 ) ) ;
#347 = DIRECTION ( 'NONE',  ( 1.000000000000000000, 0.000000000000000000, 0.000000000000000000 ) ) ;
#348 = EDGE_LOOP ( 'NONE', ( #23, #111 ) ) ;
#349 = CARTESIAN_POINT ( 'NONE',  ( 0.000000000000000000, 0.000000000000000000, 7.000000000000000000 ) ) ;
#350 = ORIENTED_EDGE ( 'NONE', *, *, #64, .T. ) ;
#351 = FACE_OUTER_BOUND ( 'NONE', #292, .T. ) ;
#352 = ORIENTED_EDGE ( 'NONE', *, *, #324, .T. ) ;
#353 = DIRECTION ( 'NONE',  ( 0.000000000000000000, 0.000000000000000000, -1.000000000000000000 ) ) ;
#354 = CIRCLE ( 'NONE', #377, 0.5000000000000004441 ) ;
#355 = CARTESIAN_POINT ( 'NONE',  ( 0.000000000000000000, 0.000000000000000000, 7.499999999999951150 ) ) ;
#356 = ORIENTED_EDGE ( 'NONE', *, *, #182, .T. ) ;
#357 = AXIS2_PLACEMENT_3D ( 'NONE', #266, #380, #236 ) ;
#358 = VERTEX_POINT ( 'NONE', #346 ) ;
#359 = DIRECTION ( 'NONE',  ( 1.000000000000000000, 0.000000000000000000, -0.000000000000000000 ) ) ;
#360 = ORIENTED_EDGE ( 'NONE', *, *, #182, .F. ) ;
#361 = ADVANCED_FACE ( 'NONE', ( #136 ), #199, .T. ) ;
#362 = CARTESIAN_POINT ( 'NONE',  ( -10.00000000000000000, 0.000000000000000000, 0.000000000000000000 ) ) ;
#363 = TOROIDAL_SURFACE ( 'NONE', #188, 6.500000000000000888, 0.5000000000000000000 ) ;
#364 = FACE_OUTER_BOUND ( 'NONE', #214, .T. ) ;
#365 = VECTOR ( 'NONE', #218, 1000.000000000000000 ) ;
#366 = APPROVAL_ROLE ( '' ) ;
#367 = FACE_BOUND ( 'NONE', #90, .T. ) ;
#368 = PERSON_AND_ORGANIZATION ( #94, #205 ) ;
#369 = DIRECTION ( 'NONE',  ( 1.000000000000000000, 0.000000000000000000, 0.000000000000000000 ) ) ;
#370 = ADVANCED_FACE ( 'NONE', ( #351 ), #52, .T. ) ;
#371 = SECURITY_CLASSIFICATION_LEVEL ( 'unclassified' ) ;
#372 = DATE_TIME_ROLE ( 'classification_date' ) ;
#373 = VERTEX_POINT ( 'NONE', #317 ) ;
#374 = ADVANCED_FACE ( 'NONE', ( #376, #286 ), #139, .T. ) ;
#375 = PERSON_AND_ORGANIZATION_ROLE ( 'design_owner' ) ;
#376 = FACE_BOUND ( 'NONE', #291, .T. ) ;
#377 = AXIS2_PLACEMENT_3D ( 'NONE', #329, #179, #85 ) ;
#378 = DIRECTION ( 'NONE',  ( 1.000000000000000000, 0.000000000000000000, 0.000000000000000000 ) ) ;
#379 = VECTOR ( 'NONE', #245, 1000.000000000000000 ) ;
#380 = DIRECTION ( 'NONE',  ( 0.000000000000000000, 0.000000000000000000, 1.000000000000000000 ) ) ;
#381 = DIRECTION ( 'NONE',  ( 1.000000000000000000, 0.000000000000000000, 0.000000000000000000 ) ) ;
ENDSEC;
END-ISO-10303-21;
