ISO-10303-21;
HEADER;
FILE_DESCRIPTION (( 'STEP AP203' ),
    '1' );
FILE_NAME ('b786.STEP',
    '2022-07-08T15:20:53',
    ( '' ),
    ( '' ),
    'SwSTEP 2.0',
    'SolidWorks 2019',
    '' );
FILE_SCHEMA (( 'CONFIG_CONTROL_DESIGN' ));
ENDSEC;

DATA;
#1 = CARTESIAN_POINT ( 'NONE',  ( 0.000000000000000000, 0.000000000000000000, 0.000000000000000000 ) ) ;
#2 = PERSON_AND_ORGANIZATION ( #318, #367 ) ;
#3 = DIRECTION ( 'NONE',  ( 0.000000000000000000, 0.000000000000000000, 1.000000000000000000 ) ) ;
#4 = AXIS2_PLACEMENT_3D ( 'NONE', #290, #357, #294 ) ;
#5 = CC_DESIGN_PERSON_AND_ORGANIZATION_ASSIGNMENT ( #178, #296, ( #49 ) ) ;
#6 = APPROVAL_DATE_TIME ( #261, #258 ) ;
#7 = CLOSED_SHELL ( 'NONE', ( #315, #101, #36, #354, #214, #248, #52, #130, #69, #381, #71 ) ) ;
#8 = AXIS2_PLACEMENT_3D ( 'NONE', #1, #204, #62 ) ;
#9 = CARTESIAN_POINT ( 'NONE',  ( 4.000000000000000000, 4.898587196589412829E-16, 155.0000000000000000 ) ) ;
#10 = CARTESIAN_POINT ( 'NONE',  ( -7.000000000000000000, 0.000000000000000000, 5.000000000000000000 ) ) ;
#11 = EDGE_LOOP ( 'NONE', ( #253, #78 ) ) ;
#12 = APPROVAL_STATUS ( 'not_yet_approved' ) ;
#13 = AXIS2_PLACEMENT_3D ( 'NONE', #232, #3, #179 ) ;
#14 = DATE_AND_TIME ( #156, #298 ) ;
#15 = AXIS2_PLACEMENT_3D ( 'NONE', #257, #293, #176 ) ;
#16 = DIRECTION ( 'NONE',  ( 1.000000000000000000, 0.000000000000000000, 0.000000000000000000 ) ) ;
#17 = ORIENTED_EDGE ( 'NONE', *, *, #347, .T. ) ;
#18 = PRODUCT_DEFINITION_SHAPE ( 'NONE', 'NONE',  #226 ) ;
#19 = ORIENTED_EDGE ( 'NONE', *, *, #276, .T. ) ;
#20 = CARTESIAN_POINT ( 'NONE',  ( 0.000000000000000000, 0.000000000000000000, 5.500000000000005329 ) ) ;
#21 = EDGE_LOOP ( 'NONE', ( #53, #83, #84, #364 ) ) ;
#22 = AXIS2_PLACEMENT_3D ( 'NONE', #358, #151, #334 ) ;
#23 = CC_DESIGN_DATE_AND_TIME_ASSIGNMENT ( #205, #89, ( #226 ) ) ;
#24 = EDGE_CURVE ( 'NONE', #186, #299, #219, .T. ) ;
#25 = ORIENTED_EDGE ( 'NONE', *, *, #276, .F. ) ;
#26 = CARTESIAN_POINT ( 'NONE',  ( 0.000000000000000000, 0.000000000000000000, 155.0000000000000000 ) ) ;
#27 = AXIS2_PLACEMENT_3D ( 'NONE', #194, #111, #311 ) ;
#28 = CIRCLE ( 'NONE', #8, 2.500000000000000000 ) ;
#29 = APPROVAL_ROLE ( '' ) ;
#30 = DIRECTION ( 'NONE',  ( -1.000000000000000000, 0.000000000000000000, 0.000000000000000000 ) ) ;
#31 = CALENDAR_DATE ( 2022, 8, 7 ) ;
#32 = DIRECTION ( 'NONE',  ( 1.000000000000000000, 0.000000000000000000, 0.000000000000000000 ) ) ;
#33 = AXIS2_PLACEMENT_3D ( 'NONE', #26, #87, #114 ) ;
#34 = CC_DESIGN_APPROVAL ( #258, ( #195 ) ) ;
#35 = CARTESIAN_POINT ( 'NONE',  ( 0.000000000000000000, 0.000000000000000000, 155.0000000000000000 ) ) ;
#36 = ADVANCED_FACE ( 'NONE', ( #166 ), #283, .T. ) ;
#37 = EDGE_CURVE ( 'NONE', #299, #186, #74, .T. ) ;
#38 = PERSON_AND_ORGANIZATION ( #318, #367 ) ;
#39 = CARTESIAN_POINT ( 'NONE',  ( 7.000000000000000000, 8.572527594031473190E-16, 5.000000000000000000 ) ) ;
#40 = EDGE_CURVE ( 'NONE', #222, #344, #236, .T. ) ;
#41 = CARTESIAN_POINT ( 'NONE',  ( -2.500000000000000000, 0.000000000000000000, 155.0000000000000000 ) ) ;
#42 = AXIS2_PLACEMENT_3D ( 'NONE', #35, #356, #326 ) ;
#43 = CARTESIAN_POINT ( 'NONE',  ( 0.000000000000000000, 0.000000000000000000, 155.0000000000000000 ) ) ;
#44 = EDGE_LOOP ( 'NONE', ( #133, #374, #365, #55 ) ) ;
#45 = FACE_BOUND ( 'NONE', #77, .T. ) ;
#46 = EDGE_CURVE ( 'NONE', #344, #222, #340, .T. ) ;
#47 = EDGE_LOOP ( 'NONE', ( #167, #309, #346, #155 ) ) ;
#48 = COORDINATED_UNIVERSAL_TIME_OFFSET ( 1, 0, .AHEAD. ) ;
#49 = SECURITY_CLASSIFICATION ( '', '', #302 ) ;
#50 = ORIENTED_EDGE ( 'NONE', *, *, #177, .F. ) ;
#51 = ORIENTED_EDGE ( 'NONE', *, *, #37, .T. ) ;
#52 = ADVANCED_FACE ( 'NONE', ( #168, #380 ), #228, .F. ) ;
#53 = ORIENTED_EDGE ( 'NONE', *, *, #347, .F. ) ;
#54 = VECTOR ( 'NONE', #297, 1000.000000000000000 ) ;
#55 = ORIENTED_EDGE ( 'NONE', *, *, #336, .F. ) ;
#56 = EDGE_LOOP ( 'NONE', ( #19, #209, #273, #245 ) ) ;
#57 = DIRECTION ( 'NONE',  ( 0.000000000000000000, 0.000000000000000000, 1.000000000000000000 ) ) ;
#58 = CARTESIAN_POINT ( 'NONE',  ( 0.000000000000000000, 0.000000000000000000, 0.000000000000000000 ) ) ;
#59 = AXIS2_PLACEMENT_3D ( 'NONE', #316, #57, #373 ) ;
#60 = CIRCLE ( 'NONE', #312, 0.5000000000000004441 ) ;
#61 = APPLICATION_PROTOCOL_DEFINITION ( 'international standard', 'config_control_design', 1994, #255 ) ;
#62 = DIRECTION ( 'NONE',  ( 1.000000000000000000, 0.000000000000000000, 0.000000000000000000 ) ) ;
#63 = EDGE_CURVE ( 'NONE', #251, #369, #173, .T. ) ;
#64 = COORDINATED_UNIVERSAL_TIME_OFFSET ( 1, 0, .AHEAD. ) ;
#65 = CARTESIAN_POINT ( 'NONE',  ( -4.000000000000000000, 0.000000000000000000, 155.0000000000000000 ) ) ;
#66 = CARTESIAN_POINT ( 'NONE',  ( 0.000000000000000000, 0.000000000000000000, 155.0000000000000000 ) ) ;
#67 = VECTOR ( 'NONE', #303, 1000.000000000000000 ) ;
#68 = DIRECTION ( 'NONE',  ( 1.000000000000000000, 0.000000000000000000, 0.000000000000000000 ) ) ;
#69 = ADVANCED_FACE ( 'NONE', ( #139, #109 ), #117, .T. ) ;
#70 = LINE ( 'NONE', #174, #305 ) ;
#71 = ADVANCED_FACE ( 'NONE', ( #263 ), #119, .F. ) ;
#72 = FACE_OUTER_BOUND ( 'NONE', #136, .T. ) ;
#73 = ORIENTED_EDGE ( 'NONE', *, *, #191, .T. ) ;
#74 = CIRCLE ( 'NONE', #33, 4.000000000000000000 ) ;
#75 = AXIS2_PLACEMENT_3D ( 'NONE', #20, #286, #348 ) ;
#76 = CARTESIAN_POINT ( 'NONE',  ( -2.500000000000000000, 0.000000000000000000, 0.000000000000000000 ) ) ;
#77 = EDGE_LOOP ( 'NONE', ( #249, #181 ) ) ;
#78 = ORIENTED_EDGE ( 'NONE', *, *, #46, .F. ) ;
#79 = APPROVAL_DATE_TIME ( #325, #212 ) ;
#80 = VERTEX_POINT ( 'NONE', #93 ) ;
#81 = CIRCLE ( 'NONE', #341, 7.000000000000000000 ) ;
#82 = PLANE ( 'NONE',  #292 ) ;
#83 = ORIENTED_EDGE ( 'NONE', *, *, #256, .T. ) ;
#84 = ORIENTED_EDGE ( 'NONE', *, *, #199, .F. ) ;
#85 =( NAMED_UNIT ( * ) PLANE_ANGLE_UNIT ( ) SI_UNIT ( $, .RADIAN. ) );
#86 = AXIS2_PLACEMENT_3D ( 'NONE', #43, #187, #183 ) ;
#87 = DIRECTION ( 'NONE',  ( 0.000000000000000000, 0.000000000000000000, 1.000000000000000000 ) ) ;
#88 = EDGE_LOOP ( 'NONE', ( #375, #51 ) ) ;
#89 = DATE_TIME_ROLE ( 'creation_date' ) ;
#90 = CARTESIAN_POINT ( 'NONE',  ( 0.000000000000000000, 0.000000000000000000, 0.000000000000000000 ) ) ;
#91 = CC_DESIGN_APPROVAL ( #379, ( #226 ) ) ;
#92 = APPROVAL_DATE_TIME ( #229, #379 ) ;
#93 = CARTESIAN_POINT ( 'NONE',  ( -4.000000000000000000, 0.000000000000000000, 5.500000000000005329 ) ) ;
#94 = PERSON_AND_ORGANIZATION_ROLE ( 'design_owner' ) ;
#95 = DIRECTION ( 'NONE',  ( -0.000000000000000000, -0.000000000000000000, -1.000000000000000000 ) ) ;
#96 = LOCAL_TIME ( 17, 20, 53.00000000000000000, #134 ) ;
#97 = DIRECTION ( 'NONE',  ( 0.000000000000000000, 0.000000000000000000, -1.000000000000000000 ) ) ;
#98 = ADVANCED_BREP_SHAPE_REPRESENTATION ( 'b786', ( #233, #4 ), #377 ) ;
#99 = ORIENTED_EDGE ( 'NONE', *, *, #24, .F. ) ;
#100 = CARTESIAN_POINT ( 'NONE',  ( -7.000000000000000000, 0.000000000000000000, 0.000000000000000000 ) ) ;
#101 = ADVANCED_FACE ( 'NONE', ( #360 ), #201, .F. ) ;
#102 = CIRCLE ( 'NONE', #42, 2.500000000000000000 ) ;
#103 = EDGE_CURVE ( 'NONE', #223, #369, #60, .T. ) ;
#104 = DIRECTION ( 'NONE',  ( -1.000000000000000000, 0.000000000000000000, 0.000000000000000000 ) ) ;
#105 = EDGE_LOOP ( 'NONE', ( #159, #131, #141, #270 ) ) ;
#106 = AXIS2_PLACEMENT_3D ( 'NONE', #317, #170, #288 ) ;
#107 = CIRCLE ( 'NONE', #15, 7.000000000000000000 ) ;
#108 = DIRECTION ( 'NONE',  ( 1.000000000000000000, 0.000000000000000000, 0.000000000000000000 ) ) ;
#109 = FACE_OUTER_BOUND ( 'NONE', #88, .T. ) ;
#110 = ORIENTED_EDGE ( 'NONE', *, *, #250, .T. ) ;
#111 = DIRECTION ( 'NONE',  ( 0.000000000000000000, 0.000000000000000000, 1.000000000000000000 ) ) ;
#112 = DIRECTION ( 'NONE',  ( 0.000000000000000000, 0.000000000000000000, 1.000000000000000000 ) ) ;
#113 = APPROVAL_PERSON_ORGANIZATION ( #262, #379, #124 ) ;
#114 = DIRECTION ( 'NONE',  ( 1.000000000000000000, 0.000000000000000000, 0.000000000000000000 ) ) ;
#115 = ORIENTED_EDGE ( 'NONE', *, *, #239, .T. ) ;
#116 = UNCERTAINTY_MEASURE_WITH_UNIT (LENGTH_MEASURE( 1.000000000000000082E-05 ), #343, 'distance_accuracy_value', 'NONE');
#117 = PLANE ( 'NONE',  #13 ) ;
#118 = APPLICATION_PROTOCOL_DEFINITION ( 'international standard', 'config_control_design', 1994, #279 ) ;
#119 = CYLINDRICAL_SURFACE ( 'NONE', #361, 2.500000000000000000 ) ;
#120 = CIRCLE ( 'NONE', #230, 0.5000000000000004441 ) ;
#121 = APPROVAL_STATUS ( 'not_yet_approved' ) ;
#122 = EDGE_CURVE ( 'NONE', #328, #314, #70, .T. ) ;
#123 = PERSON_AND_ORGANIZATION ( #318, #367 ) ;
#124 = APPROVAL_ROLE ( '' ) ;
#125 = DIRECTION ( 'NONE',  ( 0.000000000000000000, 0.000000000000000000, 1.000000000000000000 ) ) ;
#126 = AXIS2_PLACEMENT_3D ( 'NONE', #90, #352, #197 ) ;
#127 = AXIS2_PLACEMENT_3D ( 'NONE', #363, #129, #104 ) ;
#128 = CARTESIAN_POINT ( 'NONE',  ( -7.000000000000000000, 0.000000000000000000, 5.000000000000000000 ) ) ;
#129 = DIRECTION ( 'NONE',  ( 0.000000000000000000, 0.000000000000000000, -1.000000000000000000 ) ) ;
#130 = ADVANCED_FACE ( 'NONE', ( #231 ), #362, .T. ) ;
#131 = ORIENTED_EDGE ( 'NONE', *, *, #147, .F. ) ;
#132 = APPROVAL_ROLE ( '' ) ;
#133 = ORIENTED_EDGE ( 'NONE', *, *, #37, .F. ) ;
#134 = COORDINATED_UNIVERSAL_TIME_OFFSET ( 1, 0, .AHEAD. ) ;
#135 = LINE ( 'NONE', #10, #330 ) ;
#136 = EDGE_LOOP ( 'NONE', ( #376, #115 ) ) ;
#137 = CC_DESIGN_PERSON_AND_ORGANIZATION_ASSIGNMENT ( #2, #94, ( #203 ) ) ;
#138 = DIRECTION ( 'NONE',  ( 0.000000000000000000, 0.000000000000000000, 1.000000000000000000 ) ) ;
#139 = FACE_BOUND ( 'NONE', #188, .T. ) ;
#140 = FACE_OUTER_BOUND ( 'NONE', #47, .T. ) ;
#141 = ORIENTED_EDGE ( 'NONE', *, *, #313, .T. ) ;
#142 = CYLINDRICAL_SURFACE ( 'NONE', #372, 7.000000000000000000 ) ;
#143 = ORIENTED_EDGE ( 'NONE', *, *, #239, .F. ) ;
#144 = EDGE_CURVE ( 'NONE', #223, #80, #238, .T. ) ;
#145 = APPROVAL_PERSON_ORGANIZATION ( #333, #212, #132 ) ;
#146 = DIRECTION ( 'NONE',  ( -0.000000000000000000, -0.000000000000000000, -1.000000000000000000 ) ) ;
#147 = EDGE_CURVE ( 'NONE', #216, #163, #107, .T. ) ;
#148 = CALENDAR_DATE ( 2022, 8, 7 ) ;
#149 = DIRECTION ( 'NONE',  ( 0.000000000000000000, 0.000000000000000000, 1.000000000000000000 ) ) ;
#150 = AXIS2_PLACEMENT_3D ( 'NONE', #320, #172, #291 ) ;
#151 = DIRECTION ( 'NONE',  ( -0.000000000000000000, -0.000000000000000000, -1.000000000000000000 ) ) ;
#152 = MECHANICAL_CONTEXT ( 'NONE', #255, 'mechanical' ) ;
#153 = PRODUCT_RELATED_PRODUCT_CATEGORY ( 'detail', '', ( #203 ) ) ;
#154 = TOROIDAL_SURFACE ( 'NONE', #224, 4.500000000000000888, 0.5000000000000000000 ) ;
#155 = ORIENTED_EDGE ( 'NONE', *, *, #63, .F. ) ;
#156 = CALENDAR_DATE ( 2022, 8, 7 ) ;
#157 = DIRECTION ( 'NONE',  ( 1.000000000000000000, 0.000000000000000000, 0.000000000000000000 ) ) ;
#158 = CARTESIAN_POINT ( 'NONE',  ( 0.000000000000000000, 0.000000000000000000, 5.000000000000000000 ) ) ;
#159 = ORIENTED_EDGE ( 'NONE', *, *, #337, .F. ) ;
#160 = CYLINDRICAL_SURFACE ( 'NONE', #127, 2.500000000000000000 ) ;
#161 = ORIENTED_EDGE ( 'NONE', *, *, #337, .T. ) ;
#162 = CARTESIAN_POINT ( 'NONE',  ( 4.500000000000000888, 0.000000000000000000, 5.000000000000002665 ) ) ;
#163 = VERTEX_POINT ( 'NONE', #39 ) ;
#164 = DIRECTION ( 'NONE',  ( -1.000000000000000000, 0.000000000000000000, 0.000000000000000000 ) ) ;
#165 = LOCAL_TIME ( 17, 20, 53.00000000000000000, #64 ) ;
#166 = FACE_OUTER_BOUND ( 'NONE', #44, .T. ) ;
#167 = ORIENTED_EDGE ( 'NONE', *, *, #256, .F. ) ;
#168 = FACE_BOUND ( 'NONE', #211, .T. ) ;
#169 = CIRCLE ( 'NONE', #75, 4.000000000000000000 ) ;
#170 = DIRECTION ( 'NONE',  ( -0.000000000000000000, -0.000000000000000000, -1.000000000000000000 ) ) ;
#171 = APPROVAL_STATUS ( 'not_yet_approved' ) ;
#172 = DIRECTION ( 'NONE',  ( -0.000000000000000000, -0.000000000000000000, -1.000000000000000000 ) ) ;
#173 = CIRCLE ( 'NONE', #106, 4.500000000000000888 ) ;
#174 = CARTESIAN_POINT ( 'NONE',  ( 2.500000000000000000, 3.061616997868383141E-16, 155.0000000000000000 ) ) ;
#175 = AXIS2_PLACEMENT_3D ( 'NONE', #322, #125, #32 ) ;
#176 = DIRECTION ( 'NONE',  ( 1.000000000000000000, 0.000000000000000000, 0.000000000000000000 ) ) ;
#177 = EDGE_CURVE ( 'NONE', #328, #275, #102, .T. ) ;
#178 = PERSON_AND_ORGANIZATION ( #318, #367 ) ;
#179 = DIRECTION ( 'NONE',  ( 1.000000000000000000, 0.000000000000000000, -0.000000000000000000 ) ) ;
#180 = CARTESIAN_POINT ( 'NONE',  ( -4.000000000000000000, 0.000000000000000000, 155.0000000000000000 ) ) ;
#181 = ORIENTED_EDGE ( 'NONE', *, *, #63, .T. ) ;
#182 = CC_DESIGN_SECURITY_CLASSIFICATION ( #49, ( #195 ) ) ;
#183 = DIRECTION ( 'NONE',  ( 1.000000000000000000, 0.000000000000000000, 0.000000000000000000 ) ) ;
#184 = ORIENTED_EDGE ( 'NONE', *, *, #177, .T. ) ;
#185 = CARTESIAN_POINT ( 'NONE',  ( 4.000000000000000000, 4.898587196589412829E-16, 155.0000000000000000 ) ) ;
#186 = VERTEX_POINT ( 'NONE', #65 ) ;
#187 = DIRECTION ( 'NONE',  ( 0.000000000000000000, 0.000000000000000000, 1.000000000000000000 ) ) ;
#188 = EDGE_LOOP ( 'NONE', ( #25, #50 ) ) ;
#189 = LINE ( 'NONE', #345, #259 ) ;
#190 = EDGE_LOOP ( 'NONE', ( #143, #161, #338, #280 ) ) ;
#191 = EDGE_CURVE ( 'NONE', #218, #314, #28, .T. ) ;
#192 = CC_DESIGN_PERSON_AND_ORGANIZATION_ASSIGNMENT ( #123, #366, ( #195 ) ) ;
#193 = CARTESIAN_POINT ( 'NONE',  ( 0.000000000000000000, 0.000000000000000000, 5.000000000000000000 ) ) ;
#194 = CARTESIAN_POINT ( 'NONE',  ( 0.000000000000000000, 0.000000000000000000, 155.0000000000000000 ) ) ;
#195 = PRODUCT_DEFINITION_FORMATION_WITH_SPECIFIED_SOURCE ( 'LIBOVOLNÝ', '', #203, .NOT_KNOWN. ) ;
#196 = EDGE_LOOP ( 'NONE', ( #306, #99, #241, #17 ) ) ;
#197 = DIRECTION ( 'NONE',  ( 1.000000000000000000, 0.000000000000000000, 0.000000000000000000 ) ) ;
#198 = DIRECTION ( 'NONE',  ( 1.000000000000000000, 0.000000000000000000, -0.000000000000000000 ) ) ;
#199 = EDGE_CURVE ( 'NONE', #369, #251, #266, .T. ) ;
#200 = DESIGN_CONTEXT ( 'detailed design', #279, 'design' ) ;
#201 = TOROIDAL_SURFACE ( 'NONE', #175, 4.500000000000000888, 0.5000000000000000000 ) ;
#202 = DIRECTION ( 'NONE',  ( 0.000000000000000000, 0.000000000000000000, -1.000000000000000000 ) ) ;
#203 = PRODUCT ( 'b786', 'b786', '', ( #152 ) ) ;
#204 = DIRECTION ( 'NONE',  ( -0.000000000000000000, -0.000000000000000000, -1.000000000000000000 ) ) ;
#205 = DATE_AND_TIME ( #31, #165 ) ;
#206 = CYLINDRICAL_SURFACE ( 'NONE', #22, 7.000000000000000000 ) ;
#207 = CIRCLE ( 'NONE', #323, 2.500000000000000000 ) ;
#208 = CARTESIAN_POINT ( 'NONE',  ( 0.000000000000000000, 0.000000000000000000, 5.500000000000005329 ) ) ;
#209 = ORIENTED_EDGE ( 'NONE', *, *, #122, .T. ) ;
#210 = APPROVAL_PERSON_ORGANIZATION ( #38, #258, #29 ) ;
#211 = EDGE_LOOP ( 'NONE', ( #342, #332 ) ) ;
#212 = APPROVAL ( #12, 'NEURÈENÝ' ) ;
#213 = PERSON_AND_ORGANIZATION ( #318, #367 ) ;
#214 = ADVANCED_FACE ( 'NONE', ( #260 ), #206, .T. ) ;
#215 = CARTESIAN_POINT ( 'NONE',  ( 2.500000000000000000, 3.061616997868383141E-16, 155.0000000000000000 ) ) ;
#216 = VERTEX_POINT ( 'NONE', #128 ) ;
#217 = DIRECTION ( 'NONE',  ( 0.000000000000000000, 0.000000000000000000, 1.000000000000000000 ) ) ;
#218 = VERTEX_POINT ( 'NONE', #76 ) ;
#219 = CIRCLE ( 'NONE', #27, 4.000000000000000000 ) ;
#220 = AXIS2_PLACEMENT_3D ( 'NONE', #66, #95, #324 ) ;
#221 = ORIENTED_EDGE ( 'NONE', *, *, #122, .F. ) ;
#222 = VERTEX_POINT ( 'NONE', #100 ) ;
#223 = VERTEX_POINT ( 'NONE', #247 ) ;
#224 = AXIS2_PLACEMENT_3D ( 'NONE', #227, #112, #108 ) ;
#225 = EDGE_CURVE ( 'NONE', #299, #223, #368, .T. ) ;
#226 = PRODUCT_DEFINITION ( 'NEZNÁMÝ', '', #195, #200 ) ;
#227 = CARTESIAN_POINT ( 'NONE',  ( 0.000000000000000000, 0.000000000000000000, 5.500000000000005329 ) ) ;
#228 = PLANE ( 'NONE',  #264 ) ;
#229 = DATE_AND_TIME ( #359, #272 ) ;
#230 = AXIS2_PLACEMENT_3D ( 'NONE', #331, #304, #265 ) ;
#231 = FACE_OUTER_BOUND ( 'NONE', #196, .T. ) ;
#232 = CARTESIAN_POINT ( 'NONE',  ( 0.000000000000000000, 0.000000000000000000, 155.0000000000000000 ) ) ;
#233 = MANIFOLD_SOLID_BREP ( 'Odebrat vysunutím3', #7 ) ;
#234 = CARTESIAN_POINT ( 'NONE',  ( 0.000000000000000000, 0.000000000000000000, 155.0000000000000000 ) ) ;
#235 = PERSON_AND_ORGANIZATION ( #318, #367 ) ;
#236 = CIRCLE ( 'NONE', #126, 7.000000000000000000 ) ;
#237 = CARTESIAN_POINT ( 'NONE',  ( 4.500000000000000888, 0.000000000000000000, 5.500000000000005329 ) ) ;
#238 = CIRCLE ( 'NONE', #252, 4.000000000000000000 ) ;
#239 = EDGE_CURVE ( 'NONE', #163, #216, #81, .T. ) ;
#240 = CARTESIAN_POINT ( 'NONE',  ( 0.000000000000000000, 0.000000000000000000, 5.000000000000000000 ) ) ;
#241 = ORIENTED_EDGE ( 'NONE', *, *, #336, .T. ) ;
#242 = EDGE_LOOP ( 'NONE', ( #221, #184, #110, #73 ) ) ;
#243 = CALENDAR_DATE ( 2022, 8, 7 ) ;
#244 = VECTOR ( 'NONE', #335, 1000.000000000000000 ) ;
#245 = ORIENTED_EDGE ( 'NONE', *, *, #250, .F. ) ;
#246 = DIRECTION ( 'NONE',  ( -0.000000000000000000, -0.000000000000000000, -1.000000000000000000 ) ) ;
#247 = CARTESIAN_POINT ( 'NONE',  ( 4.000000000000000000, 4.898587196589412829E-16, 5.500000000000005329 ) ) ;
#248 = ADVANCED_FACE ( 'NONE', ( #45, #72 ), #82, .T. ) ;
#249 = ORIENTED_EDGE ( 'NONE', *, *, #199, .T. ) ;
#250 = EDGE_CURVE ( 'NONE', #275, #218, #371, .T. ) ;
#251 = VERTEX_POINT ( 'NONE', #327 ) ;
#252 = AXIS2_PLACEMENT_3D ( 'NONE', #208, #149, #68 ) ;
#253 = ORIENTED_EDGE ( 'NONE', *, *, #40, .F. ) ;
#254 = EDGE_CURVE ( 'NONE', #314, #218, #207, .T. ) ;
#255 = APPLICATION_CONTEXT ( 'configuration controlled 3d designs of mechanical parts and assemblies' ) ;
#256 = EDGE_CURVE ( 'NONE', #80, #251, #120, .T. ) ;
#257 = CARTESIAN_POINT ( 'NONE',  ( 0.000000000000000000, 0.000000000000000000, 5.000000000000000000 ) ) ;
#258 = APPROVAL ( #121, 'NEURÈENÝ' ) ;
#259 = VECTOR ( 'NONE', #284, 1000.000000000000000 ) ;
#260 = FACE_OUTER_BOUND ( 'NONE', #105, .T. ) ;
#261 = DATE_AND_TIME ( #148, #351 ) ;
#262 = PERSON_AND_ORGANIZATION ( #318, #367 ) ;
#263 = FACE_OUTER_BOUND ( 'NONE', #242, .T. ) ;
#264 = AXIS2_PLACEMENT_3D ( 'NONE', #58, #353, #198 ) ;
#265 = DIRECTION ( 'NONE',  ( -1.000000000000000000, 1.224646799147351482E-16, 0.000000000000000000 ) ) ;
#266 = CIRCLE ( 'NONE', #150, 4.500000000000000888 ) ;
#267 = CARTESIAN_POINT ( 'NONE',  ( 0.000000000000000000, 0.000000000000000000, 0.000000000000000000 ) ) ;
#268 = DATE_TIME_ROLE ( 'classification_date' ) ;
#269 = DIRECTION ( 'NONE',  ( 1.000000000000000000, 0.000000000000000000, -0.000000000000000000 ) ) ;
#270 = ORIENTED_EDGE ( 'NONE', *, *, #40, .T. ) ;
#271 = CARTESIAN_POINT ( 'NONE',  ( -2.500000000000000000, 0.000000000000000000, 155.0000000000000000 ) ) ;
#272 = LOCAL_TIME ( 17, 20, 53.00000000000000000, #289 ) ;
#273 = ORIENTED_EDGE ( 'NONE', *, *, #254, .T. ) ;
#274 = LINE ( 'NONE', #180, #54 ) ;
#275 = VERTEX_POINT ( 'NONE', #41 ) ;
#276 = EDGE_CURVE ( 'NONE', #275, #328, #281, .T. ) ;
#277 = CC_DESIGN_PERSON_AND_ORGANIZATION_ASSIGNMENT ( #213, #300, ( #195 ) ) ;
#278 = CARTESIAN_POINT ( 'NONE',  ( 7.000000000000000000, 8.572527594031473190E-16, 0.000000000000000000 ) ) ;
#279 = APPLICATION_CONTEXT ( 'configuration controlled 3d designs of mechanical parts and assemblies' ) ;
#280 = ORIENTED_EDGE ( 'NONE', *, *, #313, .F. ) ;
#281 = CIRCLE ( 'NONE', #86, 2.500000000000000000 ) ;
#282 = CC_DESIGN_DATE_AND_TIME_ASSIGNMENT ( #14, #268, ( #49 ) ) ;
#283 = CYLINDRICAL_SURFACE ( 'NONE', #350, 4.000000000000000000 ) ;
#284 = DIRECTION ( 'NONE',  ( -0.000000000000000000, -0.000000000000000000, -1.000000000000000000 ) ) ;
#285 = DIRECTION ( 'NONE',  ( -1.000000000000000000, 0.000000000000000000, 0.000000000000000000 ) ) ;
#286 = DIRECTION ( 'NONE',  ( 0.000000000000000000, 0.000000000000000000, 1.000000000000000000 ) ) ;
#287 = PERSON_AND_ORGANIZATION_ROLE ( 'creator' ) ;
#288 = DIRECTION ( 'NONE',  ( 1.000000000000000000, 0.000000000000000000, 0.000000000000000000 ) ) ;
#289 = COORDINATED_UNIVERSAL_TIME_OFFSET ( 1, 0, .AHEAD. ) ;
#290 = CARTESIAN_POINT ( 'NONE',  ( 0.000000000000000000, 0.000000000000000000, 0.000000000000000000 ) ) ;
#291 = DIRECTION ( 'NONE',  ( 1.000000000000000000, 0.000000000000000000, 0.000000000000000000 ) ) ;
#292 = AXIS2_PLACEMENT_3D ( 'NONE', #158, #217, #269 ) ;
#293 = DIRECTION ( 'NONE',  ( 0.000000000000000000, 0.000000000000000000, 1.000000000000000000 ) ) ;
#294 = DIRECTION ( 'NONE',  ( 1.000000000000000000, 0.000000000000000000, 0.000000000000000000 ) ) ;
#295 = DIRECTION ( 'NONE',  ( 0.000000000000000000, 0.000000000000000000, -1.000000000000000000 ) ) ;
#296 = PERSON_AND_ORGANIZATION_ROLE ( 'classification_officer' ) ;
#297 = DIRECTION ( 'NONE',  ( -0.000000000000000000, -0.000000000000000000, -1.000000000000000000 ) ) ;
#298 = LOCAL_TIME ( 17, 20, 53.00000000000000000, #48 ) ;
#299 = VERTEX_POINT ( 'NONE', #9 ) ;
#300 = PERSON_AND_ORGANIZATION_ROLE ( 'design_supplier' ) ;
#301 = CARTESIAN_POINT ( 'NONE',  ( 2.500000000000000000, 3.061616997868383141E-16, 0.000000000000000000 ) ) ;
#302 = SECURITY_CLASSIFICATION_LEVEL ( 'unclassified' ) ;
#303 = DIRECTION ( 'NONE',  ( -0.000000000000000000, -0.000000000000000000, -1.000000000000000000 ) ) ;
#304 = DIRECTION ( 'NONE',  ( 1.224646799147353207E-16, 1.000000000000000000, -0.000000000000000000 ) ) ;
#305 = VECTOR ( 'NONE', #97, 1000.000000000000000 ) ;
#306 = ORIENTED_EDGE ( 'NONE', *, *, #225, .F. ) ;
#307 = CC_DESIGN_PERSON_AND_ORGANIZATION_ASSIGNMENT ( #235, #287, ( #226 ) ) ;
#308 = DIRECTION ( 'NONE',  ( -0.000000000000000000, -0.000000000000000000, -1.000000000000000000 ) ) ;
#309 = ORIENTED_EDGE ( 'NONE', *, *, #144, .F. ) ;
#310 =( NAMED_UNIT ( * ) SI_UNIT ( $, .STERADIAN. ) SOLID_ANGLE_UNIT ( ) );
#311 = DIRECTION ( 'NONE',  ( 1.000000000000000000, 0.000000000000000000, 0.000000000000000000 ) ) ;
#312 = AXIS2_PLACEMENT_3D ( 'NONE', #237, #319, #295 ) ;
#313 = EDGE_CURVE ( 'NONE', #216, #222, #135, .T. ) ;
#314 = VERTEX_POINT ( 'NONE', #301 ) ;
#315 = ADVANCED_FACE ( 'NONE', ( #370 ), #160, .F. ) ;
#316 = CARTESIAN_POINT ( 'NONE',  ( 0.000000000000000000, 0.000000000000000000, 0.000000000000000000 ) ) ;
#317 = CARTESIAN_POINT ( 'NONE',  ( 0.000000000000000000, 0.000000000000000000, 5.000000000000000000 ) ) ;
#318 = PERSON ( 'NEURÈENÝ', 'NEURÈENÝ', 'NEURÈENÝ', ('NEURÈENÝ'), ('NEURÈENÝ'), ('NEURÈENÝ') ) ;
#319 = DIRECTION ( 'NONE',  ( 0.000000000000000000, -1.000000000000000000, 0.000000000000000000 ) ) ;
#320 = CARTESIAN_POINT ( 'NONE',  ( 0.000000000000000000, 0.000000000000000000, 5.000000000000000000 ) ) ;
#321 = COORDINATED_UNIVERSAL_TIME_OFFSET ( 1, 0, .AHEAD. ) ;
#322 = CARTESIAN_POINT ( 'NONE',  ( 0.000000000000000000, 0.000000000000000000, 5.500000000000005329 ) ) ;
#323 = AXIS2_PLACEMENT_3D ( 'NONE', #267, #339, #16 ) ;
#324 = DIRECTION ( 'NONE',  ( -1.000000000000000000, 0.000000000000000000, 0.000000000000000000 ) ) ;
#325 = DATE_AND_TIME ( #243, #96 ) ;
#326 = DIRECTION ( 'NONE',  ( 1.000000000000000000, 0.000000000000000000, 0.000000000000000000 ) ) ;
#327 = CARTESIAN_POINT ( 'NONE',  ( -4.500000000000000888, 5.510910596163088569E-16, 5.000000000000002665 ) ) ;
#328 = VERTEX_POINT ( 'NONE', #215 ) ;
#329 = SHAPE_DEFINITION_REPRESENTATION ( #18, #98 ) ;
#330 = VECTOR ( 'NONE', #246, 1000.000000000000000 ) ;
#331 = CARTESIAN_POINT ( 'NONE',  ( -4.500000000000000888, 5.510910596163089556E-16, 5.500000000000005329 ) ) ;
#332 = ORIENTED_EDGE ( 'NONE', *, *, #254, .F. ) ;
#333 = PERSON_AND_ORGANIZATION ( #318, #367 ) ;
#334 = DIRECTION ( 'NONE',  ( -1.000000000000000000, 0.000000000000000000, 0.000000000000000000 ) ) ;
#335 = DIRECTION ( 'NONE',  ( 0.000000000000000000, 0.000000000000000000, -1.000000000000000000 ) ) ;
#336 = EDGE_CURVE ( 'NONE', #186, #80, #274, .T. ) ;
#337 = EDGE_CURVE ( 'NONE', #163, #344, #189, .T. ) ;
#338 = ORIENTED_EDGE ( 'NONE', *, *, #46, .T. ) ;
#339 = DIRECTION ( 'NONE',  ( -0.000000000000000000, -0.000000000000000000, -1.000000000000000000 ) ) ;
#340 = CIRCLE ( 'NONE', #59, 7.000000000000000000 ) ;
#341 = AXIS2_PLACEMENT_3D ( 'NONE', #240, #138, #157 ) ;
#342 = ORIENTED_EDGE ( 'NONE', *, *, #191, .F. ) ;
#343 =( LENGTH_UNIT ( ) NAMED_UNIT ( * ) SI_UNIT ( .MILLI., .METRE. ) );
#344 = VERTEX_POINT ( 'NONE', #278 ) ;
#345 = CARTESIAN_POINT ( 'NONE',  ( 7.000000000000000000, 8.572527594031473190E-16, 5.000000000000000000 ) ) ;
#346 = ORIENTED_EDGE ( 'NONE', *, *, #103, .T. ) ;
#347 = EDGE_CURVE ( 'NONE', #80, #223, #169, .T. ) ;
#348 = DIRECTION ( 'NONE',  ( 1.000000000000000000, 0.000000000000000000, 0.000000000000000000 ) ) ;
#349 = CARTESIAN_POINT ( 'NONE',  ( 0.000000000000000000, 0.000000000000000000, 155.0000000000000000 ) ) ;
#350 = AXIS2_PLACEMENT_3D ( 'NONE', #349, #146, #285 ) ;
#351 = LOCAL_TIME ( 17, 20, 53.00000000000000000, #321 ) ;
#352 = DIRECTION ( 'NONE',  ( 0.000000000000000000, 0.000000000000000000, 1.000000000000000000 ) ) ;
#353 = DIRECTION ( 'NONE',  ( 0.000000000000000000, 0.000000000000000000, 1.000000000000000000 ) ) ;
#354 = ADVANCED_FACE ( 'NONE', ( #378 ), #142, .T. ) ;
#355 = CC_DESIGN_APPROVAL ( #212, ( #49 ) ) ;
#356 = DIRECTION ( 'NONE',  ( 0.000000000000000000, 0.000000000000000000, 1.000000000000000000 ) ) ;
#357 = DIRECTION ( 'NONE',  ( 0.000000000000000000, 0.000000000000000000, 1.000000000000000000 ) ) ;
#358 = CARTESIAN_POINT ( 'NONE',  ( 0.000000000000000000, 0.000000000000000000, 5.000000000000000000 ) ) ;
#359 = CALENDAR_DATE ( 2022, 8, 7 ) ;
#360 = FACE_OUTER_BOUND ( 'NONE', #21, .T. ) ;
#361 = AXIS2_PLACEMENT_3D ( 'NONE', #234, #202, #30 ) ;
#362 = CYLINDRICAL_SURFACE ( 'NONE', #220, 4.000000000000000000 ) ;
#363 = CARTESIAN_POINT ( 'NONE',  ( 0.000000000000000000, 0.000000000000000000, 155.0000000000000000 ) ) ;
#364 = ORIENTED_EDGE ( 'NONE', *, *, #103, .F. ) ;
#365 = ORIENTED_EDGE ( 'NONE', *, *, #144, .T. ) ;
#366 = PERSON_AND_ORGANIZATION_ROLE ( 'creator' ) ;
#367 = ORGANIZATION ( 'NEURÈENÝ', 'NEURÈENÝ', '' ) ;
#368 = LINE ( 'NONE', #185, #67 ) ;
#369 = VERTEX_POINT ( 'NONE', #162 ) ;
#370 = FACE_OUTER_BOUND ( 'NONE', #56, .T. ) ;
#371 = LINE ( 'NONE', #271, #244 ) ;
#372 = AXIS2_PLACEMENT_3D ( 'NONE', #193, #308, #164 ) ;
#373 = DIRECTION ( 'NONE',  ( 1.000000000000000000, 0.000000000000000000, 0.000000000000000000 ) ) ;
#374 = ORIENTED_EDGE ( 'NONE', *, *, #225, .T. ) ;
#375 = ORIENTED_EDGE ( 'NONE', *, *, #24, .T. ) ;
#376 = ORIENTED_EDGE ( 'NONE', *, *, #147, .T. ) ;
#377 =( GEOMETRIC_REPRESENTATION_CONTEXT ( 3 ) GLOBAL_UNCERTAINTY_ASSIGNED_CONTEXT ( ( #116 ) ) GLOBAL_UNIT_ASSIGNED_CONTEXT ( ( #343, #85, #310 ) ) REPRESENTATION_CONTEXT ( 'NONE', 'WORKASPACE' ) );
#378 = FACE_OUTER_BOUND ( 'NONE', #190, .T. ) ;
#379 = APPROVAL ( #171, 'NEURÈENÝ' ) ;
#380 = FACE_OUTER_BOUND ( 'NONE', #11, .T. ) ;
#381 = ADVANCED_FACE ( 'NONE', ( #140 ), #154, .F. ) ;
ENDSEC;
END-ISO-10303-21;
