ISO-10303-21;
HEADER;
FILE_DESCRIPTION (( 'STEP AP203' ),
    '1' );
FILE_NAME ('cfdf.STEP',
    '2022-07-08T15:34:01',
    ( '' ),
    ( '' ),
    'SwSTEP 2.0',
    'SolidWorks 2019',
    '' );
FILE_SCHEMA (( 'CONFIG_CONTROL_DESIGN' ));
ENDSEC;

DATA;
#1 = DIRECTION ( 'NONE',  ( 0.000000000000000000, 0.000000000000000000, 1.000000000000000000 ) ) ;
#2 = CALENDAR_DATE ( 2022, 8, 7 ) ;
#3 = DIRECTION ( 'NONE',  ( 1.000000000000000000, 0.000000000000000000, 0.000000000000000000 ) ) ;
#4 = AXIS2_PLACEMENT_3D ( 'NONE', #367, #331, #69 ) ;
#5 = CC_DESIGN_SECURITY_CLASSIFICATION ( #216, ( #369 ) ) ;
#6 = DIRECTION ( 'NONE',  ( -1.000000000000000000, 0.000000000000000000, 0.000000000000000000 ) ) ;
#7 = DIRECTION ( 'NONE',  ( -1.000000000000000000, 0.000000000000000000, 0.000000000000000000 ) ) ;
#8 = EDGE_LOOP ( 'NONE', ( #237, #113, #131, #130 ) ) ;
#9 = CARTESIAN_POINT ( 'NONE',  ( 3.000000000000000444, 3.673940397442060361E-16, 655.0000000000000000 ) ) ;
#10 = AXIS2_PLACEMENT_3D ( 'NONE', #190, #276, #124 ) ;
#11 = APPROVAL_PERSON_ORGANIZATION ( #89, #275, #379 ) ;
#12 = CARTESIAN_POINT ( 'NONE',  ( 6.000000000000000888, 7.347880794884120722E-16, 5.000000000000000000 ) ) ;
#13 = ORIENTED_EDGE ( 'NONE', *, *, #223, .F. ) ;
#14 = CIRCLE ( 'NONE', #48, 6.000000000000000888 ) ;
#15 = CARTESIAN_POINT ( 'NONE',  ( 0.000000000000000000, 0.000000000000000000, 0.000000000000000000 ) ) ;
#16 = ORIENTED_EDGE ( 'NONE', *, *, #165, .T. ) ;
#17 = CIRCLE ( 'NONE', #222, 2.000000000000000000 ) ;
#18 = DIRECTION ( 'NONE',  ( -1.000000000000000000, 1.224646799147354440E-16, 0.000000000000000000 ) ) ;
#19 = AXIS2_PLACEMENT_3D ( 'NONE', #83, #368, #21 ) ;
#20 = ORIENTED_EDGE ( 'NONE', *, *, #94, .F. ) ;
#21 = DIRECTION ( 'NONE',  ( 1.000000000000000000, 0.000000000000000000, 0.000000000000000000 ) ) ;
#22 = EDGE_CURVE ( 'NONE', #265, #318, #247, .T. ) ;
#23 = ORIENTED_EDGE ( 'NONE', *, *, #151, .F. ) ;
#24 = CALENDAR_DATE ( 2022, 8, 7 ) ;
#25 = EDGE_LOOP ( 'NONE', ( #193, #81, #174, #341 ) ) ;
#26 = PERSON_AND_ORGANIZATION ( #95, #99 ) ;
#27 = EDGE_LOOP ( 'NONE', ( #211, #139, #47, #266 ) ) ;
#28 = COORDINATED_UNIVERSAL_TIME_OFFSET ( 1, 0, .AHEAD. ) ;
#29 = FACE_BOUND ( 'NONE', #143, .T. ) ;
#30 = CARTESIAN_POINT ( 'NONE',  ( 0.000000000000000000, 0.000000000000000000, 5.499999999999949374 ) ) ;
#31 = LINE ( 'NONE', #219, #248 ) ;
#32 = DATE_TIME_ROLE ( 'creation_date' ) ;
#33 = CIRCLE ( 'NONE', #351, 0.5000000000000004441 ) ;
#34 = CARTESIAN_POINT ( 'NONE',  ( -3.000000000000000444, 0.000000000000000000, 5.499999999999949374 ) ) ;
#35 = TOROIDAL_SURFACE ( 'NONE', #4, 3.500000000000000444, 0.5000000000000000000 ) ;
#36 = CARTESIAN_POINT ( 'NONE',  ( 0.000000000000000000, 0.000000000000000000, 655.0000000000000000 ) ) ;
#37 = DIRECTION ( 'NONE',  ( -0.000000000000000000, -0.000000000000000000, -1.000000000000000000 ) ) ;
#38 = FACE_OUTER_BOUND ( 'NONE', #51, .T. ) ;
#39 = AXIS2_PLACEMENT_3D ( 'NONE', #281, #197, #250 ) ;
#40 = ADVANCED_FACE ( 'NONE', ( #186, #328 ), #126, .F. ) ;
#41 = FACE_OUTER_BOUND ( 'NONE', #233, .T. ) ;
#42 = ORIENTED_EDGE ( 'NONE', *, *, #300, .T. ) ;
#43 = CARTESIAN_POINT ( 'NONE',  ( -2.000000000000000000, 0.000000000000000000, 655.0000000000000000 ) ) ;
#44 = DIRECTION ( 'NONE',  ( 0.000000000000000000, 0.000000000000000000, 1.000000000000000000 ) ) ;
#45 = CIRCLE ( 'NONE', #73, 6.000000000000000888 ) ;
#46 = EDGE_LOOP ( 'NONE', ( #231, #315, #359, #88 ) ) ;
#47 = ORIENTED_EDGE ( 'NONE', *, *, #144, .T. ) ;
#48 = AXIS2_PLACEMENT_3D ( 'NONE', #15, #373, #107 ) ;
#49 = EDGE_LOOP ( 'NONE', ( #370, #338 ) ) ;
#50 = APPLICATION_PROTOCOL_DEFINITION ( 'international standard', 'config_control_design', 1994, #345 ) ;
#51 = EDGE_LOOP ( 'NONE', ( #117, #206, #177, #67 ) ) ;
#52 = APPROVAL_DATE_TIME ( #87, #275 ) ;
#53 = EDGE_CURVE ( 'NONE', #191, #137, #201, .T. ) ;
#54 = DIRECTION ( 'NONE',  ( 0.000000000000000000, 0.000000000000000000, -1.000000000000000000 ) ) ;
#55 = CYLINDRICAL_SURFACE ( 'NONE', #82, 2.000000000000000000 ) ;
#56 = MECHANICAL_CONTEXT ( 'NONE', #292, 'mechanical' ) ;
#57 = DIRECTION ( 'NONE',  ( 1.000000000000000000, 0.000000000000000000, 0.000000000000000000 ) ) ;
#58 = CARTESIAN_POINT ( 'NONE',  ( 0.000000000000000000, 0.000000000000000000, 0.000000000000000000 ) ) ;
#59 = CARTESIAN_POINT ( 'NONE',  ( -6.000000000000000888, 0.000000000000000000, 5.000000000000000000 ) ) ;
#60 = CC_DESIGN_DATE_AND_TIME_ASSIGNMENT ( #92, #32, ( #170 ) ) ;
#61 = CARTESIAN_POINT ( 'NONE',  ( 0.000000000000000000, 0.000000000000000000, 5.000000000000000000 ) ) ;
#62 = CIRCLE ( 'NONE', #116, 2.000000000000000000 ) ;
#63 = CARTESIAN_POINT ( 'NONE',  ( -6.000000000000000888, 0.000000000000000000, 0.000000000000000000 ) ) ;
#64 = EDGE_CURVE ( 'NONE', #344, #288, #17, .T. ) ;
#65 = VECTOR ( 'NONE', #246, 1000.000000000000000 ) ;
#66 = AXIS2_PLACEMENT_3D ( 'NONE', #342, #76, #371 ) ;
#67 = ORIENTED_EDGE ( 'NONE', *, *, #151, .T. ) ;
#68 = FACE_BOUND ( 'NONE', #293, .T. ) ;
#69 = DIRECTION ( 'NONE',  ( 1.000000000000000000, 0.000000000000000000, 0.000000000000000000 ) ) ;
#70 = CARTESIAN_POINT ( 'NONE',  ( 3.500000000000000444, 0.000000000000000000, 4.999999999999975131 ) ) ;
#71 = EDGE_CURVE ( 'NONE', #334, #172, #155, .T. ) ;
#72 = CIRCLE ( 'NONE', #121, 3.000000000000000444 ) ;
#73 = AXIS2_PLACEMENT_3D ( 'NONE', #209, #108, #228 ) ;
#74 = CARTESIAN_POINT ( 'NONE',  ( 0.000000000000000000, 0.000000000000000000, 5.000000000000000000 ) ) ;
#75 = CC_DESIGN_APPROVAL ( #224, ( #216 ) ) ;
#76 = DIRECTION ( 'NONE',  ( 0.000000000000000000, 0.000000000000000000, 1.000000000000000000 ) ) ;
#77 = ORIENTED_EDGE ( 'NONE', *, *, #319, .T. ) ;
#78 = PRODUCT_RELATED_PRODUCT_CATEGORY ( 'detail', '', ( #169 ) ) ;
#79 = CARTESIAN_POINT ( 'NONE',  ( -2.000000000000000000, 0.000000000000000000, 655.0000000000000000 ) ) ;
#80 = DIRECTION ( 'NONE',  ( -0.000000000000000000, -0.000000000000000000, -1.000000000000000000 ) ) ;
#81 = ORIENTED_EDGE ( 'NONE', *, *, #319, .F. ) ;
#82 = AXIS2_PLACEMENT_3D ( 'NONE', #301, #380, #6 ) ;
#83 = CARTESIAN_POINT ( 'NONE',  ( 0.000000000000000000, 0.000000000000000000, 5.000000000000000000 ) ) ;
#84 = AXIS2_PLACEMENT_3D ( 'NONE', #198, #333, #305 ) ;
#85 = MANIFOLD_SOLID_BREP ( 'Odebrat vysunutím3', #167 ) ;
#86 = EDGE_LOOP ( 'NONE', ( #264, #141 ) ) ;
#87 = DATE_AND_TIME ( #274, #280 ) ;
#88 = ORIENTED_EDGE ( 'NONE', *, *, #183, .F. ) ;
#89 = PERSON_AND_ORGANIZATION ( #95, #99 ) ;
#90 = PRODUCT_DEFINITION_SHAPE ( 'NONE', 'NONE',  #170 ) ;
#91 = CARTESIAN_POINT ( 'NONE',  ( 0.000000000000000000, 0.000000000000000000, 655.0000000000000000 ) ) ;
#92 = DATE_AND_TIME ( #2, #161 ) ;
#93 = DIRECTION ( 'NONE',  ( 1.000000000000000000, 0.000000000000000000, 0.000000000000000000 ) ) ;
#94 = EDGE_CURVE ( 'NONE', #103, #362, #33, .T. ) ;
#95 = PERSON ( 'NEURÈENÝ', 'NEURÈENÝ', 'NEURÈENÝ', ('NEURÈENÝ'), ('NEURÈENÝ'), ('NEURÈENÝ') ) ;
#96 = APPROVAL_STATUS ( 'not_yet_approved' ) ;
#97 = DIRECTION ( 'NONE',  ( 1.000000000000000000, 0.000000000000000000, 0.000000000000000000 ) ) ;
#98 = FACE_OUTER_BOUND ( 'NONE', #27, .T. ) ;
#99 = ORGANIZATION ( 'NEURÈENÝ', 'NEURÈENÝ', '' ) ;
#100 = CC_DESIGN_PERSON_AND_ORGANIZATION_ASSIGNMENT ( #299, #241, ( #170 ) ) ;
#101 = DIRECTION ( 'NONE',  ( -0.000000000000000000, -0.000000000000000000, -1.000000000000000000 ) ) ;
#102 = CIRCLE ( 'NONE', #343, 3.000000000000000444 ) ;
#103 = VERTEX_POINT ( 'NONE', #153 ) ;
#104 = LOCAL_TIME ( 17, 34, 1.000000000000000000, #28 ) ;
#105 = CARTESIAN_POINT ( 'NONE',  ( 0.000000000000000000, 0.000000000000000000, 5.000000000000000000 ) ) ;
#106 = EDGE_CURVE ( 'NONE', #288, #344, #287, .T. ) ;
#107 = DIRECTION ( 'NONE',  ( 1.000000000000000000, 0.000000000000000000, 0.000000000000000000 ) ) ;
#108 = DIRECTION ( 'NONE',  ( 0.000000000000000000, 0.000000000000000000, 1.000000000000000000 ) ) ;
#109 = CARTESIAN_POINT ( 'NONE',  ( -3.500000000000000444, 4.286263797015737088E-16, 5.499999999999949374 ) ) ;
#110 = CC_DESIGN_PERSON_AND_ORGANIZATION_ASSIGNMENT ( #348, #297, ( #216 ) ) ;
#111 = VERTEX_POINT ( 'NONE', #277 ) ;
#112 = DIRECTION ( 'NONE',  ( -0.000000000000000000, -0.000000000000000000, -1.000000000000000000 ) ) ;
#113 = ORIENTED_EDGE ( 'NONE', *, *, #53, .F. ) ;
#114 = CARTESIAN_POINT ( 'NONE',  ( 0.000000000000000000, 0.000000000000000000, 0.000000000000000000 ) ) ;
#115 = ORIENTED_EDGE ( 'NONE', *, *, #22, .F. ) ;
#116 = AXIS2_PLACEMENT_3D ( 'NONE', #114, #112, #234 ) ;
#117 = ORIENTED_EDGE ( 'NONE', *, *, #212, .F. ) ;
#118 = EDGE_CURVE ( 'NONE', #334, #235, #72, .T. ) ;
#119 = PERSON_AND_ORGANIZATION_ROLE ( 'design_supplier' ) ;
#120 = FACE_OUTER_BOUND ( 'NONE', #210, .T. ) ;
#121 = AXIS2_PLACEMENT_3D ( 'NONE', #91, #182, #3 ) ;
#122 = DIRECTION ( 'NONE',  ( 0.000000000000000000, 0.000000000000000000, 1.000000000000000000 ) ) ;
#123 = CARTESIAN_POINT ( 'NONE',  ( -3.000000000000000444, 0.000000000000000000, 655.0000000000000000 ) ) ;
#124 = DIRECTION ( 'NONE',  ( 1.000000000000000000, 0.000000000000000000, -0.000000000000000000 ) ) ;
#125 = DATE_AND_TIME ( #158, #255 ) ;
#126 = PLANE ( 'NONE',  #10 ) ;
#127 = ADVANCED_FACE ( 'NONE', ( #98 ), #320, .F. ) ;
#128 = CARTESIAN_POINT ( 'NONE',  ( 0.000000000000000000, 0.000000000000000000, 655.0000000000000000 ) ) ;
#129 = CARTESIAN_POINT ( 'NONE',  ( 3.000000000000000444, 3.673940397442060361E-16, 655.0000000000000000 ) ) ;
#130 = ORIENTED_EDGE ( 'NONE', *, *, #22, .T. ) ;
#131 = ORIENTED_EDGE ( 'NONE', *, *, #183, .T. ) ;
#132 = ADVANCED_FACE ( 'NONE', ( #120 ), #55, .F. ) ;
#133 = AXIS2_PLACEMENT_3D ( 'NONE', #242, #324, #57 ) ;
#134 = CARTESIAN_POINT ( 'NONE',  ( -3.500000000000000444, 4.286263797015737088E-16, 4.999999999999975131 ) ) ;
#135 = CC_DESIGN_PERSON_AND_ORGANIZATION_ASSIGNMENT ( #376, #346, ( #369 ) ) ;
#136 = AXIS2_PLACEMENT_3D ( 'NONE', #61, #303, #97 ) ;
#137 = VERTEX_POINT ( 'NONE', #298 ) ;
#138 = APPROVAL_PERSON_ORGANIZATION ( #26, #337, #220 ) ;
#139 = ORIENTED_EDGE ( 'NONE', *, *, #296, .T. ) ;
#140 = LINE ( 'NONE', #79, #181 ) ;
#141 = ORIENTED_EDGE ( 'NONE', *, *, #223, .T. ) ;
#142 = DATE_AND_TIME ( #24, #243 ) ;
#143 = EDGE_LOOP ( 'NONE', ( #16, #207 ) ) ;
#144 = EDGE_CURVE ( 'NONE', #111, #227, #252, .T. ) ;
#145 = PERSON_AND_ORGANIZATION ( #95, #99 ) ;
#146 = AXIS2_PLACEMENT_3D ( 'NONE', #340, #80, #176 ) ;
#147 = CARTESIAN_POINT ( 'NONE',  ( 0.000000000000000000, 0.000000000000000000, 0.000000000000000000 ) ) ;
#148 = CALENDAR_DATE ( 2022, 8, 7 ) ;
#149 = FACE_OUTER_BOUND ( 'NONE', #284, .T. ) ;
#150 = DIRECTION ( 'NONE',  ( 1.000000000000000000, 0.000000000000000000, 0.000000000000000000 ) ) ;
#151 = EDGE_CURVE ( 'NONE', #172, #103, #102, .T. ) ;
#152 = CARTESIAN_POINT ( 'NONE',  ( 0.000000000000000000, 0.000000000000000000, 5.499999999999949374 ) ) ;
#153 = CARTESIAN_POINT ( 'NONE',  ( 3.000000000000000444, 3.673940397442060361E-16, 5.499999999999949374 ) ) ;
#154 = ADVANCED_BREP_SHAPE_REPRESENTATION ( 'cfdf', ( #85, #267 ), #377 ) ;
#155 = LINE ( 'NONE', #123, #65 ) ;
#156 = DIRECTION ( 'NONE',  ( 0.000000000000000000, 0.000000000000000000, 1.000000000000000000 ) ) ;
#157 = DIRECTION ( 'NONE',  ( -1.000000000000000000, 0.000000000000000000, 0.000000000000000000 ) ) ;
#158 = CALENDAR_DATE ( 2022, 8, 7 ) ;
#159 = AXIS2_PLACEMENT_3D ( 'NONE', #147, #221, #356 ) ;
#160 = CARTESIAN_POINT ( 'NONE',  ( 0.000000000000000000, 0.000000000000000000, 5.000000000000000000 ) ) ;
#161 = LOCAL_TIME ( 17, 34, 1.000000000000000000, #294 ) ;
#162 = CYLINDRICAL_SURFACE ( 'NONE', #39, 3.000000000000000444 ) ;
#163 = LINE ( 'NONE', #9, #226 ) ;
#164 = EDGE_LOOP ( 'NONE', ( #115, #312 ) ) ;
#165 = EDGE_CURVE ( 'NONE', #362, #347, #253, .T. ) ;
#166 = FACE_OUTER_BOUND ( 'NONE', #8, .T. ) ;
#167 = CLOSED_SHELL ( 'NONE', ( #127, #192, #285, #360, #229, #263, #40, #258, #278, #178, #132 ) ) ;
#168 = CARTESIAN_POINT ( 'NONE',  ( 6.000000000000000888, 7.347880794884120722E-16, 0.000000000000000000 ) ) ;
#169 = PRODUCT ( 'cfdf', 'cfdf', '', ( #56 ) ) ;
#170 = PRODUCT_DEFINITION ( 'NEZNÁMÝ', '', #369, #326 ) ;
#171 = DIRECTION ( 'NONE',  ( -0.000000000000000000, -0.000000000000000000, -1.000000000000000000 ) ) ;
#172 = VERTEX_POINT ( 'NONE', #34 ) ;
#173 =( NAMED_UNIT ( * ) SI_UNIT ( $, .STERADIAN. ) SOLID_ANGLE_UNIT ( ) );
#174 = ORIENTED_EDGE ( 'NONE', *, *, #94, .T. ) ;
#175 = CIRCLE ( 'NONE', #19, 3.500000000000000444 ) ;
#176 = DIRECTION ( 'NONE',  ( -1.000000000000000000, 0.000000000000000000, 0.000000000000000000 ) ) ;
#177 = ORIENTED_EDGE ( 'NONE', *, *, #71, .T. ) ;
#178 = ADVANCED_FACE ( 'NONE', ( #355 ), #208, .F. ) ;
#179 = ORIENTED_EDGE ( 'NONE', *, *, #106, .F. ) ;
#180 = COORDINATED_UNIVERSAL_TIME_OFFSET ( 1, 0, .AHEAD. ) ;
#181 = VECTOR ( 'NONE', #230, 1000.000000000000000 ) ;
#182 = DIRECTION ( 'NONE',  ( 0.000000000000000000, 0.000000000000000000, 1.000000000000000000 ) ) ;
#183 = EDGE_CURVE ( 'NONE', #191, #265, #31, .T. ) ;
#184 = APPROVAL_ROLE ( '' ) ;
#185 = DIRECTION ( 'NONE',  ( 0.000000000000000000, -1.000000000000000000, 0.000000000000000000 ) ) ;
#186 = FACE_BOUND ( 'NONE', #49, .T. ) ;
#187 = APPROVAL_DATE_TIME ( #125, #224 ) ;
#188 = CIRCLE ( 'NONE', #66, 3.000000000000000444 ) ;
#189 = CC_DESIGN_APPROVAL ( #337, ( #369 ) ) ;
#190 = CARTESIAN_POINT ( 'NONE',  ( 0.000000000000000000, 0.000000000000000000, 0.000000000000000000 ) ) ;
#191 = VERTEX_POINT ( 'NONE', #59 ) ;
#192 = ADVANCED_FACE ( 'NONE', ( #308 ), #35, .F. ) ;
#193 = ORIENTED_EDGE ( 'NONE', *, *, #300, .F. ) ;
#194 = AXIS2_PLACEMENT_3D ( 'NONE', #217, #269, #357 ) ;
#195 = AXIS2_PLACEMENT_3D ( 'NONE', #240, #349, #244 ) ;
#196 = CC_DESIGN_DATE_AND_TIME_ASSIGNMENT ( #350, #270, ( #216 ) ) ;
#197 = DIRECTION ( 'NONE',  ( -0.000000000000000000, -0.000000000000000000, -1.000000000000000000 ) ) ;
#198 = CARTESIAN_POINT ( 'NONE',  ( 0.000000000000000000, 0.000000000000000000, 655.0000000000000000 ) ) ;
#199 = FACE_OUTER_BOUND ( 'NONE', #86, .T. ) ;
#200 = CARTESIAN_POINT ( 'NONE',  ( 2.000000000000000000, 2.449293598294706414E-16, 655.0000000000000000 ) ) ;
#201 = CIRCLE ( 'NONE', #136, 6.000000000000000888 ) ;
#202 = AXIS2_PLACEMENT_3D ( 'NONE', #128, #156, #279 ) ;
#203 = APPROVAL_PERSON_ORGANIZATION ( #214, #224, #184 ) ;
#204 =( LENGTH_UNIT ( ) NAMED_UNIT ( * ) SI_UNIT ( .MILLI., .METRE. ) );
#205 = ORIENTED_EDGE ( 'NONE', *, *, #330, .T. ) ;
#206 = ORIENTED_EDGE ( 'NONE', *, *, #118, .F. ) ;
#207 = ORIENTED_EDGE ( 'NONE', *, *, #306, .T. ) ;
#208 = TOROIDAL_SURFACE ( 'NONE', #336, 3.500000000000000444, 0.5000000000000000000 ) ;
#209 = CARTESIAN_POINT ( 'NONE',  ( 0.000000000000000000, 0.000000000000000000, 5.000000000000000000 ) ) ;
#210 = EDGE_LOOP ( 'NONE', ( #251, #378, #309, #261 ) ) ;
#211 = ORIENTED_EDGE ( 'NONE', *, *, #106, .T. ) ;
#212 = EDGE_CURVE ( 'NONE', #235, #103, #163, .T. ) ;
#213 = DIRECTION ( 'NONE',  ( 1.000000000000000000, 0.000000000000000000, 0.000000000000000000 ) ) ;
#214 = PERSON_AND_ORGANIZATION ( #95, #99 ) ;
#215 = VECTOR ( 'NONE', #225, 1000.000000000000000 ) ;
#216 = SECURITY_CLASSIFICATION ( '', '', #238 ) ;
#217 = CARTESIAN_POINT ( 'NONE',  ( 0.000000000000000000, 0.000000000000000000, 655.0000000000000000 ) ) ;
#218 = APPROVAL_DATE_TIME ( #142, #337 ) ;
#219 = CARTESIAN_POINT ( 'NONE',  ( -6.000000000000000888, 0.000000000000000000, 5.000000000000000000 ) ) ;
#220 = APPROVAL_ROLE ( '' ) ;
#221 = DIRECTION ( 'NONE',  ( 0.000000000000000000, 0.000000000000000000, 1.000000000000000000 ) ) ;
#222 = AXIS2_PLACEMENT_3D ( 'NONE', #36, #1, #213 ) ;
#223 = EDGE_CURVE ( 'NONE', #235, #334, #254, .T. ) ;
#224 = APPROVAL ( #381, 'NEURÈENÝ' ) ;
#225 = DIRECTION ( 'NONE',  ( -0.000000000000000000, -0.000000000000000000, -1.000000000000000000 ) ) ;
#226 = VECTOR ( 'NONE', #101, 1000.000000000000000 ) ;
#227 = VERTEX_POINT ( 'NONE', #282 ) ;
#228 = DIRECTION ( 'NONE',  ( 1.000000000000000000, 0.000000000000000000, 0.000000000000000000 ) ) ;
#229 = ADVANCED_FACE ( 'NONE', ( #166 ), #366, .T. ) ;
#230 = DIRECTION ( 'NONE',  ( 0.000000000000000000, 0.000000000000000000, -1.000000000000000000 ) ) ;
#231 = ORIENTED_EDGE ( 'NONE', *, *, #330, .F. ) ;
#232 = FACE_OUTER_BOUND ( 'NONE', #46, .T. ) ;
#233 = EDGE_LOOP ( 'NONE', ( #13, #304, #77, #372 ) ) ;
#234 = DIRECTION ( 'NONE',  ( 1.000000000000000000, 0.000000000000000000, 0.000000000000000000 ) ) ;
#235 = VERTEX_POINT ( 'NONE', #129 ) ;
#236 = CIRCLE ( 'NONE', #311, 0.4999999999999995559 ) ;
#237 = ORIENTED_EDGE ( 'NONE', *, *, #239, .F. ) ;
#238 = SECURITY_CLASSIFICATION_LEVEL ( 'unclassified' ) ;
#239 = EDGE_CURVE ( 'NONE', #137, #318, #358, .T. ) ;
#240 = CARTESIAN_POINT ( 'NONE',  ( 0.000000000000000000, 0.000000000000000000, 0.000000000000000000 ) ) ;
#241 = PERSON_AND_ORGANIZATION_ROLE ( 'creator' ) ;
#242 = CARTESIAN_POINT ( 'NONE',  ( 0.000000000000000000, 0.000000000000000000, 5.000000000000000000 ) ) ;
#243 = LOCAL_TIME ( 17, 34, 1.000000000000000000, #291 ) ;
#244 = DIRECTION ( 'NONE',  ( 1.000000000000000000, 0.000000000000000000, 0.000000000000000000 ) ) ;
#245 = APPROVAL_STATUS ( 'not_yet_approved' ) ;
#246 = DIRECTION ( 'NONE',  ( -0.000000000000000000, -0.000000000000000000, -1.000000000000000000 ) ) ;
#247 = CIRCLE ( 'NONE', #159, 6.000000000000000888 ) ;
#248 = VECTOR ( 'NONE', #327, 1000.000000000000000 ) ;
#249 = SHAPE_DEFINITION_REPRESENTATION ( #90, #154 ) ;
#250 = DIRECTION ( 'NONE',  ( -1.000000000000000000, 0.000000000000000000, 0.000000000000000000 ) ) ;
#251 = ORIENTED_EDGE ( 'NONE', *, *, #296, .F. ) ;
#252 = CIRCLE ( 'NONE', #195, 2.000000000000000000 ) ;
#253 = CIRCLE ( 'NONE', #133, 3.500000000000000444 ) ;
#254 = CIRCLE ( 'NONE', #84, 3.000000000000000444 ) ;
#255 = LOCAL_TIME ( 17, 34, 1.000000000000000000, #363 ) ;
#256 = DIRECTION ( 'NONE',  ( 1.224646799147353207E-16, 1.000000000000000000, -0.000000000000000000 ) ) ;
#257 = UNCERTAINTY_MEASURE_WITH_UNIT (LENGTH_MEASURE( 1.000000000000000082E-05 ), #204, 'distance_accuracy_value', 'NONE');
#258 = ADVANCED_FACE ( 'NONE', ( #38 ), #262, .T. ) ;
#259 = LINE ( 'NONE', #200, #302 ) ;
#260 = CARTESIAN_POINT ( 'NONE',  ( -3.000000000000000444, 0.000000000000000000, 655.0000000000000000 ) ) ;
#261 = ORIENTED_EDGE ( 'NONE', *, *, #325, .T. ) ;
#262 = CYLINDRICAL_SURFACE ( 'NONE', #146, 3.000000000000000444 ) ;
#263 = ADVANCED_FACE ( 'NONE', ( #29, #149 ), #332, .T. ) ;
#264 = ORIENTED_EDGE ( 'NONE', *, *, #118, .T. ) ;
#265 = VERTEX_POINT ( 'NONE', #63 ) ;
#266 = ORIENTED_EDGE ( 'NONE', *, *, #313, .F. ) ;
#267 = AXIS2_PLACEMENT_3D ( 'NONE', #58, #122, #321 ) ;
#268 = PERSON_AND_ORGANIZATION_ROLE ( 'design_owner' ) ;
#269 = DIRECTION ( 'NONE',  ( 0.000000000000000000, 0.000000000000000000, 1.000000000000000000 ) ) ;
#270 = DATE_TIME_ROLE ( 'classification_date' ) ;
#271 = DIRECTION ( 'NONE',  ( 0.000000000000000000, 0.000000000000000000, 1.000000000000000000 ) ) ;
#272 = APPLICATION_PROTOCOL_DEFINITION ( 'international standard', 'config_control_design', 1994, #292 ) ;
#273 = DIRECTION ( 'NONE',  ( 0.000000000000000000, 0.000000000000000000, 1.000000000000000000 ) ) ;
#274 = CALENDAR_DATE ( 2022, 8, 7 ) ;
#275 = APPROVAL ( #245, 'NEURÈENÝ' ) ;
#276 = DIRECTION ( 'NONE',  ( 0.000000000000000000, 0.000000000000000000, 1.000000000000000000 ) ) ;
#277 = CARTESIAN_POINT ( 'NONE',  ( 2.000000000000000000, 2.449293598294706414E-16, 0.000000000000000000 ) ) ;
#278 = ADVANCED_FACE ( 'NONE', ( #68, #199 ), #307, .T. ) ;
#279 = DIRECTION ( 'NONE',  ( 1.000000000000000000, 0.000000000000000000, -0.000000000000000000 ) ) ;
#280 = LOCAL_TIME ( 17, 34, 1.000000000000000000, #180 ) ;
#281 = CARTESIAN_POINT ( 'NONE',  ( 0.000000000000000000, 0.000000000000000000, 655.0000000000000000 ) ) ;
#282 = CARTESIAN_POINT ( 'NONE',  ( -2.000000000000000000, 0.000000000000000000, 0.000000000000000000 ) ) ;
#283 = ORIENTED_EDGE ( 'NONE', *, *, #64, .F. ) ;
#284 = EDGE_LOOP ( 'NONE', ( #374, #205 ) ) ;
#285 = ADVANCED_FACE ( 'NONE', ( #41 ), #162, .T. ) ;
#286 = DIRECTION ( 'NONE',  ( 0.000000000000000000, 0.000000000000000000, -1.000000000000000000 ) ) ;
#287 = CIRCLE ( 'NONE', #194, 2.000000000000000000 ) ;
#288 = VERTEX_POINT ( 'NONE', #43 ) ;
#289 = AXIS2_PLACEMENT_3D ( 'NONE', #74, #171, #314 ) ;
#290 = ORIENTED_EDGE ( 'NONE', *, *, #165, .F. ) ;
#291 = COORDINATED_UNIVERSAL_TIME_OFFSET ( 1, 0, .AHEAD. ) ;
#292 = APPLICATION_CONTEXT ( 'configuration controlled 3d designs of mechanical parts and assemblies' ) ;
#293 = EDGE_LOOP ( 'NONE', ( #179, #283 ) ) ;
#294 = COORDINATED_UNIVERSAL_TIME_OFFSET ( 1, 0, .AHEAD. ) ;
#295 = DIRECTION ( 'NONE',  ( 0.000000000000000000, 0.000000000000000000, -1.000000000000000000 ) ) ;
#296 = EDGE_CURVE ( 'NONE', #344, #111, #259, .T. ) ;
#297 = PERSON_AND_ORGANIZATION_ROLE ( 'classification_officer' ) ;
#298 = CARTESIAN_POINT ( 'NONE',  ( 6.000000000000000888, 7.347880794884120722E-16, 5.000000000000000000 ) ) ;
#299 = PERSON_AND_ORGANIZATION ( #95, #99 ) ;
#300 = EDGE_CURVE ( 'NONE', #172, #347, #236, .T. ) ;
#301 = CARTESIAN_POINT ( 'NONE',  ( 0.000000000000000000, 0.000000000000000000, 655.0000000000000000 ) ) ;
#302 = VECTOR ( 'NONE', #286, 1000.000000000000000 ) ;
#303 = DIRECTION ( 'NONE',  ( 0.000000000000000000, 0.000000000000000000, 1.000000000000000000 ) ) ;
#304 = ORIENTED_EDGE ( 'NONE', *, *, #212, .T. ) ;
#305 = DIRECTION ( 'NONE',  ( 1.000000000000000000, 0.000000000000000000, 0.000000000000000000 ) ) ;
#306 = EDGE_CURVE ( 'NONE', #347, #362, #175, .T. ) ;
#307 = PLANE ( 'NONE',  #202 ) ;
#308 = FACE_OUTER_BOUND ( 'NONE', #316, .T. ) ;
#309 = ORIENTED_EDGE ( 'NONE', *, *, #313, .T. ) ;
#310 = EDGE_CURVE ( 'NONE', #318, #265, #14, .T. ) ;
#311 = AXIS2_PLACEMENT_3D ( 'NONE', #109, #256, #18 ) ;
#312 = ORIENTED_EDGE ( 'NONE', *, *, #310, .F. ) ;
#313 = EDGE_CURVE ( 'NONE', #288, #227, #140, .T. ) ;
#314 = DIRECTION ( 'NONE',  ( -1.000000000000000000, 0.000000000000000000, 0.000000000000000000 ) ) ;
#315 = ORIENTED_EDGE ( 'NONE', *, *, #239, .T. ) ;
#316 = EDGE_LOOP ( 'NONE', ( #23, #42, #290, #20 ) ) ;
#317 = CARTESIAN_POINT ( 'NONE',  ( 2.000000000000000000, 2.449293598294706414E-16, 655.0000000000000000 ) ) ;
#318 = VERTEX_POINT ( 'NONE', #168 ) ;
#319 = EDGE_CURVE ( 'NONE', #103, #172, #188, .T. ) ;
#320 = CYLINDRICAL_SURFACE ( 'NONE', #361, 2.000000000000000000 ) ;
#321 = DIRECTION ( 'NONE',  ( 1.000000000000000000, 0.000000000000000000, 0.000000000000000000 ) ) ;
#322 = CARTESIAN_POINT ( 'NONE',  ( 0.000000000000000000, 0.000000000000000000, 655.0000000000000000 ) ) ;
#323 = CC_DESIGN_APPROVAL ( #275, ( #170 ) ) ;
#324 = DIRECTION ( 'NONE',  ( -0.000000000000000000, -0.000000000000000000, -1.000000000000000000 ) ) ;
#325 = EDGE_CURVE ( 'NONE', #227, #111, #62, .T. ) ;
#326 = DESIGN_CONTEXT ( 'detailed design', #345, 'design' ) ;
#327 = DIRECTION ( 'NONE',  ( -0.000000000000000000, -0.000000000000000000, -1.000000000000000000 ) ) ;
#328 = FACE_OUTER_BOUND ( 'NONE', #164, .T. ) ;
#329 = AXIS2_PLACEMENT_3D ( 'NONE', #160, #44, #364 ) ;
#330 = EDGE_CURVE ( 'NONE', #137, #191, #45, .T. ) ;
#331 = DIRECTION ( 'NONE',  ( 0.000000000000000000, 0.000000000000000000, 1.000000000000000000 ) ) ;
#332 = PLANE ( 'NONE',  #329 ) ;
#333 = DIRECTION ( 'NONE',  ( 0.000000000000000000, 0.000000000000000000, 1.000000000000000000 ) ) ;
#334 = VERTEX_POINT ( 'NONE', #260 ) ;
#335 = CYLINDRICAL_SURFACE ( 'NONE', #289, 6.000000000000000888 ) ;
#336 = AXIS2_PLACEMENT_3D ( 'NONE', #152, #273, #93 ) ;
#337 = APPROVAL ( #96, 'NEURÈENÝ' ) ;
#338 = ORIENTED_EDGE ( 'NONE', *, *, #144, .F. ) ;
#339 =( NAMED_UNIT ( * ) PLANE_ANGLE_UNIT ( ) SI_UNIT ( $, .RADIAN. ) );
#340 = CARTESIAN_POINT ( 'NONE',  ( 0.000000000000000000, 0.000000000000000000, 655.0000000000000000 ) ) ;
#341 = ORIENTED_EDGE ( 'NONE', *, *, #306, .F. ) ;
#342 = CARTESIAN_POINT ( 'NONE',  ( 0.000000000000000000, 0.000000000000000000, 5.499999999999949374 ) ) ;
#343 = AXIS2_PLACEMENT_3D ( 'NONE', #30, #271, #150 ) ;
#344 = VERTEX_POINT ( 'NONE', #317 ) ;
#345 = APPLICATION_CONTEXT ( 'configuration controlled 3d designs of mechanical parts and assemblies' ) ;
#346 = PERSON_AND_ORGANIZATION_ROLE ( 'creator' ) ;
#347 = VERTEX_POINT ( 'NONE', #134 ) ;
#348 = PERSON_AND_ORGANIZATION ( #95, #99 ) ;
#349 = DIRECTION ( 'NONE',  ( -0.000000000000000000, -0.000000000000000000, -1.000000000000000000 ) ) ;
#350 = DATE_AND_TIME ( #148, #104 ) ;
#351 = AXIS2_PLACEMENT_3D ( 'NONE', #353, #185, #295 ) ;
#352 = CC_DESIGN_PERSON_AND_ORGANIZATION_ASSIGNMENT ( #354, #268, ( #169 ) ) ;
#353 = CARTESIAN_POINT ( 'NONE',  ( 3.500000000000000444, 0.000000000000000000, 5.499999999999949374 ) ) ;
#354 = PERSON_AND_ORGANIZATION ( #95, #99 ) ;
#355 = FACE_OUTER_BOUND ( 'NONE', #25, .T. ) ;
#356 = DIRECTION ( 'NONE',  ( 1.000000000000000000, 0.000000000000000000, 0.000000000000000000 ) ) ;
#357 = DIRECTION ( 'NONE',  ( 1.000000000000000000, 0.000000000000000000, 0.000000000000000000 ) ) ;
#358 = LINE ( 'NONE', #12, #215 ) ;
#359 = ORIENTED_EDGE ( 'NONE', *, *, #310, .T. ) ;
#360 = ADVANCED_FACE ( 'NONE', ( #232 ), #335, .T. ) ;
#361 = AXIS2_PLACEMENT_3D ( 'NONE', #322, #54, #7 ) ;
#362 = VERTEX_POINT ( 'NONE', #70 ) ;
#363 = COORDINATED_UNIVERSAL_TIME_OFFSET ( 1, 0, .AHEAD. ) ;
#364 = DIRECTION ( 'NONE',  ( 1.000000000000000000, 0.000000000000000000, -0.000000000000000000 ) ) ;
#365 = AXIS2_PLACEMENT_3D ( 'NONE', #105, #37, #157 ) ;
#366 = CYLINDRICAL_SURFACE ( 'NONE', #365, 6.000000000000000888 ) ;
#367 = CARTESIAN_POINT ( 'NONE',  ( 0.000000000000000000, 0.000000000000000000, 5.499999999999949374 ) ) ;
#368 = DIRECTION ( 'NONE',  ( -0.000000000000000000, -0.000000000000000000, -1.000000000000000000 ) ) ;
#369 = PRODUCT_DEFINITION_FORMATION_WITH_SPECIFIED_SOURCE ( 'LIBOVOLNÝ', '', #169, .NOT_KNOWN. ) ;
#370 = ORIENTED_EDGE ( 'NONE', *, *, #325, .F. ) ;
#371 = DIRECTION ( 'NONE',  ( 1.000000000000000000, 0.000000000000000000, 0.000000000000000000 ) ) ;
#372 = ORIENTED_EDGE ( 'NONE', *, *, #71, .F. ) ;
#373 = DIRECTION ( 'NONE',  ( 0.000000000000000000, 0.000000000000000000, 1.000000000000000000 ) ) ;
#374 = ORIENTED_EDGE ( 'NONE', *, *, #53, .T. ) ;
#375 = CC_DESIGN_PERSON_AND_ORGANIZATION_ASSIGNMENT ( #145, #119, ( #369 ) ) ;
#376 = PERSON_AND_ORGANIZATION ( #95, #99 ) ;
#377 =( GEOMETRIC_REPRESENTATION_CONTEXT ( 3 ) GLOBAL_UNCERTAINTY_ASSIGNED_CONTEXT ( ( #257 ) ) GLOBAL_UNIT_ASSIGNED_CONTEXT ( ( #204, #339, #173 ) ) REPRESENTATION_CONTEXT ( 'NONE', 'WORKASPACE' ) );
#378 = ORIENTED_EDGE ( 'NONE', *, *, #64, .T. ) ;
#379 = APPROVAL_ROLE ( '' ) ;
#380 = DIRECTION ( 'NONE',  ( 0.000000000000000000, 0.000000000000000000, -1.000000000000000000 ) ) ;
#381 = APPROVAL_STATUS ( 'not_yet_approved' ) ;
ENDSEC;
END-ISO-10303-21;
