ISO-10303-21;
HEADER;
FILE_DESCRIPTION (( 'STEP AP203' ),
    '1' );
FILE_NAME ('a0b5.STEP',
    '2022-07-08T15:09:55',
    ( '' ),
    ( '' ),
    'SwSTEP 2.0',
    'SolidWorks 2019',
    '' );
FILE_SCHEMA (( 'CONFIG_CONTROL_DESIGN' ));
ENDSEC;

DATA;
#1 = DIRECTION ( 'NONE',  ( 0.000000000000000000, 0.000000000000000000, 1.000000000000000000 ) ) ;
#2 = EDGE_CURVE ( 'NONE', #79, #168, #261, .T. ) ;
#3 = DIRECTION ( 'NONE',  ( -0.000000000000000000, -0.000000000000000000, -1.000000000000000000 ) ) ;
#4 = AXIS2_PLACEMENT_3D ( 'NONE', #100, #294, #153 ) ;
#5 = VECTOR ( 'NONE', #87, 1000.000000000000000 ) ;
#6 = CC_DESIGN_PERSON_AND_ORGANIZATION_ASSIGNMENT ( #120, #94, ( #249 ) ) ;
#7 = CARTESIAN_POINT ( 'NONE',  ( 0.000000000000000000, 0.000000000000000000, 5.500000000000005329 ) ) ;
#8 = ORIENTED_EDGE ( 'NONE', *, *, #22, .T. ) ;
#9 = ORIENTED_EDGE ( 'NONE', *, *, #337, .T. ) ;
#10 = FACE_OUTER_BOUND ( 'NONE', #12, .T. ) ;
#11 = EDGE_CURVE ( 'NONE', #109, #168, #45, .T. ) ;
#12 = EDGE_LOOP ( 'NONE', ( #196, #336, #50, #339 ) ) ;
#13 = AXIS2_PLACEMENT_3D ( 'NONE', #355, #59, #179 ) ;
#14 = DIRECTION ( 'NONE',  ( 1.000000000000000000, 0.000000000000000000, 0.000000000000000000 ) ) ;
#15 = CC_DESIGN_SECURITY_CLASSIFICATION ( #186, ( #249 ) ) ;
#16 = CIRCLE ( 'NONE', #380, 0.5000000000000004441 ) ;
#17 = VERTEX_POINT ( 'NONE', #97 ) ;
#18 = ORIENTED_EDGE ( 'NONE', *, *, #278, .F. ) ;
#19 = ORIENTED_EDGE ( 'NONE', *, *, #337, .F. ) ;
#20 = COORDINATED_UNIVERSAL_TIME_OFFSET ( 1, 0, .AHEAD. ) ;
#21 = ADVANCED_BREP_SHAPE_REPRESENTATION ( 'a0b5', ( #58, #40 ), #322 ) ;
#22 = EDGE_CURVE ( 'NONE', #282, #147, #25, .T. ) ;
#23 = DIRECTION ( 'NONE',  ( 1.000000000000000000, 0.000000000000000000, 0.000000000000000000 ) ) ;
#24 = CYLINDRICAL_SURFACE ( 'NONE', #66, 2.600000000000000089 ) ;
#25 = LINE ( 'NONE', #351, #5 ) ;
#26 = CARTESIAN_POINT ( 'NONE',  ( 0.000000000000000000, 0.000000000000000000, 130.0000000000000000 ) ) ;
#27 = EDGE_CURVE ( 'NONE', #364, #282, #91, .T. ) ;
#28 = SHAPE_DEFINITION_REPRESENTATION ( #361, #21 ) ;
#29 = CARTESIAN_POINT ( 'NONE',  ( -7.000000000000000000, 0.000000000000000000, 0.000000000000000000 ) ) ;
#30 = AXIS2_PLACEMENT_3D ( 'NONE', #34, #165, #242 ) ;
#31 = ADVANCED_FACE ( 'NONE', ( #233 ), #24, .F. ) ;
#32 = CARTESIAN_POINT ( 'NONE',  ( 7.000000000000000000, 8.572527594031473190E-16, 0.000000000000000000 ) ) ;
#33 = LOCAL_TIME ( 17, 9, 55.00000000000000000, #310 ) ;
#34 = CARTESIAN_POINT ( 'NONE',  ( -4.500000000000000888, 5.510910596163089556E-16, 5.500000000000005329 ) ) ;
#35 = PRODUCT ( 'a0b5', 'a0b5', '', ( #283 ) ) ;
#36 = DIRECTION ( 'NONE',  ( 1.000000000000000000, 0.000000000000000000, 0.000000000000000000 ) ) ;
#37 = EDGE_CURVE ( 'NONE', #168, #109, #123, .T. ) ;
#38 = CARTESIAN_POINT ( 'NONE',  ( 2.600000000000000089, 3.184081677783118191E-16, 130.0000000000000000 ) ) ;
#39 = ORIENTED_EDGE ( 'NONE', *, *, #27, .F. ) ;
#40 = AXIS2_PLACEMENT_3D ( 'NONE', #124, #232, #23 ) ;
#41 = CARTESIAN_POINT ( 'NONE',  ( -7.000000000000000000, 0.000000000000000000, 5.000000000000000000 ) ) ;
#42 = ORIENTED_EDGE ( 'NONE', *, *, #2, .T. ) ;
#43 = CARTESIAN_POINT ( 'NONE',  ( 0.000000000000000000, 0.000000000000000000, 5.000000000000000000 ) ) ;
#44 = ORIENTED_EDGE ( 'NONE', *, *, #378, .F. ) ;
#45 = CIRCLE ( 'NONE', #182, 7.000000000000000000 ) ;
#46 = APPROVAL_STATUS ( 'not_yet_approved' ) ;
#47 = AXIS2_PLACEMENT_3D ( 'NONE', #73, #334, #135 ) ;
#48 = DIRECTION ( 'NONE',  ( 0.000000000000000000, 0.000000000000000000, 1.000000000000000000 ) ) ;
#49 = CC_DESIGN_PERSON_AND_ORGANIZATION_ASSIGNMENT ( #207, #57, ( #186 ) ) ;
#50 = ORIENTED_EDGE ( 'NONE', *, *, #181, .T. ) ;
#51 = CALENDAR_DATE ( 2022, 8, 7 ) ;
#52 = CARTESIAN_POINT ( 'NONE',  ( 7.000000000000000000, 8.572527594031473190E-16, 5.000000000000000000 ) ) ;
#53 = ORIENTED_EDGE ( 'NONE', *, *, #331, .F. ) ;
#54 = CALENDAR_DATE ( 2022, 8, 7 ) ;
#55 = DIRECTION ( 'NONE',  ( 0.000000000000000000, 0.000000000000000000, 1.000000000000000000 ) ) ;
#56 = EDGE_CURVE ( 'NONE', #280, #109, #149, .T. ) ;
#57 = PERSON_AND_ORGANIZATION_ROLE ( 'classification_officer' ) ;
#58 = MANIFOLD_SOLID_BREP ( 'Odebrat vysunutím3', #204 ) ;
#59 = DIRECTION ( 'NONE',  ( -0.000000000000000000, -0.000000000000000000, -1.000000000000000000 ) ) ;
#60 = DIRECTION ( 'NONE',  ( 1.000000000000000000, 0.000000000000000000, 0.000000000000000000 ) ) ;
#61 = DIRECTION ( 'NONE',  ( 0.000000000000000000, 0.000000000000000000, 1.000000000000000000 ) ) ;
#62 = AXIS2_PLACEMENT_3D ( 'NONE', #127, #3, #158 ) ;
#63 = LOCAL_TIME ( 17, 9, 55.00000000000000000, #64 ) ;
#64 = COORDINATED_UNIVERSAL_TIME_OFFSET ( 1, 0, .AHEAD. ) ;
#65 = CARTESIAN_POINT ( 'NONE',  ( 0.000000000000000000, 0.000000000000000000, 130.0000000000000000 ) ) ;
#66 = AXIS2_PLACEMENT_3D ( 'NONE', #293, #315, #353 ) ;
#67 = DIRECTION ( 'NONE',  ( 1.000000000000000000, 0.000000000000000000, 0.000000000000000000 ) ) ;
#68 = CIRCLE ( 'NONE', #216, 7.000000000000000000 ) ;
#69 = EDGE_CURVE ( 'NONE', #85, #134, #255, .T. ) ;
#70 = DIRECTION ( 'NONE',  ( 1.000000000000000000, 0.000000000000000000, 0.000000000000000000 ) ) ;
#71 = LINE ( 'NONE', #279, #332 ) ;
#72 = ORIENTED_EDGE ( 'NONE', *, *, #253, .T. ) ;
#73 = CARTESIAN_POINT ( 'NONE',  ( 0.000000000000000000, 0.000000000000000000, 5.000000000000000000 ) ) ;
#74 = ORIENTED_EDGE ( 'NONE', *, *, #359, .T. ) ;
#75 = AXIS2_PLACEMENT_3D ( 'NONE', #246, #76, #197 ) ;
#76 = DIRECTION ( 'NONE',  ( 0.000000000000000000, 0.000000000000000000, -1.000000000000000000 ) ) ;
#77 = ORIENTED_EDGE ( 'NONE', *, *, #278, .T. ) ;
#78 = ADVANCED_FACE ( 'NONE', ( #324 ), #117, .T. ) ;
#79 = VERTEX_POINT ( 'NONE', #230 ) ;
#80 = ORIENTED_EDGE ( 'NONE', *, *, #359, .F. ) ;
#81 = VECTOR ( 'NONE', #374, 1000.000000000000000 ) ;
#82 = DATE_AND_TIME ( #203, #126 ) ;
#83 = APPROVAL ( #348, 'NEURÈENÝ' ) ;
#84 = CYLINDRICAL_SURFACE ( 'NONE', #150, 7.000000000000000000 ) ;
#85 = VERTEX_POINT ( 'NONE', #346 ) ;
#86 = APPROVAL_ROLE ( '' ) ;
#87 = DIRECTION ( 'NONE',  ( 0.000000000000000000, 0.000000000000000000, -1.000000000000000000 ) ) ;
#88 = EDGE_LOOP ( 'NONE', ( #110, #277, #308, #312 ) ) ;
#89 = APPLICATION_PROTOCOL_DEFINITION ( 'international standard', 'config_control_design', 1994, #238 ) ;
#90 = CARTESIAN_POINT ( 'NONE',  ( -4.000000000000000000, 0.000000000000000000, 130.0000000000000000 ) ) ;
#91 = CIRCLE ( 'NONE', #177, 2.600000000000000089 ) ;
#92 = ORIENTED_EDGE ( 'NONE', *, *, #56, .F. ) ;
#93 = ADVANCED_FACE ( 'NONE', ( #119 ), #291, .T. ) ;
#94 = PERSON_AND_ORGANIZATION_ROLE ( 'creator' ) ;
#95 = AXIS2_PLACEMENT_3D ( 'NONE', #335, #247, #367 ) ;
#96 = PERSON_AND_ORGANIZATION_ROLE ( 'creator' ) ;
#97 = CARTESIAN_POINT ( 'NONE',  ( -4.500000000000000888, 5.510910596163088569E-16, 5.000000000000002665 ) ) ;
#98 = DIRECTION ( 'NONE',  ( 1.000000000000000000, 0.000000000000000000, -0.000000000000000000 ) ) ;
#99 = AXIS2_PLACEMENT_3D ( 'NONE', #175, #208, #146 ) ;
#100 = CARTESIAN_POINT ( 'NONE',  ( 0.000000000000000000, 0.000000000000000000, 5.500000000000005329 ) ) ;
#101 = EDGE_CURVE ( 'NONE', #198, #147, #143, .T. ) ;
#102 = PLANE ( 'NONE',  #222 ) ;
#103 = PLANE ( 'NONE',  #132 ) ;
#104 = CC_DESIGN_PERSON_AND_ORGANIZATION_ASSIGNMENT ( #317, #96, ( #373 ) ) ;
#105 = CARTESIAN_POINT ( 'NONE',  ( 4.000000000000000000, 4.898587196589412829E-16, 130.0000000000000000 ) ) ;
#106 = APPROVAL_PERSON_ORGANIZATION ( #263, #152, #236 ) ;
#107 = DIRECTION ( 'NONE',  ( 1.000000000000000000, 0.000000000000000000, 0.000000000000000000 ) ) ;
#108 = DIRECTION ( 'NONE',  ( 1.000000000000000000, 0.000000000000000000, 0.000000000000000000 ) ) ;
#109 = VERTEX_POINT ( 'NONE', #29 ) ;
#110 = ORIENTED_EDGE ( 'NONE', *, *, #195, .F. ) ;
#111 = AXIS2_PLACEMENT_3D ( 'NONE', #309, #161, #107 ) ;
#112 = ORIENTED_EDGE ( 'NONE', *, *, #11, .F. ) ;
#113 =( LENGTH_UNIT ( ) NAMED_UNIT ( * ) SI_UNIT ( .MILLI., .METRE. ) );
#114 = EDGE_LOOP ( 'NONE', ( #136, #189 ) ) ;
#115 = ADVANCED_FACE ( 'NONE', ( #252 ), #84, .T. ) ;
#116 = PERSON_AND_ORGANIZATION ( #205, #372 ) ;
#117 = CYLINDRICAL_SURFACE ( 'NONE', #13, 4.000000000000000000 ) ;
#118 = DATE_AND_TIME ( #54, #138 ) ;
#119 = FACE_OUTER_BOUND ( 'NONE', #366, .T. ) ;
#120 = PERSON_AND_ORGANIZATION ( #205, #372 ) ;
#121 = DIRECTION ( 'NONE',  ( -0.000000000000000000, -0.000000000000000000, -1.000000000000000000 ) ) ;
#122 = CARTESIAN_POINT ( 'NONE',  ( 0.000000000000000000, 0.000000000000000000, 130.0000000000000000 ) ) ;
#123 = CIRCLE ( 'NONE', #99, 7.000000000000000000 ) ;
#124 = CARTESIAN_POINT ( 'NONE',  ( 0.000000000000000000, 0.000000000000000000, 0.000000000000000000 ) ) ;
#125 = DIRECTION ( 'NONE',  ( -1.000000000000000000, 0.000000000000000000, 0.000000000000000000 ) ) ;
#126 = LOCAL_TIME ( 17, 9, 55.00000000000000000, #314 ) ;
#127 = CARTESIAN_POINT ( 'NONE',  ( 0.000000000000000000, 0.000000000000000000, 5.000000000000000000 ) ) ;
#128 = CC_DESIGN_DATE_AND_TIME_ASSIGNMENT ( #345, #376, ( #373 ) ) ;
#129 = CARTESIAN_POINT ( 'NONE',  ( 0.000000000000000000, 0.000000000000000000, 130.0000000000000000 ) ) ;
#130 = EDGE_CURVE ( 'NONE', #17, #306, #313, .T. ) ;
#131 = DIRECTION ( 'NONE',  ( 0.000000000000000000, 0.000000000000000000, -1.000000000000000000 ) ) ;
#132 = AXIS2_PLACEMENT_3D ( 'NONE', #214, #299, #98 ) ;
#133 = FACE_OUTER_BOUND ( 'NONE', #221, .T. ) ;
#134 = VERTEX_POINT ( 'NONE', #379 ) ;
#135 = DIRECTION ( 'NONE',  ( -1.000000000000000000, 0.000000000000000000, 0.000000000000000000 ) ) ;
#136 = ORIENTED_EDGE ( 'NONE', *, *, #378, .T. ) ;
#137 = EDGE_LOOP ( 'NONE', ( #112, #173 ) ) ;
#138 = LOCAL_TIME ( 17, 9, 55.00000000000000000, #260 ) ;
#139 = DIRECTION ( 'NONE',  ( -0.000000000000000000, -0.000000000000000000, -1.000000000000000000 ) ) ;
#140 = ORIENTED_EDGE ( 'NONE', *, *, #298, .F. ) ;
#141 = ORIENTED_EDGE ( 'NONE', *, *, #37, .T. ) ;
#142 = DATE_AND_TIME ( #51, #243 ) ;
#143 = CIRCLE ( 'NONE', #287, 2.600000000000000089 ) ;
#144 = CIRCLE ( 'NONE', #95, 4.500000000000000888 ) ;
#145 = APPLICATION_PROTOCOL_DEFINITION ( 'international standard', 'config_control_design', 1994, #164 ) ;
#146 = DIRECTION ( 'NONE',  ( 1.000000000000000000, 0.000000000000000000, 0.000000000000000000 ) ) ;
#147 = VERTEX_POINT ( 'NONE', #360 ) ;
#148 = CALENDAR_DATE ( 2022, 8, 7 ) ;
#149 = LINE ( 'NONE', #258, #81 ) ;
#150 = AXIS2_PLACEMENT_3D ( 'NONE', #212, #156, #187 ) ;
#151 = AXIS2_PLACEMENT_3D ( 'NONE', #307, #217, #108 ) ;
#152 = APPROVAL ( #323, 'NEURÈENÝ' ) ;
#153 = DIRECTION ( 'NONE',  ( 1.000000000000000000, 0.000000000000000000, 0.000000000000000000 ) ) ;
#154 = DIRECTION ( 'NONE',  ( 0.000000000000000000, -1.000000000000000000, 0.000000000000000000 ) ) ;
#155 = ADVANCED_FACE ( 'NONE', ( #184, #296 ), #239, .T. ) ;
#156 = DIRECTION ( 'NONE',  ( -0.000000000000000000, -0.000000000000000000, -1.000000000000000000 ) ) ;
#157 = CIRCLE ( 'NONE', #111, 4.000000000000000000 ) ;
#158 = DIRECTION ( 'NONE',  ( 1.000000000000000000, 0.000000000000000000, 0.000000000000000000 ) ) ;
#159 = CYLINDRICAL_SURFACE ( 'NONE', #75, 2.600000000000000089 ) ;
#160 = VECTOR ( 'NONE', #318, 1000.000000000000000 ) ;
#161 = DIRECTION ( 'NONE',  ( 0.000000000000000000, 0.000000000000000000, 1.000000000000000000 ) ) ;
#162 = EDGE_LOOP ( 'NONE', ( #375, #231, #44, #349 ) ) ;
#163 = AXIS2_PLACEMENT_3D ( 'NONE', #340, #276, #362 ) ;
#164 = APPLICATION_CONTEXT ( 'configuration controlled 3d designs of mechanical parts and assemblies' ) ;
#165 = DIRECTION ( 'NONE',  ( 1.224646799147353207E-16, 1.000000000000000000, -0.000000000000000000 ) ) ;
#166 = ORIENTED_EDGE ( 'NONE', *, *, #101, .T. ) ;
#167 = DIRECTION ( 'NONE',  ( 0.000000000000000000, 0.000000000000000000, 1.000000000000000000 ) ) ;
#168 = VERTEX_POINT ( 'NONE', #32 ) ;
#169 = CC_DESIGN_PERSON_AND_ORGANIZATION_ASSIGNMENT ( #176, #320, ( #35 ) ) ;
#170 = EDGE_LOOP ( 'NONE', ( #72, #319 ) ) ;
#171 = UNCERTAINTY_MEASURE_WITH_UNIT (LENGTH_MEASURE( 1.000000000000000082E-05 ), #113, 'distance_accuracy_value', 'NONE');
#172 = APPROVAL_DATE_TIME ( #82, #311 ) ;
#173 = ORIENTED_EDGE ( 'NONE', *, *, #37, .F. ) ;
#174 = PERSON_AND_ORGANIZATION ( #205, #372 ) ;
#175 = CARTESIAN_POINT ( 'NONE',  ( 0.000000000000000000, 0.000000000000000000, 0.000000000000000000 ) ) ;
#176 = PERSON_AND_ORGANIZATION ( #205, #372 ) ;
#177 = AXIS2_PLACEMENT_3D ( 'NONE', #122, #55, #180 ) ;
#178 = ORIENTED_EDGE ( 'NONE', *, *, #2, .F. ) ;
#179 = DIRECTION ( 'NONE',  ( -1.000000000000000000, 0.000000000000000000, 0.000000000000000000 ) ) ;
#180 = DIRECTION ( 'NONE',  ( 1.000000000000000000, 0.000000000000000000, 0.000000000000000000 ) ) ;
#181 = EDGE_CURVE ( 'NONE', #363, #306, #16, .T. ) ;
#182 = AXIS2_PLACEMENT_3D ( 'NONE', #321, #48, #286 ) ;
#183 = CARTESIAN_POINT ( 'NONE',  ( 2.600000000000000089, 3.184081677783118191E-16, 0.000000000000000000 ) ) ;
#184 = FACE_BOUND ( 'NONE', #114, .T. ) ;
#185 = DIRECTION ( 'NONE',  ( -0.000000000000000000, -0.000000000000000000, -1.000000000000000000 ) ) ;
#186 = SECURITY_CLASSIFICATION ( '', '', #229 ) ;
#187 = DIRECTION ( 'NONE',  ( -1.000000000000000000, 0.000000000000000000, 0.000000000000000000 ) ) ;
#188 = CARTESIAN_POINT ( 'NONE',  ( 4.000000000000000000, 4.898587196589412829E-16, 5.500000000000005329 ) ) ;
#189 = ORIENTED_EDGE ( 'NONE', *, *, #130, .T. ) ;
#190 = EDGE_CURVE ( 'NONE', #134, #363, #281, .T. ) ;
#191 = ORIENTED_EDGE ( 'NONE', *, *, #69, .F. ) ;
#192 = CIRCLE ( 'NONE', #235, 4.000000000000000000 ) ;
#193 = CARTESIAN_POINT ( 'NONE',  ( 0.000000000000000000, 0.000000000000000000, 5.000000000000000000 ) ) ;
#194 = ORIENTED_EDGE ( 'NONE', *, *, #298, .T. ) ;
#195 = EDGE_CURVE ( 'NONE', #248, #363, #357, .T. ) ;
#196 = ORIENTED_EDGE ( 'NONE', *, *, #268, .F. ) ;
#197 = DIRECTION ( 'NONE',  ( -1.000000000000000000, 0.000000000000000000, 0.000000000000000000 ) ) ;
#198 = VERTEX_POINT ( 'NONE', #183 ) ;
#199 = AXIS2_PLACEMENT_3D ( 'NONE', #327, #61, #329 ) ;
#200 = CIRCLE ( 'NONE', #30, 0.5000000000000004441 ) ;
#201 = EDGE_LOOP ( 'NONE', ( #18, #39 ) ) ;
#202 = ORIENTED_EDGE ( 'NONE', *, *, #331, .T. ) ;
#203 = CALENDAR_DATE ( 2022, 8, 7 ) ;
#204 = CLOSED_SHELL ( 'NONE', ( #31, #223, #93, #115, #328, #155, #262, #78, #234, #369, #289 ) ) ;
#205 = PERSON ( 'NEURÈENÝ', 'NEURÈENÝ', 'NEURÈENÝ', ('NEURÈENÝ'), ('NEURÈENÝ'), ('NEURÈENÝ') ) ;
#206 = ORIENTED_EDGE ( 'NONE', *, *, #101, .F. ) ;
#207 = PERSON_AND_ORGANIZATION ( #205, #372 ) ;
#208 = DIRECTION ( 'NONE',  ( 0.000000000000000000, 0.000000000000000000, 1.000000000000000000 ) ) ;
#209 = DIRECTION ( 'NONE',  ( -0.000000000000000000, -0.000000000000000000, -1.000000000000000000 ) ) ;
#210 = FACE_BOUND ( 'NONE', #201, .T. ) ;
#211 = CIRCLE ( 'NONE', #163, 2.600000000000000089 ) ;
#212 = CARTESIAN_POINT ( 'NONE',  ( 0.000000000000000000, 0.000000000000000000, 5.000000000000000000 ) ) ;
#213 = DATE_AND_TIME ( #326, #63 ) ;
#214 = CARTESIAN_POINT ( 'NONE',  ( 0.000000000000000000, 0.000000000000000000, 0.000000000000000000 ) ) ;
#215 = DIRECTION ( 'NONE',  ( 0.000000000000000000, 0.000000000000000000, 1.000000000000000000 ) ) ;
#216 = AXIS2_PLACEMENT_3D ( 'NONE', #193, #273, #14 ) ;
#217 = DIRECTION ( 'NONE',  ( 0.000000000000000000, 0.000000000000000000, 1.000000000000000000 ) ) ;
#218 = EDGE_LOOP ( 'NONE', ( #140, #42, #141, #92 ) ) ;
#219 = FACE_OUTER_BOUND ( 'NONE', #371, .T. ) ;
#220 = AXIS2_PLACEMENT_3D ( 'NONE', #269, #215, #67 ) ;
#221 = EDGE_LOOP ( 'NONE', ( #80, #275, #8, #202 ) ) ;
#222 = AXIS2_PLACEMENT_3D ( 'NONE', #65, #1, #356 ) ;
#223 = ADVANCED_FACE ( 'NONE', ( #381 ), #344, .F. ) ;
#224 = EDGE_LOOP ( 'NONE', ( #9, #194 ) ) ;
#225 = DESIGN_CONTEXT ( 'detailed design', #164, 'design' ) ;
#226 = DIRECTION ( 'NONE',  ( 0.000000000000000000, 0.000000000000000000, 1.000000000000000000 ) ) ;
#227 = PERSON_AND_ORGANIZATION ( #205, #372 ) ;
#228 = ORIENTED_EDGE ( 'NONE', *, *, #272, .T. ) ;
#229 = SECURITY_CLASSIFICATION_LEVEL ( 'unclassified' ) ;
#230 = CARTESIAN_POINT ( 'NONE',  ( 7.000000000000000000, 8.572527594031473190E-16, 5.000000000000000000 ) ) ;
#231 = ORIENTED_EDGE ( 'NONE', *, *, #268, .T. ) ;
#232 = DIRECTION ( 'NONE',  ( 0.000000000000000000, 0.000000000000000000, 1.000000000000000000 ) ) ;
#233 = FACE_OUTER_BOUND ( 'NONE', #316, .T. ) ;
#234 = ADVANCED_FACE ( 'NONE', ( #210, #271 ), #102, .T. ) ;
#235 = AXIS2_PLACEMENT_3D ( 'NONE', #129, #333, #70 ) ;
#236 = APPROVAL_ROLE ( '' ) ;
#237 = CARTESIAN_POINT ( 'NONE',  ( 0.000000000000000000, 0.000000000000000000, 0.000000000000000000 ) ) ;
#238 = APPLICATION_CONTEXT ( 'configuration controlled 3d designs of mechanical parts and assemblies' ) ;
#239 = PLANE ( 'NONE',  #199 ) ;
#240 = FACE_BOUND ( 'NONE', #343, .T. ) ;
#241 = CC_DESIGN_PERSON_AND_ORGANIZATION_ASSIGNMENT ( #174, #285, ( #249 ) ) ;
#242 = DIRECTION ( 'NONE',  ( -1.000000000000000000, 1.224646799147351482E-16, 0.000000000000000000 ) ) ;
#243 = LOCAL_TIME ( 17, 9, 55.00000000000000000, #20 ) ;
#244 = DIRECTION ( 'NONE',  ( 1.000000000000000000, 0.000000000000000000, 0.000000000000000000 ) ) ;
#245 = ORIENTED_EDGE ( 'NONE', *, *, #195, .T. ) ;
#246 = CARTESIAN_POINT ( 'NONE',  ( 0.000000000000000000, 0.000000000000000000, 130.0000000000000000 ) ) ;
#247 = DIRECTION ( 'NONE',  ( -0.000000000000000000, -0.000000000000000000, -1.000000000000000000 ) ) ;
#248 = VERTEX_POINT ( 'NONE', #267 ) ;
#249 = PRODUCT_DEFINITION_FORMATION_WITH_SPECIFIED_SOURCE ( 'LIBOVOLNÝ', '', #35, .NOT_KNOWN. ) ;
#250 = ORIENTED_EDGE ( 'NONE', *, *, #56, .T. ) ;
#251 = ORIENTED_EDGE ( 'NONE', *, *, #11, .T. ) ;
#252 = FACE_OUTER_BOUND ( 'NONE', #218, .T. ) ;
#253 = EDGE_CURVE ( 'NONE', #85, #248, #192, .T. ) ;
#254 = DATE_TIME_ROLE ( 'classification_date' ) ;
#255 = LINE ( 'NONE', #90, #264 ) ;
#256 = CC_DESIGN_APPROVAL ( #152, ( #373 ) ) ;
#257 = APPROVAL_DATE_TIME ( #118, #152 ) ;
#258 = CARTESIAN_POINT ( 'NONE',  ( -7.000000000000000000, 0.000000000000000000, 5.000000000000000000 ) ) ;
#259 = ORIENTED_EDGE ( 'NONE', *, *, #22, .F. ) ;
#260 = COORDINATED_UNIVERSAL_TIME_OFFSET ( 1, 0, .AHEAD. ) ;
#261 = LINE ( 'NONE', #52, #160 ) ;
#262 = ADVANCED_FACE ( 'NONE', ( #240, #300 ), #103, .F. ) ;
#263 = PERSON_AND_ORGANIZATION ( #205, #372 ) ;
#264 = VECTOR ( 'NONE', #121, 1000.000000000000000 ) ;
#265 = DIRECTION ( 'NONE',  ( -0.000000000000000000, -0.000000000000000000, -1.000000000000000000 ) ) ;
#266 = AXIS2_PLACEMENT_3D ( 'NONE', #365, #139, #303 ) ;
#267 = CARTESIAN_POINT ( 'NONE',  ( 4.000000000000000000, 4.898587196589412829E-16, 130.0000000000000000 ) ) ;
#268 = EDGE_CURVE ( 'NONE', #134, #17, #200, .T. ) ;
#269 = CARTESIAN_POINT ( 'NONE',  ( 0.000000000000000000, 0.000000000000000000, 5.500000000000005329 ) ) ;
#270 = CIRCLE ( 'NONE', #266, 2.600000000000000089 ) ;
#271 = FACE_OUTER_BOUND ( 'NONE', #170, .T. ) ;
#272 = EDGE_CURVE ( 'NONE', #363, #134, #377, .T. ) ;
#273 = DIRECTION ( 'NONE',  ( 0.000000000000000000, 0.000000000000000000, 1.000000000000000000 ) ) ;
#274 = CARTESIAN_POINT ( 'NONE',  ( 4.500000000000000888, 0.000000000000000000, 5.000000000000002665 ) ) ;
#275 = ORIENTED_EDGE ( 'NONE', *, *, #27, .T. ) ;
#276 = DIRECTION ( 'NONE',  ( 0.000000000000000000, 0.000000000000000000, 1.000000000000000000 ) ) ;
#277 = ORIENTED_EDGE ( 'NONE', *, *, #253, .F. ) ;
#278 = EDGE_CURVE ( 'NONE', #282, #364, #211, .T. ) ;
#279 = CARTESIAN_POINT ( 'NONE',  ( 2.600000000000000089, 3.184081677783118191E-16, 130.0000000000000000 ) ) ;
#280 = VERTEX_POINT ( 'NONE', #41 ) ;
#281 = CIRCLE ( 'NONE', #220, 4.000000000000000000 ) ;
#282 = VERTEX_POINT ( 'NONE', #338 ) ;
#283 = MECHANICAL_CONTEXT ( 'NONE', #238, 'mechanical' ) ;
#284 = CC_DESIGN_DATE_AND_TIME_ASSIGNMENT ( #142, #254, ( #186 ) ) ;
#285 = PERSON_AND_ORGANIZATION_ROLE ( 'design_supplier' ) ;
#286 = DIRECTION ( 'NONE',  ( 1.000000000000000000, 0.000000000000000000, 0.000000000000000000 ) ) ;
#287 = AXIS2_PLACEMENT_3D ( 'NONE', #237, #209, #60 ) ;
#288 = AXIS2_PLACEMENT_3D ( 'NONE', #43, #167, #36 ) ;
#289 = ADVANCED_FACE ( 'NONE', ( #133 ), #159, .F. ) ;
#290 = APPROVAL_ROLE ( '' ) ;
#291 = CYLINDRICAL_SURFACE ( 'NONE', #302, 4.000000000000000000 ) ;
#292 = VECTOR ( 'NONE', #185, 1000.000000000000000 ) ;
#293 = CARTESIAN_POINT ( 'NONE',  ( 0.000000000000000000, 0.000000000000000000, 130.0000000000000000 ) ) ;
#294 = DIRECTION ( 'NONE',  ( 0.000000000000000000, 0.000000000000000000, 1.000000000000000000 ) ) ;
#295 = CARTESIAN_POINT ( 'NONE',  ( 4.500000000000000888, 0.000000000000000000, 5.500000000000005329 ) ) ;
#296 = FACE_OUTER_BOUND ( 'NONE', #224, .T. ) ;
#297 = AXIS2_PLACEMENT_3D ( 'NONE', #7, #226, #244 ) ;
#298 = EDGE_CURVE ( 'NONE', #79, #280, #68, .T. ) ;
#299 = DIRECTION ( 'NONE',  ( 0.000000000000000000, 0.000000000000000000, 1.000000000000000000 ) ) ;
#300 = FACE_OUTER_BOUND ( 'NONE', #137, .T. ) ;
#301 = ORIENTED_EDGE ( 'NONE', *, *, #352, .F. ) ;
#302 = AXIS2_PLACEMENT_3D ( 'NONE', #26, #265, #125 ) ;
#303 = DIRECTION ( 'NONE',  ( 1.000000000000000000, 0.000000000000000000, 0.000000000000000000 ) ) ;
#304 = CIRCLE ( 'NONE', #288, 7.000000000000000000 ) ;
#305 = CC_DESIGN_APPROVAL ( #83, ( #186 ) ) ;
#306 = VERTEX_POINT ( 'NONE', #274 ) ;
#307 = CARTESIAN_POINT ( 'NONE',  ( 0.000000000000000000, 0.000000000000000000, 5.500000000000005329 ) ) ;
#308 = ORIENTED_EDGE ( 'NONE', *, *, #69, .T. ) ;
#309 = CARTESIAN_POINT ( 'NONE',  ( 0.000000000000000000, 0.000000000000000000, 130.0000000000000000 ) ) ;
#310 = COORDINATED_UNIVERSAL_TIME_OFFSET ( 1, 0, .AHEAD. ) ;
#311 = APPROVAL ( #46, 'NEURÈENÝ' ) ;
#312 = ORIENTED_EDGE ( 'NONE', *, *, #190, .T. ) ;
#313 = CIRCLE ( 'NONE', #62, 4.500000000000000888 ) ;
#314 = COORDINATED_UNIVERSAL_TIME_OFFSET ( 1, 0, .AHEAD. ) ;
#315 = DIRECTION ( 'NONE',  ( 0.000000000000000000, 0.000000000000000000, -1.000000000000000000 ) ) ;
#316 = EDGE_LOOP ( 'NONE', ( #77, #74, #166, #259 ) ) ;
#317 = PERSON_AND_ORGANIZATION ( #205, #372 ) ;
#318 = DIRECTION ( 'NONE',  ( -0.000000000000000000, -0.000000000000000000, -1.000000000000000000 ) ) ;
#319 = ORIENTED_EDGE ( 'NONE', *, *, #352, .T. ) ;
#320 = PERSON_AND_ORGANIZATION_ROLE ( 'design_owner' ) ;
#321 = CARTESIAN_POINT ( 'NONE',  ( 0.000000000000000000, 0.000000000000000000, 0.000000000000000000 ) ) ;
#322 =( GEOMETRIC_REPRESENTATION_CONTEXT ( 3 ) GLOBAL_UNCERTAINTY_ASSIGNED_CONTEXT ( ( #171 ) ) GLOBAL_UNIT_ASSIGNED_CONTEXT ( ( #113, #342, #350 ) ) REPRESENTATION_CONTEXT ( 'NONE', 'WORKASPACE' ) );
#323 = APPROVAL_STATUS ( 'not_yet_approved' ) ;
#324 = FACE_OUTER_BOUND ( 'NONE', #88, .T. ) ;
#325 = APPROVAL_DATE_TIME ( #213, #83 ) ;
#326 = CALENDAR_DATE ( 2022, 8, 7 ) ;
#327 = CARTESIAN_POINT ( 'NONE',  ( 0.000000000000000000, 0.000000000000000000, 5.000000000000000000 ) ) ;
#328 = ADVANCED_FACE ( 'NONE', ( #219 ), #370, .T. ) ;
#329 = DIRECTION ( 'NONE',  ( 1.000000000000000000, 0.000000000000000000, -0.000000000000000000 ) ) ;
#330 = DIRECTION ( 'NONE',  ( 0.000000000000000000, 0.000000000000000000, -1.000000000000000000 ) ) ;
#331 = EDGE_CURVE ( 'NONE', #147, #198, #270, .T. ) ;
#332 = VECTOR ( 'NONE', #131, 1000.000000000000000 ) ;
#333 = DIRECTION ( 'NONE',  ( 0.000000000000000000, 0.000000000000000000, 1.000000000000000000 ) ) ;
#334 = DIRECTION ( 'NONE',  ( -0.000000000000000000, -0.000000000000000000, -1.000000000000000000 ) ) ;
#335 = CARTESIAN_POINT ( 'NONE',  ( 0.000000000000000000, 0.000000000000000000, 5.000000000000000000 ) ) ;
#336 = ORIENTED_EDGE ( 'NONE', *, *, #272, .F. ) ;
#337 = EDGE_CURVE ( 'NONE', #280, #79, #304, .T. ) ;
#338 = CARTESIAN_POINT ( 'NONE',  ( -2.600000000000000089, 0.000000000000000000, 130.0000000000000000 ) ) ;
#339 = ORIENTED_EDGE ( 'NONE', *, *, #130, .F. ) ;
#340 = CARTESIAN_POINT ( 'NONE',  ( 0.000000000000000000, 0.000000000000000000, 130.0000000000000000 ) ) ;
#341 = PRODUCT_RELATED_PRODUCT_CATEGORY ( 'detail', '', ( #35 ) ) ;
#342 =( NAMED_UNIT ( * ) PLANE_ANGLE_UNIT ( ) SI_UNIT ( $, .RADIAN. ) );
#343 = EDGE_LOOP ( 'NONE', ( #53, #206 ) ) ;
#344 = TOROIDAL_SURFACE ( 'NONE', #4, 4.500000000000000888, 0.5000000000000000000 ) ;
#345 = DATE_AND_TIME ( #148, #33 ) ;
#346 = CARTESIAN_POINT ( 'NONE',  ( -4.000000000000000000, 0.000000000000000000, 130.0000000000000000 ) ) ;
#347 = APPROVAL_PERSON_ORGANIZATION ( #116, #311, #290 ) ;
#348 = APPROVAL_STATUS ( 'not_yet_approved' ) ;
#349 = ORIENTED_EDGE ( 'NONE', *, *, #181, .F. ) ;
#350 =( NAMED_UNIT ( * ) SI_UNIT ( $, .STERADIAN. ) SOLID_ANGLE_UNIT ( ) );
#351 = CARTESIAN_POINT ( 'NONE',  ( -2.600000000000000089, 0.000000000000000000, 130.0000000000000000 ) ) ;
#352 = EDGE_CURVE ( 'NONE', #248, #85, #157, .T. ) ;
#353 = DIRECTION ( 'NONE',  ( -1.000000000000000000, 0.000000000000000000, 0.000000000000000000 ) ) ;
#354 = CC_DESIGN_APPROVAL ( #311, ( #249 ) ) ;
#355 = CARTESIAN_POINT ( 'NONE',  ( 0.000000000000000000, 0.000000000000000000, 130.0000000000000000 ) ) ;
#356 = DIRECTION ( 'NONE',  ( 1.000000000000000000, 0.000000000000000000, -0.000000000000000000 ) ) ;
#357 = LINE ( 'NONE', #105, #292 ) ;
#358 = APPROVAL_PERSON_ORGANIZATION ( #227, #83, #86 ) ;
#359 = EDGE_CURVE ( 'NONE', #364, #198, #71, .T. ) ;
#360 = CARTESIAN_POINT ( 'NONE',  ( -2.600000000000000089, 0.000000000000000000, 0.000000000000000000 ) ) ;
#361 = PRODUCT_DEFINITION_SHAPE ( 'NONE', 'NONE',  #373 ) ;
#362 = DIRECTION ( 'NONE',  ( 1.000000000000000000, 0.000000000000000000, 0.000000000000000000 ) ) ;
#363 = VERTEX_POINT ( 'NONE', #188 ) ;
#364 = VERTEX_POINT ( 'NONE', #38 ) ;
#365 = CARTESIAN_POINT ( 'NONE',  ( 0.000000000000000000, 0.000000000000000000, 0.000000000000000000 ) ) ;
#366 = EDGE_LOOP ( 'NONE', ( #301, #245, #228, #191 ) ) ;
#367 = DIRECTION ( 'NONE',  ( 1.000000000000000000, 0.000000000000000000, 0.000000000000000000 ) ) ;
#368 = TOROIDAL_SURFACE ( 'NONE', #297, 4.500000000000000888, 0.5000000000000000000 ) ;
#369 = ADVANCED_FACE ( 'NONE', ( #10 ), #368, .F. ) ;
#370 = CYLINDRICAL_SURFACE ( 'NONE', #47, 7.000000000000000000 ) ;
#371 = EDGE_LOOP ( 'NONE', ( #178, #19, #250, #251 ) ) ;
#372 = ORGANIZATION ( 'NEURÈENÝ', 'NEURÈENÝ', '' ) ;
#373 = PRODUCT_DEFINITION ( 'NEZNÁMÝ', '', #249, #225 ) ;
#374 = DIRECTION ( 'NONE',  ( -0.000000000000000000, -0.000000000000000000, -1.000000000000000000 ) ) ;
#375 = ORIENTED_EDGE ( 'NONE', *, *, #190, .F. ) ;
#376 = DATE_TIME_ROLE ( 'creation_date' ) ;
#377 = CIRCLE ( 'NONE', #151, 4.000000000000000000 ) ;
#378 = EDGE_CURVE ( 'NONE', #306, #17, #144, .T. ) ;
#379 = CARTESIAN_POINT ( 'NONE',  ( -4.000000000000000000, 0.000000000000000000, 5.500000000000005329 ) ) ;
#380 = AXIS2_PLACEMENT_3D ( 'NONE', #295, #154, #330 ) ;
#381 = FACE_OUTER_BOUND ( 'NONE', #162, .T. ) ;
ENDSEC;
END-ISO-10303-21;
