ISO-10303-21;
HEADER;
FILE_DESCRIPTION (( 'STEP AP203' ),
    '1' );
FILE_NAME ('8fa6.STEP',
    '2022-07-08T14:37:33',
    ( '' ),
    ( '' ),
    'SwSTEP 2.0',
    'SolidWorks 2019',
    '' );
FILE_SCHEMA (( 'CONFIG_CONTROL_DESIGN' ));
ENDSEC;

DATA;
#1 = DIRECTION ( 'NONE',  ( -0.000000000000000000, -0.000000000000000000, -1.000000000000000000 ) ) ;
#2 = ORIENTED_EDGE ( 'NONE', *, *, #380, .F. ) ;
#3 = COORDINATED_UNIVERSAL_TIME_OFFSET ( 1, 0, .AHEAD. ) ;
#4 = AXIS2_PLACEMENT_3D ( 'NONE', #221, #258, #137 ) ;
#5 = ADVANCED_FACE ( 'NONE', ( #7 ), #170, .F. ) ;
#6 = DATE_AND_TIME ( #172, #61 ) ;
#7 = FACE_OUTER_BOUND ( 'NONE', #352, .T. ) ;
#8 = PERSON_AND_ORGANIZATION_ROLE ( 'classification_officer' ) ;
#9 = CARTESIAN_POINT ( 'NONE',  ( 10.00000000000000000, 1.224646799147353256E-15, 7.000000000000000000 ) ) ;
#10 = ADVANCED_FACE ( 'NONE', ( #171 ), #150, .T. ) ;
#11 = CIRCLE ( 'NONE', #239, 4.000000000000000000 ) ;
#12 = DIRECTION ( 'NONE',  ( -0.000000000000000000, -0.000000000000000000, -1.000000000000000000 ) ) ;
#13 = DIRECTION ( 'NONE',  ( -1.000000000000000000, 0.000000000000000000, 0.000000000000000000 ) ) ;
#14 = ADVANCED_FACE ( 'NONE', ( #356 ), #298, .T. ) ;
#15 = ORIENTED_EDGE ( 'NONE', *, *, #54, .F. ) ;
#16 = CARTESIAN_POINT ( 'NONE',  ( -6.700000000000001066, 8.205133554287267548E-16, 6.999999999999992006 ) ) ;
#17 = AXIS2_PLACEMENT_3D ( 'NONE', #20, #69, #246 ) ;
#18 = AXIS2_PLACEMENT_3D ( 'NONE', #36, #1, #206 ) ;
#19 = ORIENTED_EDGE ( 'NONE', *, *, #96, .T. ) ;
#20 = CARTESIAN_POINT ( 'NONE',  ( 0.000000000000000000, 0.000000000000000000, 7.699999999999985079 ) ) ;
#21 = AXIS2_PLACEMENT_3D ( 'NONE', #291, #348, #83 ) ;
#22 =( NAMED_UNIT ( * ) PLANE_ANGLE_UNIT ( ) SI_UNIT ( $, .RADIAN. ) );
#23 = DIRECTION ( 'NONE',  ( -1.000000000000000000, 0.000000000000000000, 0.000000000000000000 ) ) ;
#24 = AXIS2_PLACEMENT_3D ( 'NONE', #310, #72, #128 ) ;
#25 = VECTOR ( 'NONE', #368, 1000.000000000000000 ) ;
#26 = CALENDAR_DATE ( 2022, 8, 7 ) ;
#27 = DIRECTION ( 'NONE',  ( 0.000000000000000000, 0.000000000000000000, -1.000000000000000000 ) ) ;
#28 = EDGE_LOOP ( 'NONE', ( #127, #85 ) ) ;
#29 = EDGE_CURVE ( 'NONE', #375, #217, #191, .T. ) ;
#30 = DIRECTION ( 'NONE',  ( -1.000000000000000000, 0.000000000000000000, 0.000000000000000000 ) ) ;
#31 = AXIS2_PLACEMENT_3D ( 'NONE', #363, #181, #360 ) ;
#32 = EDGE_LOOP ( 'NONE', ( #265, #262, #337, #295 ) ) ;
#33 = EDGE_CURVE ( 'NONE', #217, #375, #231, .T. ) ;
#34 = CARTESIAN_POINT ( 'NONE',  ( 0.000000000000000000, 0.000000000000000000, 507.0000000000000000 ) ) ;
#35 = DIRECTION ( 'NONE',  ( 1.000000000000000000, 0.000000000000000000, -0.000000000000000000 ) ) ;
#36 = CARTESIAN_POINT ( 'NONE',  ( 0.000000000000000000, 0.000000000000000000, 7.000000000000000000 ) ) ;
#37 = LOCAL_TIME ( 16, 37, 33.00000000000000000, #77 ) ;
#38 = CARTESIAN_POINT ( 'NONE',  ( 0.000000000000000000, 0.000000000000000000, 0.000000000000000000 ) ) ;
#39 = DIRECTION ( 'NONE',  ( 1.000000000000000000, 0.000000000000000000, 0.000000000000000000 ) ) ;
#40 = ORIENTED_EDGE ( 'NONE', *, *, #80, .F. ) ;
#41 = DIRECTION ( 'NONE',  ( 1.000000000000000000, 0.000000000000000000, 0.000000000000000000 ) ) ;
#42 = ORIENTED_EDGE ( 'NONE', *, *, #33, .F. ) ;
#43 = CARTESIAN_POINT ( 'NONE',  ( -10.00000000000000000, 0.000000000000000000, 7.000000000000000000 ) ) ;
#44 = CARTESIAN_POINT ( 'NONE',  ( -4.000000000000000000, 0.000000000000000000, 0.000000000000000000 ) ) ;
#45 = CARTESIAN_POINT ( 'NONE',  ( 0.000000000000000000, 0.000000000000000000, 507.0000000000000000 ) ) ;
#46 = LOCAL_TIME ( 16, 37, 33.00000000000000000, #3 ) ;
#47 = APPROVAL ( #273, 'NEURÈENÝ' ) ;
#48 = CARTESIAN_POINT ( 'NONE',  ( -10.00000000000000000, 0.000000000000000000, 7.000000000000000000 ) ) ;
#49 = MECHANICAL_CONTEXT ( 'NONE', #220, 'mechanical' ) ;
#50 = CARTESIAN_POINT ( 'NONE',  ( 10.00000000000000000, 1.224646799147353256E-15, 7.000000000000000000 ) ) ;
#51 = CIRCLE ( 'NONE', #176, 4.000000000000000000 ) ;
#52 = CARTESIAN_POINT ( 'NONE',  ( 0.000000000000000000, 0.000000000000000000, 0.000000000000000000 ) ) ;
#53 = DIRECTION ( 'NONE',  ( -0.000000000000000000, -0.000000000000000000, -1.000000000000000000 ) ) ;
#54 = EDGE_CURVE ( 'NONE', #327, #108, #347, .T. ) ;
#55 = CARTESIAN_POINT ( 'NONE',  ( 0.000000000000000000, 0.000000000000000000, 507.0000000000000000 ) ) ;
#56 = VERTEX_POINT ( 'NONE', #44 ) ;
#57 = UNCERTAINTY_MEASURE_WITH_UNIT (LENGTH_MEASURE( 1.000000000000000082E-05 ), #155, 'distance_accuracy_value', 'NONE');
#58 = ORIENTED_EDGE ( 'NONE', *, *, #276, .F. ) ;
#59 = SECURITY_CLASSIFICATION_LEVEL ( 'unclassified' ) ;
#60 = APPROVAL_ROLE ( '' ) ;
#61 = LOCAL_TIME ( 16, 37, 33.00000000000000000, #230 ) ;
#62 = DIRECTION ( 'NONE',  ( -1.000000000000000000, 0.000000000000000000, 0.000000000000000000 ) ) ;
#63 = DIRECTION ( 'NONE',  ( 0.000000000000000000, 0.000000000000000000, 1.000000000000000000 ) ) ;
#64 = EDGE_CURVE ( 'NONE', #145, #84, #133, .T. ) ;
#65 = ORIENTED_EDGE ( 'NONE', *, *, #251, .F. ) ;
#66 = MANIFOLD_SOLID_BREP ( 'Odebrat vysunutím3', #339 ) ;
#67 = DIRECTION ( 'NONE',  ( 1.000000000000000000, 0.000000000000000000, 0.000000000000000000 ) ) ;
#68 = ORIENTED_EDGE ( 'NONE', *, *, #29, .F. ) ;
#69 = DIRECTION ( 'NONE',  ( 0.000000000000000000, 0.000000000000000000, 1.000000000000000000 ) ) ;
#70 = CC_DESIGN_PERSON_AND_ORGANIZATION_ASSIGNMENT ( #107, #346, ( #75 ) ) ;
#71 = CARTESIAN_POINT ( 'NONE',  ( 0.000000000000000000, 0.000000000000000000, 7.000000000000000000 ) ) ;
#72 = DIRECTION ( 'NONE',  ( 0.000000000000000000, 0.000000000000000000, -1.000000000000000000 ) ) ;
#73 = LINE ( 'NONE', #48, #248 ) ;
#74 = ADVANCED_FACE ( 'NONE', ( #126, #141 ), #261, .T. ) ;
#75 = PRODUCT_DEFINITION_FORMATION_WITH_SPECIFIED_SOURCE ( 'LIBOVOLNÝ', '', #123, .NOT_KNOWN. ) ;
#76 = CARTESIAN_POINT ( 'NONE',  ( -6.700000000000001066, 8.205133554287267548E-16, 7.699999999999985079 ) ) ;
#77 = COORDINATED_UNIVERSAL_TIME_OFFSET ( 1, 0, .AHEAD. ) ;
#78 = CARTESIAN_POINT ( 'NONE',  ( 0.000000000000000000, 0.000000000000000000, 0.000000000000000000 ) ) ;
#79 = LINE ( 'NONE', #196, #94 ) ;
#80 = EDGE_CURVE ( 'NONE', #277, #243, #247, .T. ) ;
#81 = AXIS2_PLACEMENT_3D ( 'NONE', #278, #12, #13 ) ;
#82 = VERTEX_POINT ( 'NONE', #190 ) ;
#83 = DIRECTION ( 'NONE',  ( 0.000000000000000000, 0.000000000000000000, -1.000000000000000000 ) ) ;
#84 = VERTEX_POINT ( 'NONE', #320 ) ;
#85 = ORIENTED_EDGE ( 'NONE', *, *, #33, .T. ) ;
#86 = DIRECTION ( 'NONE',  ( -0.000000000000000000, -0.000000000000000000, -1.000000000000000000 ) ) ;
#87 = PRODUCT_RELATED_PRODUCT_CATEGORY ( 'detail', '', ( #123 ) ) ;
#88 = AXIS2_PLACEMENT_3D ( 'NONE', #71, #305, #39 ) ;
#89 = DIRECTION ( 'NONE',  ( -0.000000000000000000, -0.000000000000000000, -1.000000000000000000 ) ) ;
#90 = DATE_TIME_ROLE ( 'classification_date' ) ;
#91 = PLANE ( 'NONE',  #329 ) ;
#92 = VECTOR ( 'NONE', #207, 1000.000000000000000 ) ;
#93 = ORGANIZATION ( 'NEURÈENÝ', 'NEURÈENÝ', '' ) ;
#94 = VECTOR ( 'NONE', #53, 1000.000000000000000 ) ;
#95 = CARTESIAN_POINT ( 'NONE',  ( 0.000000000000000000, 0.000000000000000000, 507.0000000000000000 ) ) ;
#96 = EDGE_CURVE ( 'NONE', #56, #82, #51, .T. ) ;
#97 = DIRECTION ( 'NONE',  ( -0.000000000000000000, -0.000000000000000000, -1.000000000000000000 ) ) ;
#98 = DIRECTION ( 'NONE',  ( 1.000000000000000000, 0.000000000000000000, 0.000000000000000000 ) ) ;
#99 = LOCAL_TIME ( 16, 37, 33.00000000000000000, #260 ) ;
#100 = ORIENTED_EDGE ( 'NONE', *, *, #80, .T. ) ;
#101 = CARTESIAN_POINT ( 'NONE',  ( 10.00000000000000000, 1.224646799147353256E-15, 0.000000000000000000 ) ) ;
#102 = LINE ( 'NONE', #283, #25 ) ;
#103 = CIRCLE ( 'NONE', #287, 4.000000000000000000 ) ;
#104 = AXIS2_PLACEMENT_3D ( 'NONE', #226, #86, #201 ) ;
#105 = DATE_TIME_ROLE ( 'creation_date' ) ;
#106 = DIRECTION ( 'NONE',  ( 1.000000000000000000, 0.000000000000000000, 0.000000000000000000 ) ) ;
#107 = PERSON_AND_ORGANIZATION ( #148, #93 ) ;
#108 = VERTEX_POINT ( 'NONE', #350 ) ;
#109 = CC_DESIGN_PERSON_AND_ORGANIZATION_ASSIGNMENT ( #138, #175, ( #75 ) ) ;
#110 = PERSON_AND_ORGANIZATION ( #148, #93 ) ;
#111 = ORIENTED_EDGE ( 'NONE', *, *, #122, .F. ) ;
#112 = DATE_AND_TIME ( #372, #99 ) ;
#113 = EDGE_CURVE ( 'NONE', #256, #82, #255, .T. ) ;
#114 = APPROVAL_DATE_TIME ( #6, #47 ) ;
#115 = DIRECTION ( 'NONE',  ( 0.000000000000000000, 0.000000000000000000, -1.000000000000000000 ) ) ;
#116 = PRODUCT_DEFINITION_SHAPE ( 'NONE', 'NONE',  #120 ) ;
#117 = AXIS2_PLACEMENT_3D ( 'NONE', #144, #219, #286 ) ;
#118 =( GEOMETRIC_REPRESENTATION_CONTEXT ( 3 ) GLOBAL_UNCERTAINTY_ASSIGNED_CONTEXT ( ( #57 ) ) GLOBAL_UNIT_ASSIGNED_CONTEXT ( ( #155, #22, #378 ) ) REPRESENTATION_CONTEXT ( 'NONE', 'WORKASPACE' ) );
#119 = CALENDAR_DATE ( 2022, 8, 7 ) ;
#120 = PRODUCT_DEFINITION ( 'NEZNÁMÝ', '', #75, #296 ) ;
#121 = FACE_OUTER_BOUND ( 'NONE', #294, .T. ) ;
#122 = EDGE_CURVE ( 'NONE', #84, #327, #79, .T. ) ;
#123 = PRODUCT ( '8fa6', '8fa6', '', ( #49 ) ) ;
#124 = DIRECTION ( 'NONE',  ( -0.000000000000000000, -0.000000000000000000, -1.000000000000000000 ) ) ;
#125 = CARTESIAN_POINT ( 'NONE',  ( -6.000000000000000888, 0.000000000000000000, 507.0000000000000000 ) ) ;
#126 = FACE_BOUND ( 'NONE', #332, .T. ) ;
#127 = ORIENTED_EDGE ( 'NONE', *, *, #29, .T. ) ;
#128 = DIRECTION ( 'NONE',  ( -1.000000000000000000, 0.000000000000000000, 0.000000000000000000 ) ) ;
#129 = FACE_OUTER_BOUND ( 'NONE', #168, .T. ) ;
#130 = EDGE_CURVE ( 'NONE', #327, #282, #324, .T. ) ;
#131 = EDGE_LOOP ( 'NONE', ( #146, #331, #143, #19 ) ) ;
#132 = APPROVAL_DATE_TIME ( #284, #174 ) ;
#133 = CIRCLE ( 'NONE', #208, 6.000000000000000888 ) ;
#134 = APPROVAL_STATUS ( 'not_yet_approved' ) ;
#135 = CC_DESIGN_PERSON_AND_ORGANIZATION_ASSIGNMENT ( #271, #8, ( #193 ) ) ;
#136 = ORIENTED_EDGE ( 'NONE', *, *, #276, .T. ) ;
#137 = DIRECTION ( 'NONE',  ( 1.000000000000000000, 0.000000000000000000, 0.000000000000000000 ) ) ;
#138 = PERSON_AND_ORGANIZATION ( #148, #93 ) ;
#139 = PERSON_AND_ORGANIZATION ( #148, #93 ) ;
#140 = ADVANCED_FACE ( 'NONE', ( #293 ), #198, .T. ) ;
#141 = FACE_OUTER_BOUND ( 'NONE', #362, .T. ) ;
#142 = ORIENTED_EDGE ( 'NONE', *, *, #321, .F. ) ;
#143 = ORIENTED_EDGE ( 'NONE', *, *, #245, .T. ) ;
#144 = CARTESIAN_POINT ( 'NONE',  ( 0.000000000000000000, 0.000000000000000000, 507.0000000000000000 ) ) ;
#145 = VERTEX_POINT ( 'NONE', #379 ) ;
#146 = ORIENTED_EDGE ( 'NONE', *, *, #113, .F. ) ;
#147 = FACE_BOUND ( 'NONE', #308, .T. ) ;
#148 = PERSON ( 'NEURÈENÝ', 'NEURÈENÝ', 'NEURÈENÝ', ('NEURÈENÝ'), ('NEURÈENÝ'), ('NEURÈENÝ') ) ;
#149 = APPROVAL_PERSON_ORGANIZATION ( #110, #182, #218 ) ;
#150 = CYLINDRICAL_SURFACE ( 'NONE', #203, 10.00000000000000000 ) ;
#151 = PERSON_AND_ORGANIZATION ( #148, #93 ) ;
#152 = FACE_OUTER_BOUND ( 'NONE', #279, .T. ) ;
#153 = AXIS2_PLACEMENT_3D ( 'NONE', #272, #115, #62 ) ;
#154 = CIRCLE ( 'NONE', #18, 6.700000000000001066 ) ;
#155 =( LENGTH_UNIT ( ) NAMED_UNIT ( * ) SI_UNIT ( .MILLI., .METRE. ) );
#156 = CARTESIAN_POINT ( 'NONE',  ( 0.000000000000000000, 0.000000000000000000, 7.699999999999985079 ) ) ;
#157 = CYLINDRICAL_SURFACE ( 'NONE', #81, 10.00000000000000000 ) ;
#158 = DIRECTION ( 'NONE',  ( 1.000000000000000000, 0.000000000000000000, 0.000000000000000000 ) ) ;
#159 = ORIENTED_EDGE ( 'NONE', *, *, #345, .T. ) ;
#160 = DIRECTION ( 'NONE',  ( 0.000000000000000000, 0.000000000000000000, 1.000000000000000000 ) ) ;
#161 = EDGE_LOOP ( 'NONE', ( #111, #222, #202, #309 ) ) ;
#162 = PERSON_AND_ORGANIZATION_ROLE ( 'design_owner' ) ;
#163 = EDGE_CURVE ( 'NONE', #282, #240, #269, .T. ) ;
#164 = LOCAL_TIME ( 16, 37, 33.00000000000000000, #289 ) ;
#165 = APPLICATION_PROTOCOL_DEFINITION ( 'international standard', 'config_control_design', 1994, #242 ) ;
#166 = EDGE_LOOP ( 'NONE', ( #42, #211, #100, #58 ) ) ;
#167 = DIRECTION ( 'NONE',  ( -0.000000000000000000, -0.000000000000000000, -1.000000000000000000 ) ) ;
#168 = EDGE_LOOP ( 'NONE', ( #192, #15, #371, #373 ) ) ;
#169 = DIRECTION ( 'NONE',  ( -0.000000000000000000, -0.000000000000000000, -1.000000000000000000 ) ) ;
#170 = CYLINDRICAL_SURFACE ( 'NONE', #153, 4.000000000000000000 ) ;
#171 = FACE_OUTER_BOUND ( 'NONE', #166, .T. ) ;
#172 = CALENDAR_DATE ( 2022, 8, 7 ) ;
#173 = DIRECTION ( 'NONE',  ( 0.000000000000000000, 0.000000000000000000, 1.000000000000000000 ) ) ;
#174 = APPROVAL ( #134, 'NEURÈENÝ' ) ;
#175 = PERSON_AND_ORGANIZATION_ROLE ( 'design_supplier' ) ;
#176 = AXIS2_PLACEMENT_3D ( 'NONE', #52, #167, #377 ) ;
#177 = DIRECTION ( 'NONE',  ( 1.000000000000000000, 0.000000000000000000, 0.000000000000000000 ) ) ;
#178 = EDGE_CURVE ( 'NONE', #82, #56, #11, .T. ) ;
#179 = AXIS2_PLACEMENT_3D ( 'NONE', #270, #330, #177 ) ;
#180 = ORIENTED_EDGE ( 'NONE', *, *, #251, .T. ) ;
#181 = DIRECTION ( 'NONE',  ( 0.000000000000000000, 0.000000000000000000, 1.000000000000000000 ) ) ;
#182 = APPROVAL ( #225, 'NEURÈENÝ' ) ;
#183 = LINE ( 'NONE', #125, #223 ) ;
#184 = APPROVAL_PERSON_ORGANIZATION ( #139, #174, #200 ) ;
#185 = ORIENTED_EDGE ( 'NONE', *, *, #178, .F. ) ;
#186 = CARTESIAN_POINT ( 'NONE',  ( 0.000000000000000000, 0.000000000000000000, 7.699999999999985079 ) ) ;
#187 = VERTEX_POINT ( 'NONE', #189 ) ;
#188 = EDGE_CURVE ( 'NONE', #217, #277, #317, .T. ) ;
#189 = CARTESIAN_POINT ( 'NONE',  ( -4.000000000000000000, 0.000000000000000000, 507.0000000000000000 ) ) ;
#190 = CARTESIAN_POINT ( 'NONE',  ( 4.000000000000000000, 4.898587196589412829E-16, 0.000000000000000000 ) ) ;
#191 = CIRCLE ( 'NONE', #253, 10.00000000000000000 ) ;
#192 = ORIENTED_EDGE ( 'NONE', *, *, #345, .F. ) ;
#193 = SECURITY_CLASSIFICATION ( '', '', #59 ) ;
#194 = CALENDAR_DATE ( 2022, 8, 7 ) ;
#195 = CIRCLE ( 'NONE', #17, 6.000000000000000888 ) ;
#196 = CARTESIAN_POINT ( 'NONE',  ( 6.000000000000000888, 7.347880794884120722E-16, 507.0000000000000000 ) ) ;
#197 = ORIENTED_EDGE ( 'NONE', *, *, #380, .T. ) ;
#198 = CYLINDRICAL_SURFACE ( 'NONE', #353, 6.000000000000000888 ) ;
#199 = ORIENTED_EDGE ( 'NONE', *, *, #178, .T. ) ;
#200 = APPROVAL_ROLE ( '' ) ;
#201 = DIRECTION ( 'NONE',  ( 1.000000000000000000, 0.000000000000000000, 0.000000000000000000 ) ) ;
#202 = ORIENTED_EDGE ( 'NONE', *, *, #300, .T. ) ;
#203 = AXIS2_PLACEMENT_3D ( 'NONE', #236, #89, #229 ) ;
#204 = CIRCLE ( 'NONE', #335, 0.7000000000000000666 ) ;
#205 = ADVANCED_FACE ( 'NONE', ( #152 ), #358, .F. ) ;
#206 = DIRECTION ( 'NONE',  ( 1.000000000000000000, 0.000000000000000000, 0.000000000000000000 ) ) ;
#207 = DIRECTION ( 'NONE',  ( -0.000000000000000000, -0.000000000000000000, -1.000000000000000000 ) ) ;
#208 = AXIS2_PLACEMENT_3D ( 'NONE', #307, #311, #158 ) ;
#209 = EDGE_CURVE ( 'NONE', #240, #282, #154, .T. ) ;
#210 = DIRECTION ( 'NONE',  ( 0.000000000000000000, 0.000000000000000000, 1.000000000000000000 ) ) ;
#211 = ORIENTED_EDGE ( 'NONE', *, *, #188, .T. ) ;
#212 = CIRCLE ( 'NONE', #31, 6.000000000000000888 ) ;
#213 = CARTESIAN_POINT ( 'NONE',  ( 4.000000000000000000, 4.898587196589412829E-16, 507.0000000000000000 ) ) ;
#214 = DIRECTION ( 'NONE',  ( 0.000000000000000000, 0.000000000000000000, 1.000000000000000000 ) ) ;
#215 = CARTESIAN_POINT ( 'NONE',  ( 6.700000000000001066, 0.000000000000000000, 6.999999999999992006 ) ) ;
#216 = DIRECTION ( 'NONE',  ( 0.000000000000000000, 0.000000000000000000, 1.000000000000000000 ) ) ;
#217 = VERTEX_POINT ( 'NONE', #9 ) ;
#218 = APPROVAL_ROLE ( '' ) ;
#219 = DIRECTION ( 'NONE',  ( 0.000000000000000000, 0.000000000000000000, 1.000000000000000000 ) ) ;
#220 = APPLICATION_CONTEXT ( 'configuration controlled 3d designs of mechanical parts and assemblies' ) ;
#221 = CARTESIAN_POINT ( 'NONE',  ( 0.000000000000000000, 0.000000000000000000, 0.000000000000000000 ) ) ;
#222 = ORIENTED_EDGE ( 'NONE', *, *, #64, .F. ) ;
#223 = VECTOR ( 'NONE', #97, 1000.000000000000000 ) ;
#224 = ADVANCED_FACE ( 'NONE', ( #147, #274 ), #266, .T. ) ;
#225 = APPROVAL_STATUS ( 'not_yet_approved' ) ;
#226 = CARTESIAN_POINT ( 'NONE',  ( 0.000000000000000000, 0.000000000000000000, 7.000000000000000000 ) ) ;
#227 = ORIENTED_EDGE ( 'NONE', *, *, #113, .T. ) ;
#228 = ADVANCED_FACE ( 'NONE', ( #336, #121 ), #91, .F. ) ;
#229 = DIRECTION ( 'NONE',  ( -1.000000000000000000, 0.000000000000000000, 0.000000000000000000 ) ) ;
#230 = COORDINATED_UNIVERSAL_TIME_OFFSET ( 1, 0, .AHEAD. ) ;
#231 = CIRCLE ( 'NONE', #88, 10.00000000000000000 ) ;
#232 = AXIS2_PLACEMENT_3D ( 'NONE', #186, #244, #275 ) ;
#233 = CIRCLE ( 'NONE', #365, 10.00000000000000000 ) ;
#234 = ADVANCED_BREP_SHAPE_REPRESENTATION ( '8fa6', ( #66, #322 ), #118 ) ;
#235 = DIRECTION ( 'NONE',  ( -0.000000000000000000, -0.000000000000000000, -1.000000000000000000 ) ) ;
#236 = CARTESIAN_POINT ( 'NONE',  ( 0.000000000000000000, 0.000000000000000000, 7.000000000000000000 ) ) ;
#237 = ORIENTED_EDGE ( 'NONE', *, *, #163, .T. ) ;
#238 = CARTESIAN_POINT ( 'NONE',  ( 0.000000000000000000, 0.000000000000000000, 0.000000000000000000 ) ) ;
#239 = AXIS2_PLACEMENT_3D ( 'NONE', #326, #297, #106 ) ;
#240 = VERTEX_POINT ( 'NONE', #16 ) ;
#241 = DIRECTION ( 'NONE',  ( -1.000000000000000000, 1.224646799147353454E-16, 0.000000000000000000 ) ) ;
#242 = APPLICATION_CONTEXT ( 'configuration controlled 3d designs of mechanical parts and assemblies' ) ;
#243 = VERTEX_POINT ( 'NONE', #342 ) ;
#244 = DIRECTION ( 'NONE',  ( 0.000000000000000000, 0.000000000000000000, 1.000000000000000000 ) ) ;
#245 = EDGE_CURVE ( 'NONE', #187, #56, #102, .T. ) ;
#246 = DIRECTION ( 'NONE',  ( 1.000000000000000000, 0.000000000000000000, 0.000000000000000000 ) ) ;
#247 = CIRCLE ( 'NONE', #4, 10.00000000000000000 ) ;
#248 = VECTOR ( 'NONE', #124, 1000.000000000000000 ) ;
#249 = ORIENTED_EDGE ( 'NONE', *, *, #96, .F. ) ;
#250 = CARTESIAN_POINT ( 'NONE',  ( 6.000000000000000888, 7.347880794884120722E-16, 7.699999999999985079 ) ) ;
#251 = EDGE_CURVE ( 'NONE', #243, #277, #233, .T. ) ;
#252 = PERSON_AND_ORGANIZATION_ROLE ( 'creator' ) ;
#253 = AXIS2_PLACEMENT_3D ( 'NONE', #361, #214, #370 ) ;
#254 = PERSON_AND_ORGANIZATION ( #148, #93 ) ;
#255 = LINE ( 'NONE', #263, #281 ) ;
#256 = VERTEX_POINT ( 'NONE', #213 ) ;
#257 = CC_DESIGN_PERSON_AND_ORGANIZATION_ASSIGNMENT ( #285, #162, ( #123 ) ) ;
#258 = DIRECTION ( 'NONE',  ( 0.000000000000000000, 0.000000000000000000, 1.000000000000000000 ) ) ;
#259 = CIRCLE ( 'NONE', #343, 4.000000000000000000 ) ;
#260 = COORDINATED_UNIVERSAL_TIME_OFFSET ( 1, 0, .AHEAD. ) ;
#261 = PLANE ( 'NONE',  #117 ) ;
#262 = ORIENTED_EDGE ( 'NONE', *, *, #122, .T. ) ;
#263 = CARTESIAN_POINT ( 'NONE',  ( 4.000000000000000000, 4.898587196589412829E-16, 507.0000000000000000 ) ) ;
#264 = ADVANCED_FACE ( 'NONE', ( #306 ), #157, .T. ) ;
#265 = ORIENTED_EDGE ( 'NONE', *, *, #354, .F. ) ;
#266 = PLANE ( 'NONE',  #288 ) ;
#267 = AXIS2_PLACEMENT_3D ( 'NONE', #34, #235, #23 ) ;
#268 = CC_DESIGN_APPROVAL ( #174, ( #120 ) ) ;
#269 = CIRCLE ( 'NONE', #104, 6.700000000000001066 ) ;
#270 = CARTESIAN_POINT ( 'NONE',  ( 0.000000000000000000, 0.000000000000000000, 7.699999999999985079 ) ) ;
#271 = PERSON_AND_ORGANIZATION ( #148, #93 ) ;
#272 = CARTESIAN_POINT ( 'NONE',  ( 0.000000000000000000, 0.000000000000000000, 507.0000000000000000 ) ) ;
#273 = APPROVAL_STATUS ( 'not_yet_approved' ) ;
#274 = FACE_OUTER_BOUND ( 'NONE', #28, .T. ) ;
#275 = DIRECTION ( 'NONE',  ( 1.000000000000000000, 0.000000000000000000, 0.000000000000000000 ) ) ;
#276 = EDGE_CURVE ( 'NONE', #375, #243, #73, .T. ) ;
#277 = VERTEX_POINT ( 'NONE', #101 ) ;
#278 = CARTESIAN_POINT ( 'NONE',  ( 0.000000000000000000, 0.000000000000000000, 7.000000000000000000 ) ) ;
#279 = EDGE_LOOP ( 'NONE', ( #292, #159, #351, #355 ) ) ;
#280 = CYLINDRICAL_SURFACE ( 'NONE', #24, 4.000000000000000000 ) ;
#281 = VECTOR ( 'NONE', #27, 1000.000000000000000 ) ;
#282 = VERTEX_POINT ( 'NONE', #215 ) ;
#283 = CARTESIAN_POINT ( 'NONE',  ( -4.000000000000000000, 0.000000000000000000, 507.0000000000000000 ) ) ;
#284 = DATE_AND_TIME ( #26, #164 ) ;
#285 = PERSON_AND_ORGANIZATION ( #148, #93 ) ;
#286 = DIRECTION ( 'NONE',  ( 1.000000000000000000, 0.000000000000000000, -0.000000000000000000 ) ) ;
#287 = AXIS2_PLACEMENT_3D ( 'NONE', #95, #210, #338 ) ;
#288 = AXIS2_PLACEMENT_3D ( 'NONE', #299, #173, #35 ) ;
#289 = COORDINATED_UNIVERSAL_TIME_OFFSET ( 1, 0, .AHEAD. ) ;
#290 = CC_DESIGN_DATE_AND_TIME_ASSIGNMENT ( #112, #105, ( #120 ) ) ;
#291 = CARTESIAN_POINT ( 'NONE',  ( 6.700000000000001066, 0.000000000000000000, 7.699999999999985079 ) ) ;
#292 = ORIENTED_EDGE ( 'NONE', *, *, #304, .F. ) ;
#293 = FACE_OUTER_BOUND ( 'NONE', #32, .T. ) ;
#294 = EDGE_LOOP ( 'NONE', ( #65, #40 ) ) ;
#295 = ORIENTED_EDGE ( 'NONE', *, *, #300, .F. ) ;
#296 = DESIGN_CONTEXT ( 'detailed design', #242, 'design' ) ;
#297 = DIRECTION ( 'NONE',  ( -0.000000000000000000, -0.000000000000000000, -1.000000000000000000 ) ) ;
#298 = CYLINDRICAL_SURFACE ( 'NONE', #267, 6.000000000000000888 ) ;
#299 = CARTESIAN_POINT ( 'NONE',  ( 0.000000000000000000, 0.000000000000000000, 7.000000000000000000 ) ) ;
#300 = EDGE_CURVE ( 'NONE', #145, #108, #183, .T. ) ;
#301 = ORIENTED_EDGE ( 'NONE', *, *, #64, .T. ) ;
#302 = AXIS2_PLACEMENT_3D ( 'NONE', #156, #366, #98 ) ;
#303 = CC_DESIGN_APPROVAL ( #47, ( #193 ) ) ;
#304 = EDGE_CURVE ( 'NONE', #108, #327, #195, .T. ) ;
#305 = DIRECTION ( 'NONE',  ( 0.000000000000000000, 0.000000000000000000, 1.000000000000000000 ) ) ;
#306 = FACE_OUTER_BOUND ( 'NONE', #316, .T. ) ;
#307 = CARTESIAN_POINT ( 'NONE',  ( 0.000000000000000000, 0.000000000000000000, 507.0000000000000000 ) ) ;
#308 = EDGE_LOOP ( 'NONE', ( #237, #318 ) ) ;
#309 = ORIENTED_EDGE ( 'NONE', *, *, #304, .T. ) ;
#310 = CARTESIAN_POINT ( 'NONE',  ( 0.000000000000000000, 0.000000000000000000, 507.0000000000000000 ) ) ;
#311 = DIRECTION ( 'NONE',  ( 0.000000000000000000, 0.000000000000000000, 1.000000000000000000 ) ) ;
#312 = TOROIDAL_SURFACE ( 'NONE', #232, 6.700000000000001066, 0.6999999999999999556 ) ;
#313 = ADVANCED_FACE ( 'NONE', ( #340 ), #280, .F. ) ;
#314 = ORIENTED_EDGE ( 'NONE', *, *, #188, .F. ) ;
#315 = DIRECTION ( 'NONE',  ( 1.224646799147353207E-16, 1.000000000000000000, -0.000000000000000000 ) ) ;
#316 = EDGE_LOOP ( 'NONE', ( #314, #68, #136, #180 ) ) ;
#317 = LINE ( 'NONE', #50, #92 ) ;
#318 = ORIENTED_EDGE ( 'NONE', *, *, #209, .T. ) ;
#319 = APPLICATION_PROTOCOL_DEFINITION ( 'international standard', 'config_control_design', 1994, #220 ) ;
#320 = CARTESIAN_POINT ( 'NONE',  ( 6.000000000000000888, 7.347880794884120722E-16, 507.0000000000000000 ) ) ;
#321 = EDGE_CURVE ( 'NONE', #256, #187, #259, .T. ) ;
#322 = AXIS2_PLACEMENT_3D ( 'NONE', #78, #376, #325 ) ;
#323 = APPROVAL_DATE_TIME ( #374, #182 ) ;
#324 = CIRCLE ( 'NONE', #21, 0.7000000000000000666 ) ;
#325 = DIRECTION ( 'NONE',  ( 1.000000000000000000, 0.000000000000000000, 0.000000000000000000 ) ) ;
#326 = CARTESIAN_POINT ( 'NONE',  ( 0.000000000000000000, 0.000000000000000000, 0.000000000000000000 ) ) ;
#327 = VERTEX_POINT ( 'NONE', #250 ) ;
#328 = CC_DESIGN_SECURITY_CLASSIFICATION ( #193, ( #75 ) ) ;
#329 = AXIS2_PLACEMENT_3D ( 'NONE', #238, #63, #359 ) ;
#330 = DIRECTION ( 'NONE',  ( 0.000000000000000000, 0.000000000000000000, 1.000000000000000000 ) ) ;
#331 = ORIENTED_EDGE ( 'NONE', *, *, #321, .T. ) ;
#332 = EDGE_LOOP ( 'NONE', ( #2, #142 ) ) ;
#333 = DATE_AND_TIME ( #119, #46 ) ;
#334 = ADVANCED_FACE ( 'NONE', ( #129 ), #312, .F. ) ;
#335 = AXIS2_PLACEMENT_3D ( 'NONE', #76, #315, #241 ) ;
#336 = FACE_BOUND ( 'NONE', #367, .T. ) ;
#337 = ORIENTED_EDGE ( 'NONE', *, *, #54, .T. ) ;
#338 = DIRECTION ( 'NONE',  ( 1.000000000000000000, 0.000000000000000000, 0.000000000000000000 ) ) ;
#339 = CLOSED_SHELL ( 'NONE', ( #5, #205, #140, #10, #264, #224, #228, #14, #74, #334, #313 ) ) ;
#340 = FACE_OUTER_BOUND ( 'NONE', #131, .T. ) ;
#341 = APPROVAL_PERSON_ORGANIZATION ( #151, #47, #60 ) ;
#342 = CARTESIAN_POINT ( 'NONE',  ( -10.00000000000000000, 0.000000000000000000, 0.000000000000000000 ) ) ;
#343 = AXIS2_PLACEMENT_3D ( 'NONE', #45, #160, #67 ) ;
#344 = ORIENTED_EDGE ( 'NONE', *, *, #354, .T. ) ;
#345 = EDGE_CURVE ( 'NONE', #108, #240, #204, .T. ) ;
#346 = PERSON_AND_ORGANIZATION_ROLE ( 'creator' ) ;
#347 = CIRCLE ( 'NONE', #302, 6.000000000000000888 ) ;
#348 = DIRECTION ( 'NONE',  ( 0.000000000000000000, -1.000000000000000000, 0.000000000000000000 ) ) ;
#349 = CC_DESIGN_PERSON_AND_ORGANIZATION_ASSIGNMENT ( #254, #252, ( #120 ) ) ;
#350 = CARTESIAN_POINT ( 'NONE',  ( -6.000000000000000888, 0.000000000000000000, 7.699999999999985079 ) ) ;
#351 = ORIENTED_EDGE ( 'NONE', *, *, #163, .F. ) ;
#352 = EDGE_LOOP ( 'NONE', ( #197, #227, #199, #381 ) ) ;
#353 = AXIS2_PLACEMENT_3D ( 'NONE', #55, #169, #30 ) ;
#354 = EDGE_CURVE ( 'NONE', #84, #145, #212, .T. ) ;
#355 = ORIENTED_EDGE ( 'NONE', *, *, #130, .F. ) ;
#356 = FACE_OUTER_BOUND ( 'NONE', #161, .T. ) ;
#357 = SHAPE_DEFINITION_REPRESENTATION ( #116, #234 ) ;
#358 = TOROIDAL_SURFACE ( 'NONE', #179, 6.700000000000001066, 0.6999999999999999556 ) ;
#359 = DIRECTION ( 'NONE',  ( 1.000000000000000000, 0.000000000000000000, -0.000000000000000000 ) ) ;
#360 = DIRECTION ( 'NONE',  ( 1.000000000000000000, 0.000000000000000000, 0.000000000000000000 ) ) ;
#361 = CARTESIAN_POINT ( 'NONE',  ( 0.000000000000000000, 0.000000000000000000, 7.000000000000000000 ) ) ;
#362 = EDGE_LOOP ( 'NONE', ( #301, #344 ) ) ;
#363 = CARTESIAN_POINT ( 'NONE',  ( 0.000000000000000000, 0.000000000000000000, 507.0000000000000000 ) ) ;
#364 = CC_DESIGN_APPROVAL ( #182, ( #75 ) ) ;
#365 = AXIS2_PLACEMENT_3D ( 'NONE', #38, #216, #41 ) ;
#366 = DIRECTION ( 'NONE',  ( 0.000000000000000000, 0.000000000000000000, 1.000000000000000000 ) ) ;
#367 = EDGE_LOOP ( 'NONE', ( #249, #185 ) ) ;
#368 = DIRECTION ( 'NONE',  ( 0.000000000000000000, 0.000000000000000000, -1.000000000000000000 ) ) ;
#369 = CC_DESIGN_DATE_AND_TIME_ASSIGNMENT ( #333, #90, ( #193 ) ) ;
#370 = DIRECTION ( 'NONE',  ( 1.000000000000000000, 0.000000000000000000, 0.000000000000000000 ) ) ;
#371 = ORIENTED_EDGE ( 'NONE', *, *, #130, .T. ) ;
#372 = CALENDAR_DATE ( 2022, 8, 7 ) ;
#373 = ORIENTED_EDGE ( 'NONE', *, *, #209, .F. ) ;
#374 = DATE_AND_TIME ( #194, #37 ) ;
#375 = VERTEX_POINT ( 'NONE', #43 ) ;
#376 = DIRECTION ( 'NONE',  ( 0.000000000000000000, 0.000000000000000000, 1.000000000000000000 ) ) ;
#377 = DIRECTION ( 'NONE',  ( 1.000000000000000000, 0.000000000000000000, 0.000000000000000000 ) ) ;
#378 =( NAMED_UNIT ( * ) SI_UNIT ( $, .STERADIAN. ) SOLID_ANGLE_UNIT ( ) );
#379 = CARTESIAN_POINT ( 'NONE',  ( -6.000000000000000888, 0.000000000000000000, 507.0000000000000000 ) ) ;
#380 = EDGE_CURVE ( 'NONE', #187, #256, #103, .T. ) ;
#381 = ORIENTED_EDGE ( 'NONE', *, *, #245, .F. ) ;
ENDSEC;
END-ISO-10303-21;
