ISO-10303-21;
HEADER;
FILE_DESCRIPTION (( 'STEP AP203' ),
    '1' );
FILE_NAME ('1ad4.STEP',
    '2022-07-08T15:08:38',
    ( '' ),
    ( '' ),
    'SwSTEP 2.0',
    'SolidWorks 2019',
    '' );
FILE_SCHEMA (( 'CONFIG_CONTROL_DESIGN' ));
ENDSEC;

DATA;
#1 = EDGE_CURVE ( 'NONE', #80, #38, #162, .T. ) ;
#2 = CARTESIAN_POINT ( 'NONE',  ( -7.000000000000000000, 0.000000000000000000, 5.000000000000000000 ) ) ;
#3 = APPLICATION_PROTOCOL_DEFINITION ( 'international standard', 'config_control_design', 1994, #370 ) ;
#4 = PERSON_AND_ORGANIZATION_ROLE ( 'design_owner' ) ;
#5 = EDGE_CURVE ( 'NONE', #193, #30, #190, .T. ) ;
#6 = EDGE_LOOP ( 'NONE', ( #234, #368 ) ) ;
#7 = APPROVAL_DATE_TIME ( #272, #28 ) ;
#8 = FACE_OUTER_BOUND ( 'NONE', #143, .T. ) ;
#9 = CARTESIAN_POINT ( 'NONE',  ( -4.500000000000000888, 5.510910596163089556E-16, 5.500000000000005329 ) ) ;
#10 = LOCAL_TIME ( 17, 8, 38.00000000000000000, #350 ) ;
#11 = DATE_AND_TIME ( #178, #362 ) ;
#12 = ADVANCED_FACE ( 'NONE', ( #232, #347 ), #82, .T. ) ;
#13 = DIRECTION ( 'NONE',  ( 0.000000000000000000, 0.000000000000000000, 1.000000000000000000 ) ) ;
#14 = CC_DESIGN_PERSON_AND_ORGANIZATION_ASSIGNMENT ( #298, #57, ( #227 ) ) ;
#15 = PLANE ( 'NONE',  #98 ) ;
#16 = DIRECTION ( 'NONE',  ( -1.000000000000000000, 0.000000000000000000, 0.000000000000000000 ) ) ;
#17 = ADVANCED_FACE ( 'NONE', ( #359 ), #91, .F. ) ;
#18 = CARTESIAN_POINT ( 'NONE',  ( 0.000000000000000000, 0.000000000000000000, 280.0000000000000000 ) ) ;
#19 = FACE_OUTER_BOUND ( 'NONE', #305, .T. ) ;
#20 = ORIENTED_EDGE ( 'NONE', *, *, #342, .T. ) ;
#21 = VECTOR ( 'NONE', #93, 1000.000000000000000 ) ;
#22 = CC_DESIGN_SECURITY_CLASSIFICATION ( #128, ( #157 ) ) ;
#23 = CYLINDRICAL_SURFACE ( 'NONE', #282, 4.000000000000000000 ) ;
#24 = ORIENTED_EDGE ( 'NONE', *, *, #69, .F. ) ;
#25 = APPROVAL_PERSON_ORGANIZATION ( #144, #28, #237 ) ;
#26 = DIRECTION ( 'NONE',  ( 0.000000000000000000, 0.000000000000000000, 1.000000000000000000 ) ) ;
#27 = EDGE_LOOP ( 'NONE', ( #161, #159 ) ) ;
#28 = APPROVAL ( #263, 'NEURÈENÝ' ) ;
#29 =( NAMED_UNIT ( * ) PLANE_ANGLE_UNIT ( ) SI_UNIT ( $, .RADIAN. ) );
#30 = VERTEX_POINT ( 'NONE', #212 ) ;
#31 = AXIS2_PLACEMENT_3D ( 'NONE', #343, #52, #134 ) ;
#32 = CARTESIAN_POINT ( 'NONE',  ( 0.000000000000000000, 0.000000000000000000, 280.0000000000000000 ) ) ;
#33 = CARTESIAN_POINT ( 'NONE',  ( 0.000000000000000000, 0.000000000000000000, 0.000000000000000000 ) ) ;
#34 = PERSON_AND_ORGANIZATION_ROLE ( 'creator' ) ;
#35 = CIRCLE ( 'NONE', #141, 4.500000000000000888 ) ;
#36 = LINE ( 'NONE', #296, #120 ) ;
#37 = FACE_OUTER_BOUND ( 'NONE', #363, .T. ) ;
#38 = VERTEX_POINT ( 'NONE', #173 ) ;
#39 = DIRECTION ( 'NONE',  ( -0.000000000000000000, -0.000000000000000000, -1.000000000000000000 ) ) ;
#40 = CIRCLE ( 'NONE', #88, 2.600000000000000089 ) ;
#41 = DIRECTION ( 'NONE',  ( -0.000000000000000000, -0.000000000000000000, -1.000000000000000000 ) ) ;
#42 = CIRCLE ( 'NONE', #330, 4.000000000000000000 ) ;
#43 = ORIENTED_EDGE ( 'NONE', *, *, #79, .F. ) ;
#44 = CC_DESIGN_DATE_AND_TIME_ASSIGNMENT ( #215, #85, ( #128 ) ) ;
#45 = SHAPE_DEFINITION_REPRESENTATION ( #271, #124 ) ;
#46 = DIRECTION ( 'NONE',  ( -1.000000000000000000, 0.000000000000000000, 0.000000000000000000 ) ) ;
#47 = CARTESIAN_POINT ( 'NONE',  ( 0.000000000000000000, 0.000000000000000000, 0.000000000000000000 ) ) ;
#48 = CARTESIAN_POINT ( 'NONE',  ( 0.000000000000000000, 0.000000000000000000, 5.500000000000005329 ) ) ;
#49 = VERTEX_POINT ( 'NONE', #171 ) ;
#50 = ORIENTED_EDGE ( 'NONE', *, *, #155, .T. ) ;
#51 = ORIENTED_EDGE ( 'NONE', *, *, #195, .F. ) ;
#52 = DIRECTION ( 'NONE',  ( 0.000000000000000000, 0.000000000000000000, 1.000000000000000000 ) ) ;
#53 = ORIENTED_EDGE ( 'NONE', *, *, #342, .F. ) ;
#54 = VECTOR ( 'NONE', #333, 1000.000000000000000 ) ;
#55 = ADVANCED_FACE ( 'NONE', ( #8 ), #270, .F. ) ;
#56 = CC_DESIGN_APPROVAL ( #62, ( #227 ) ) ;
#57 = PERSON_AND_ORGANIZATION_ROLE ( 'creator' ) ;
#58 = PERSON_AND_ORGANIZATION ( #243, #60 ) ;
#59 = AXIS2_PLACEMENT_3D ( 'NONE', #101, #322, #136 ) ;
#60 = ORGANIZATION ( 'NEURÈENÝ', 'NEURÈENÝ', '' ) ;
#61 = SECURITY_CLASSIFICATION_LEVEL ( 'unclassified' ) ;
#62 = APPROVAL ( #235, 'NEURÈENÝ' ) ;
#63 = ORIENTED_EDGE ( 'NONE', *, *, #364, .T. ) ;
#64 = CALENDAR_DATE ( 2022, 8, 7 ) ;
#65 = DIRECTION ( 'NONE',  ( -1.000000000000000000, 0.000000000000000000, 0.000000000000000000 ) ) ;
#66 = CARTESIAN_POINT ( 'NONE',  ( 0.000000000000000000, 0.000000000000000000, 280.0000000000000000 ) ) ;
#67 = CARTESIAN_POINT ( 'NONE',  ( 7.000000000000000000, 8.572527594031473190E-16, 5.000000000000000000 ) ) ;
#68 = EDGE_LOOP ( 'NONE', ( #24, #297, #131, #321 ) ) ;
#69 = EDGE_CURVE ( 'NONE', #148, #193, #36, .T. ) ;
#70 = CARTESIAN_POINT ( 'NONE',  ( 0.000000000000000000, 0.000000000000000000, 5.000000000000000000 ) ) ;
#71 = AXIS2_PLACEMENT_3D ( 'NONE', #262, #380, #313 ) ;
#72 = FACE_OUTER_BOUND ( 'NONE', #68, .T. ) ;
#73 = CARTESIAN_POINT ( 'NONE',  ( -4.000000000000000000, 0.000000000000000000, 280.0000000000000000 ) ) ;
#74 = FACE_BOUND ( 'NONE', #6, .T. ) ;
#75 = CARTESIAN_POINT ( 'NONE',  ( 0.000000000000000000, 0.000000000000000000, 5.000000000000000000 ) ) ;
#76 = CARTESIAN_POINT ( 'NONE',  ( 0.000000000000000000, 0.000000000000000000, 5.000000000000000000 ) ) ;
#77 = ORIENTED_EDGE ( 'NONE', *, *, #217, .F. ) ;
#78 = CARTESIAN_POINT ( 'NONE',  ( 0.000000000000000000, 0.000000000000000000, 5.000000000000000000 ) ) ;
#79 = EDGE_CURVE ( 'NONE', #207, #325, #332, .T. ) ;
#80 = VERTEX_POINT ( 'NONE', #323 ) ;
#81 = DIRECTION ( 'NONE',  ( 0.000000000000000000, 0.000000000000000000, 1.000000000000000000 ) ) ;
#82 = PLANE ( 'NONE',  #110 ) ;
#83 = DESIGN_CONTEXT ( 'detailed design', #370, 'design' ) ;
#84 = LOCAL_TIME ( 17, 8, 38.00000000000000000, #175 ) ;
#85 = DATE_TIME_ROLE ( 'classification_date' ) ;
#86 = ORIENTED_EDGE ( 'NONE', *, *, #301, .T. ) ;
#87 = DIRECTION ( 'NONE',  ( -1.000000000000000000, 1.224646799147351482E-16, 0.000000000000000000 ) ) ;
#88 = AXIS2_PLACEMENT_3D ( 'NONE', #66, #339, #360 ) ;
#89 = CIRCLE ( 'NONE', #153, 7.000000000000000000 ) ;
#90 = COORDINATED_UNIVERSAL_TIME_OFFSET ( 1, 0, .AHEAD. ) ;
#91 = CYLINDRICAL_SURFACE ( 'NONE', #249, 2.600000000000000089 ) ;
#92 = EDGE_CURVE ( 'NONE', #289, #49, #140, .T. ) ;
#93 = DIRECTION ( 'NONE',  ( -0.000000000000000000, -0.000000000000000000, -1.000000000000000000 ) ) ;
#94 = LINE ( 'NONE', #147, #21 ) ;
#95 = ORIENTED_EDGE ( 'NONE', *, *, #5, .T. ) ;
#96 = DIRECTION ( 'NONE',  ( 0.000000000000000000, 0.000000000000000000, -1.000000000000000000 ) ) ;
#97 = DIRECTION ( 'NONE',  ( 0.000000000000000000, 0.000000000000000000, 1.000000000000000000 ) ) ;
#98 = AXIS2_PLACEMENT_3D ( 'NONE', #70, #181, #284 ) ;
#99 = CARTESIAN_POINT ( 'NONE',  ( -2.600000000000000089, 0.000000000000000000, 280.0000000000000000 ) ) ;
#100 = ORIENTED_EDGE ( 'NONE', *, *, #355, .F. ) ;
#101 = CARTESIAN_POINT ( 'NONE',  ( 0.000000000000000000, 0.000000000000000000, 280.0000000000000000 ) ) ;
#102 = ORIENTED_EDGE ( 'NONE', *, *, #155, .F. ) ;
#103 = CARTESIAN_POINT ( 'NONE',  ( 0.000000000000000000, 0.000000000000000000, 280.0000000000000000 ) ) ;
#104 = AXIS2_PLACEMENT_3D ( 'NONE', #149, #13, #283 ) ;
#105 = AXIS2_PLACEMENT_3D ( 'NONE', #76, #317, #378 ) ;
#106 = ADVANCED_FACE ( 'NONE', ( #37 ), #367, .T. ) ;
#107 = EDGE_LOOP ( 'NONE', ( #77, #239, #273, #259 ) ) ;
#108 = CARTESIAN_POINT ( 'NONE',  ( 0.000000000000000000, 0.000000000000000000, 5.500000000000005329 ) ) ;
#109 = DIRECTION ( 'NONE',  ( 1.224646799147353207E-16, 1.000000000000000000, -0.000000000000000000 ) ) ;
#110 = AXIS2_PLACEMENT_3D ( 'NONE', #204, #137, #264 ) ;
#111 = AXIS2_PLACEMENT_3D ( 'NONE', #9, #109, #87 ) ;
#112 = EDGE_LOOP ( 'NONE', ( #202, #197, #220, #200 ) ) ;
#113 = DATE_AND_TIME ( #64, #84 ) ;
#114 = PERSON_AND_ORGANIZATION_ROLE ( 'classification_officer' ) ;
#115 = DIRECTION ( 'NONE',  ( 0.000000000000000000, 0.000000000000000000, -1.000000000000000000 ) ) ;
#116 = CIRCLE ( 'NONE', #223, 4.000000000000000000 ) ;
#117 = EDGE_CURVE ( 'NONE', #38, #49, #280, .T. ) ;
#118 = CALENDAR_DATE ( 2022, 8, 7 ) ;
#119 = CARTESIAN_POINT ( 'NONE',  ( 7.000000000000000000, 8.572527594031473190E-16, 0.000000000000000000 ) ) ;
#120 = VECTOR ( 'NONE', #145, 1000.000000000000000 ) ;
#121 = PERSON_AND_ORGANIZATION ( #243, #60 ) ;
#122 = CARTESIAN_POINT ( 'NONE',  ( 7.000000000000000000, 8.572527594031473190E-16, 5.000000000000000000 ) ) ;
#123 = EDGE_LOOP ( 'NONE', ( #357, #138, #135, #53 ) ) ;
#124 = ADVANCED_BREP_SHAPE_REPRESENTATION ( '1ad4', ( #269, #213 ), #334 ) ;
#125 = CARTESIAN_POINT ( 'NONE',  ( 4.500000000000000888, 0.000000000000000000, 5.000000000000002665 ) ) ;
#126 = LINE ( 'NONE', #67, #54 ) ;
#127 = DIRECTION ( 'NONE',  ( 1.000000000000000000, 0.000000000000000000, 0.000000000000000000 ) ) ;
#128 = SECURITY_CLASSIFICATION ( '', '', #61 ) ;
#129 = DIRECTION ( 'NONE',  ( 0.000000000000000000, 0.000000000000000000, 1.000000000000000000 ) ) ;
#130 = ORIENTED_EDGE ( 'NONE', *, *, #355, .T. ) ;
#131 = ORIENTED_EDGE ( 'NONE', *, *, #195, .T. ) ;
#132 = DIRECTION ( 'NONE',  ( 0.000000000000000000, 0.000000000000000000, 1.000000000000000000 ) ) ;
#133 = AXIS2_PLACEMENT_3D ( 'NONE', #374, #132, #203 ) ;
#134 = DIRECTION ( 'NONE',  ( 1.000000000000000000, 0.000000000000000000, 0.000000000000000000 ) ) ;
#135 = ORIENTED_EDGE ( 'NONE', *, *, #201, .T. ) ;
#136 = DIRECTION ( 'NONE',  ( 1.000000000000000000, 0.000000000000000000, 0.000000000000000000 ) ) ;
#137 = DIRECTION ( 'NONE',  ( 0.000000000000000000, 0.000000000000000000, 1.000000000000000000 ) ) ;
#138 = ORIENTED_EDGE ( 'NONE', *, *, #5, .F. ) ;
#139 = CC_DESIGN_DATE_AND_TIME_ASSIGNMENT ( #113, #142, ( #227 ) ) ;
#140 = LINE ( 'NONE', #266, #170 ) ;
#141 = AXIS2_PLACEMENT_3D ( 'NONE', #78, #261, #314 ) ;
#142 = DATE_TIME_ROLE ( 'creation_date' ) ;
#143 = EDGE_LOOP ( 'NONE', ( #303, #376, #256, #150 ) ) ;
#144 = PERSON_AND_ORGANIZATION ( #243, #60 ) ;
#145 = DIRECTION ( 'NONE',  ( -0.000000000000000000, -0.000000000000000000, -1.000000000000000000 ) ) ;
#146 = CIRCLE ( 'NONE', #172, 4.500000000000000888 ) ;
#147 = CARTESIAN_POINT ( 'NONE',  ( -4.000000000000000000, 0.000000000000000000, 280.0000000000000000 ) ) ;
#148 = VERTEX_POINT ( 'NONE', #304 ) ;
#149 = CARTESIAN_POINT ( 'NONE',  ( 0.000000000000000000, 0.000000000000000000, 0.000000000000000000 ) ) ;
#150 = ORIENTED_EDGE ( 'NONE', *, *, #92, .F. ) ;
#151 = AXIS2_PLACEMENT_3D ( 'NONE', #47, #41, #250 ) ;
#152 = CIRCLE ( 'NONE', #192, 7.000000000000000000 ) ;
#153 = AXIS2_PLACEMENT_3D ( 'NONE', #312, #129, #373 ) ;
#154 = DIRECTION ( 'NONE',  ( 0.000000000000000000, 0.000000000000000000, -1.000000000000000000 ) ) ;
#155 = EDGE_CURVE ( 'NONE', #226, #325, #375, .T. ) ;
#156 = CARTESIAN_POINT ( 'NONE',  ( 0.000000000000000000, 0.000000000000000000, 0.000000000000000000 ) ) ;
#157 = PRODUCT_DEFINITION_FORMATION_WITH_SPECIFIED_SOURCE ( 'LIBOVOLNÝ', '', #316, .NOT_KNOWN. ) ;
#158 = CARTESIAN_POINT ( 'NONE',  ( 0.000000000000000000, 0.000000000000000000, 0.000000000000000000 ) ) ;
#159 = ORIENTED_EDGE ( 'NONE', *, *, #364, .F. ) ;
#160 = APPLICATION_CONTEXT ( 'configuration controlled 3d designs of mechanical parts and assemblies' ) ;
#161 = ORIENTED_EDGE ( 'NONE', *, *, #174, .F. ) ;
#162 = LINE ( 'NONE', #293, #361 ) ;
#163 = CC_DESIGN_APPROVAL ( #28, ( #157 ) ) ;
#164 = CALENDAR_DATE ( 2022, 8, 7 ) ;
#165 = CC_DESIGN_PERSON_AND_ORGANIZATION_ASSIGNMENT ( #329, #274, ( #157 ) ) ;
#166 = EDGE_LOOP ( 'NONE', ( #315, #245, #95, #51 ) ) ;
#167 = DIRECTION ( 'NONE',  ( 0.000000000000000000, 0.000000000000000000, 1.000000000000000000 ) ) ;
#168 = ORIENTED_EDGE ( 'NONE', *, *, #287, .T. ) ;
#169 =( NAMED_UNIT ( * ) SI_UNIT ( $, .STERADIAN. ) SOLID_ANGLE_UNIT ( ) );
#170 = VECTOR ( 'NONE', #154, 1000.000000000000000 ) ;
#171 = CARTESIAN_POINT ( 'NONE',  ( -2.600000000000000089, 0.000000000000000000, 0.000000000000000000 ) ) ;
#172 = AXIS2_PLACEMENT_3D ( 'NONE', #75, #285, #379 ) ;
#173 = CARTESIAN_POINT ( 'NONE',  ( 2.600000000000000089, 3.184081677783118191E-16, 0.000000000000000000 ) ) ;
#174 = EDGE_CURVE ( 'NONE', #289, #80, #40, .T. ) ;
#175 = COORDINATED_UNIVERSAL_TIME_OFFSET ( 1, 0, .AHEAD. ) ;
#176 = CIRCLE ( 'NONE', #240, 0.5000000000000004441 ) ;
#177 = CC_DESIGN_APPROVAL ( #336, ( #128 ) ) ;
#178 = CALENDAR_DATE ( 2022, 8, 7 ) ;
#179 = FACE_BOUND ( 'NONE', #265, .T. ) ;
#180 = APPROVAL_ROLE ( '' ) ;
#181 = DIRECTION ( 'NONE',  ( 0.000000000000000000, 0.000000000000000000, 1.000000000000000000 ) ) ;
#182 = CLOSED_SHELL ( 'NONE', ( #55, #281, #311, #106, #318, #260, #306, #251, #12, #299, #17 ) ) ;
#183 = CIRCLE ( 'NONE', #111, 0.5000000000000004441 ) ;
#184 = CYLINDRICAL_SURFACE ( 'NONE', #371, 4.000000000000000000 ) ;
#185 = EDGE_CURVE ( 'NONE', #325, #226, #191, .T. ) ;
#186 = DIRECTION ( 'NONE',  ( 1.000000000000000000, 0.000000000000000000, 0.000000000000000000 ) ) ;
#187 = VERTEX_POINT ( 'NONE', #122 ) ;
#188 = DIRECTION ( 'NONE',  ( -1.000000000000000000, 0.000000000000000000, 0.000000000000000000 ) ) ;
#189 = DIRECTION ( 'NONE',  ( 0.000000000000000000, 0.000000000000000000, -1.000000000000000000 ) ) ;
#190 = CIRCLE ( 'NONE', #71, 4.000000000000000000 ) ;
#191 = CIRCLE ( 'NONE', #104, 7.000000000000000000 ) ;
#192 = AXIS2_PLACEMENT_3D ( 'NONE', #219, #337, #222 ) ;
#193 = VERTEX_POINT ( 'NONE', #248 ) ;
#194 = VERTEX_POINT ( 'NONE', #73 ) ;
#195 = EDGE_CURVE ( 'NONE', #194, #30, #94, .T. ) ;
#196 = CYLINDRICAL_SURFACE ( 'NONE', #105, 7.000000000000000000 ) ;
#197 = ORIENTED_EDGE ( 'NONE', *, *, #369, .T. ) ;
#198 = VERTEX_POINT ( 'NONE', #125 ) ;
#199 = DIRECTION ( 'NONE',  ( -0.000000000000000000, -0.000000000000000000, -1.000000000000000000 ) ) ;
#200 = ORIENTED_EDGE ( 'NONE', *, *, #201, .F. ) ;
#201 = EDGE_CURVE ( 'NONE', #193, #198, #176, .T. ) ;
#202 = ORIENTED_EDGE ( 'NONE', *, *, #351, .F. ) ;
#203 = DIRECTION ( 'NONE',  ( 1.000000000000000000, 0.000000000000000000, 0.000000000000000000 ) ) ;
#204 = CARTESIAN_POINT ( 'NONE',  ( 0.000000000000000000, 0.000000000000000000, 280.0000000000000000 ) ) ;
#205 = CIRCLE ( 'NONE', #356, 2.600000000000000089 ) ;
#206 = PRODUCT_RELATED_PRODUCT_CATEGORY ( 'detail', '', ( #316 ) ) ;
#207 = VERTEX_POINT ( 'NONE', #335 ) ;
#208 = DIRECTION ( 'NONE',  ( 1.000000000000000000, 0.000000000000000000, 0.000000000000000000 ) ) ;
#209 = DIRECTION ( 'NONE',  ( -1.000000000000000000, 0.000000000000000000, 0.000000000000000000 ) ) ;
#210 = MECHANICAL_CONTEXT ( 'NONE', #160, 'mechanical' ) ;
#211 = AXIS2_PLACEMENT_3D ( 'NONE', #308, #246, #279 ) ;
#212 = CARTESIAN_POINT ( 'NONE',  ( -4.000000000000000000, 0.000000000000000000, 5.500000000000005329 ) ) ;
#213 = AXIS2_PLACEMENT_3D ( 'NONE', #33, #167, #208 ) ;
#214 = DATE_AND_TIME ( #164, #338 ) ;
#215 = DATE_AND_TIME ( #118, #10 ) ;
#216 = DIRECTION ( 'NONE',  ( -0.000000000000000000, -0.000000000000000000, -1.000000000000000000 ) ) ;
#217 = EDGE_CURVE ( 'NONE', #187, #226, #126, .T. ) ;
#218 = COORDINATED_UNIVERSAL_TIME_OFFSET ( 1, 0, .AHEAD. ) ;
#219 = CARTESIAN_POINT ( 'NONE',  ( 0.000000000000000000, 0.000000000000000000, 5.000000000000000000 ) ) ;
#220 = ORIENTED_EDGE ( 'NONE', *, *, #287, .F. ) ;
#221 = APPROVAL_STATUS ( 'not_yet_approved' ) ;
#222 = DIRECTION ( 'NONE',  ( 1.000000000000000000, 0.000000000000000000, 0.000000000000000000 ) ) ;
#223 = AXIS2_PLACEMENT_3D ( 'NONE', #108, #372, #288 ) ;
#224 = CARTESIAN_POINT ( 'NONE',  ( 0.000000000000000000, 0.000000000000000000, 280.0000000000000000 ) ) ;
#225 = CARTESIAN_POINT ( 'NONE',  ( -4.500000000000000888, 5.510910596163088569E-16, 5.000000000000002665 ) ) ;
#226 = VERTEX_POINT ( 'NONE', #119 ) ;
#227 = PRODUCT_DEFINITION ( 'NEZNÁMÝ', '', #157, #83 ) ;
#228 = TOROIDAL_SURFACE ( 'NONE', #241, 4.500000000000000888, 0.5000000000000000000 ) ;
#229 = ORIENTED_EDGE ( 'NONE', *, *, #1, .F. ) ;
#230 = PLANE ( 'NONE',  #258 ) ;
#231 = FACE_OUTER_BOUND ( 'NONE', #123, .T. ) ;
#232 = FACE_BOUND ( 'NONE', #27, .T. ) ;
#233 = PERSON_AND_ORGANIZATION ( #243, #60 ) ;
#234 = ORIENTED_EDGE ( 'NONE', *, *, #301, .F. ) ;
#235 = APPROVAL_STATUS ( 'not_yet_approved' ) ;
#236 = ORIENTED_EDGE ( 'NONE', *, *, #267, .T. ) ;
#237 = APPROVAL_ROLE ( '' ) ;
#238 = EDGE_CURVE ( 'NONE', #207, #187, #152, .T. ) ;
#239 = ORIENTED_EDGE ( 'NONE', *, *, #238, .F. ) ;
#240 = AXIS2_PLACEMENT_3D ( 'NONE', #252, #365, #96 ) ;
#241 = AXIS2_PLACEMENT_3D ( 'NONE', #48, #81, #346 ) ;
#242 = EDGE_LOOP ( 'NONE', ( #328, #130 ) ) ;
#243 = PERSON ( 'NEURÈENÝ', 'NEURÈENÝ', 'NEURÈENÝ', ('NEURÈENÝ'), ('NEURÈENÝ'), ('NEURÈENÝ') ) ;
#244 = DIRECTION ( 'NONE',  ( 0.000000000000000000, 0.000000000000000000, -1.000000000000000000 ) ) ;
#245 = ORIENTED_EDGE ( 'NONE', *, *, #69, .T. ) ;
#246 = DIRECTION ( 'NONE',  ( 0.000000000000000000, 0.000000000000000000, 1.000000000000000000 ) ) ;
#247 = CC_DESIGN_PERSON_AND_ORGANIZATION_ASSIGNMENT ( #58, #4, ( #316 ) ) ;
#248 = CARTESIAN_POINT ( 'NONE',  ( 4.000000000000000000, 4.898587196589412829E-16, 5.500000000000005329 ) ) ;
#249 = AXIS2_PLACEMENT_3D ( 'NONE', #32, #244, #209 ) ;
#250 = DIRECTION ( 'NONE',  ( 1.000000000000000000, 0.000000000000000000, 0.000000000000000000 ) ) ;
#251 = ADVANCED_FACE ( 'NONE', ( #72 ), #184, .T. ) ;
#252 = CARTESIAN_POINT ( 'NONE',  ( 4.500000000000000888, 0.000000000000000000, 5.500000000000005329 ) ) ;
#253 = FACE_OUTER_BOUND ( 'NONE', #166, .T. ) ;
#254 = CC_DESIGN_PERSON_AND_ORGANIZATION_ASSIGNMENT ( #381, #114, ( #128 ) ) ;
#255 = DIRECTION ( 'NONE',  ( -0.000000000000000000, -0.000000000000000000, -1.000000000000000000 ) ) ;
#256 = ORIENTED_EDGE ( 'NONE', *, *, #117, .T. ) ;
#257 = VECTOR ( 'NONE', #275, 1000.000000000000000 ) ;
#258 = AXIS2_PLACEMENT_3D ( 'NONE', #156, #26, #290 ) ;
#259 = ORIENTED_EDGE ( 'NONE', *, *, #185, .T. ) ;
#260 = ADVANCED_FACE ( 'NONE', ( #179, #302 ), #15, .T. ) ;
#261 = DIRECTION ( 'NONE',  ( -0.000000000000000000, -0.000000000000000000, -1.000000000000000000 ) ) ;
#262 = CARTESIAN_POINT ( 'NONE',  ( 0.000000000000000000, 0.000000000000000000, 5.500000000000005329 ) ) ;
#263 = APPROVAL_STATUS ( 'not_yet_approved' ) ;
#264 = DIRECTION ( 'NONE',  ( 1.000000000000000000, 0.000000000000000000, -0.000000000000000000 ) ) ;
#265 = EDGE_LOOP ( 'NONE', ( #168, #20 ) ) ;
#266 = CARTESIAN_POINT ( 'NONE',  ( -2.600000000000000089, 0.000000000000000000, 280.0000000000000000 ) ) ;
#267 = EDGE_CURVE ( 'NONE', #194, #148, #42, .T. ) ;
#268 =( LENGTH_UNIT ( ) NAMED_UNIT ( * ) SI_UNIT ( .MILLI., .METRE. ) );
#269 = MANIFOLD_SOLID_BREP ( 'Odebrat vysunutím3', #182 ) ;
#270 = CYLINDRICAL_SURFACE ( 'NONE', #348, 2.600000000000000089 ) ;
#271 = PRODUCT_DEFINITION_SHAPE ( 'NONE', 'NONE',  #227 ) ;
#272 = DATE_AND_TIME ( #294, #307 ) ;
#273 = ORIENTED_EDGE ( 'NONE', *, *, #79, .T. ) ;
#274 = PERSON_AND_ORGANIZATION_ROLE ( 'design_supplier' ) ;
#275 = DIRECTION ( 'NONE',  ( -0.000000000000000000, -0.000000000000000000, -1.000000000000000000 ) ) ;
#276 = CC_DESIGN_PERSON_AND_ORGANIZATION_ASSIGNMENT ( #233, #34, ( #157 ) ) ;
#277 = APPROVAL_DATE_TIME ( #11, #336 ) ;
#278 = CARTESIAN_POINT ( 'NONE',  ( 0.000000000000000000, 0.000000000000000000, 5.000000000000000000 ) ) ;
#279 = DIRECTION ( 'NONE',  ( 1.000000000000000000, 0.000000000000000000, 0.000000000000000000 ) ) ;
#280 = CIRCLE ( 'NONE', #151, 2.600000000000000089 ) ;
#281 = ADVANCED_FACE ( 'NONE', ( #310 ), #228, .F. ) ;
#282 = AXIS2_PLACEMENT_3D ( 'NONE', #103, #255, #188 ) ;
#283 = DIRECTION ( 'NONE',  ( 1.000000000000000000, 0.000000000000000000, 0.000000000000000000 ) ) ;
#284 = DIRECTION ( 'NONE',  ( 1.000000000000000000, 0.000000000000000000, -0.000000000000000000 ) ) ;
#285 = DIRECTION ( 'NONE',  ( -0.000000000000000000, -0.000000000000000000, -1.000000000000000000 ) ) ;
#286 = CIRCLE ( 'NONE', #59, 2.600000000000000089 ) ;
#287 = EDGE_CURVE ( 'NONE', #198, #354, #35, .T. ) ;
#288 = DIRECTION ( 'NONE',  ( 1.000000000000000000, 0.000000000000000000, 0.000000000000000000 ) ) ;
#289 = VERTEX_POINT ( 'NONE', #99 ) ;
#290 = DIRECTION ( 'NONE',  ( 1.000000000000000000, 0.000000000000000000, -0.000000000000000000 ) ) ;
#291 = ORIENTED_EDGE ( 'NONE', *, *, #217, .T. ) ;
#292 = EDGE_LOOP ( 'NONE', ( #236, #309 ) ) ;
#293 = CARTESIAN_POINT ( 'NONE',  ( 2.600000000000000089, 3.184081677783118191E-16, 280.0000000000000000 ) ) ;
#294 = CALENDAR_DATE ( 2022, 8, 7 ) ;
#295 = ORIENTED_EDGE ( 'NONE', *, *, #92, .T. ) ;
#296 = CARTESIAN_POINT ( 'NONE',  ( 4.000000000000000000, 4.898587196589412829E-16, 280.0000000000000000 ) ) ;
#297 = ORIENTED_EDGE ( 'NONE', *, *, #267, .F. ) ;
#298 = PERSON_AND_ORGANIZATION ( #243, #60 ) ;
#299 = ADVANCED_FACE ( 'NONE', ( #231 ), #377, .F. ) ;
#300 = CARTESIAN_POINT ( 'NONE',  ( 0.000000000000000000, 0.000000000000000000, 280.0000000000000000 ) ) ;
#301 = EDGE_CURVE ( 'NONE', #49, #38, #205, .T. ) ;
#302 = FACE_OUTER_BOUND ( 'NONE', #242, .T. ) ;
#303 = ORIENTED_EDGE ( 'NONE', *, *, #174, .T. ) ;
#304 = CARTESIAN_POINT ( 'NONE',  ( 4.000000000000000000, 4.898587196589412829E-16, 280.0000000000000000 ) ) ;
#305 = EDGE_LOOP ( 'NONE', ( #344, #102 ) ) ;
#306 = ADVANCED_FACE ( 'NONE', ( #74, #19 ), #230, .F. ) ;
#307 = LOCAL_TIME ( 17, 8, 38.00000000000000000, #353 ) ;
#308 = CARTESIAN_POINT ( 'NONE',  ( 0.000000000000000000, 0.000000000000000000, 0.000000000000000000 ) ) ;
#309 = ORIENTED_EDGE ( 'NONE', *, *, #324, .T. ) ;
#310 = FACE_OUTER_BOUND ( 'NONE', #112, .T. ) ;
#311 = ADVANCED_FACE ( 'NONE', ( #253 ), #23, .T. ) ;
#312 = CARTESIAN_POINT ( 'NONE',  ( 0.000000000000000000, 0.000000000000000000, 5.000000000000000000 ) ) ;
#313 = DIRECTION ( 'NONE',  ( 1.000000000000000000, 0.000000000000000000, 0.000000000000000000 ) ) ;
#314 = DIRECTION ( 'NONE',  ( 1.000000000000000000, 0.000000000000000000, 0.000000000000000000 ) ) ;
#315 = ORIENTED_EDGE ( 'NONE', *, *, #324, .F. ) ;
#316 = PRODUCT ( '1ad4', '1ad4', '', ( #210 ) ) ;
#317 = DIRECTION ( 'NONE',  ( -0.000000000000000000, -0.000000000000000000, -1.000000000000000000 ) ) ;
#318 = ADVANCED_FACE ( 'NONE', ( #319 ), #196, .T. ) ;
#319 = FACE_OUTER_BOUND ( 'NONE', #107, .T. ) ;
#320 = APPROVAL_PERSON_ORGANIZATION ( #358, #62, #352 ) ;
#321 = ORIENTED_EDGE ( 'NONE', *, *, #351, .T. ) ;
#322 = DIRECTION ( 'NONE',  ( 0.000000000000000000, 0.000000000000000000, 1.000000000000000000 ) ) ;
#323 = CARTESIAN_POINT ( 'NONE',  ( 2.600000000000000089, 3.184081677783118191E-16, 280.0000000000000000 ) ) ;
#324 = EDGE_CURVE ( 'NONE', #148, #194, #341, .T. ) ;
#325 = VERTEX_POINT ( 'NONE', #340 ) ;
#326 = APPLICATION_PROTOCOL_DEFINITION ( 'international standard', 'config_control_design', 1994, #160 ) ;
#327 = AXIS2_PLACEMENT_3D ( 'NONE', #278, #216, #16 ) ;
#328 = ORIENTED_EDGE ( 'NONE', *, *, #238, .T. ) ;
#329 = PERSON_AND_ORGANIZATION ( #243, #60 ) ;
#330 = AXIS2_PLACEMENT_3D ( 'NONE', #18, #97, #186 ) ;
#331 = APPROVAL_DATE_TIME ( #214, #62 ) ;
#332 = LINE ( 'NONE', #2, #257 ) ;
#333 = DIRECTION ( 'NONE',  ( -0.000000000000000000, -0.000000000000000000, -1.000000000000000000 ) ) ;
#334 =( GEOMETRIC_REPRESENTATION_CONTEXT ( 3 ) GLOBAL_UNCERTAINTY_ASSIGNED_CONTEXT ( ( #345 ) ) GLOBAL_UNIT_ASSIGNED_CONTEXT ( ( #268, #29, #169 ) ) REPRESENTATION_CONTEXT ( 'NONE', 'WORKASPACE' ) );
#335 = CARTESIAN_POINT ( 'NONE',  ( -7.000000000000000000, 0.000000000000000000, 5.000000000000000000 ) ) ;
#336 = APPROVAL ( #221, 'NEURÈENÝ' ) ;
#337 = DIRECTION ( 'NONE',  ( 0.000000000000000000, 0.000000000000000000, 1.000000000000000000 ) ) ;
#338 = LOCAL_TIME ( 17, 8, 38.00000000000000000, #90 ) ;
#339 = DIRECTION ( 'NONE',  ( 0.000000000000000000, 0.000000000000000000, 1.000000000000000000 ) ) ;
#340 = CARTESIAN_POINT ( 'NONE',  ( -7.000000000000000000, 0.000000000000000000, 0.000000000000000000 ) ) ;
#341 = CIRCLE ( 'NONE', #31, 4.000000000000000000 ) ;
#342 = EDGE_CURVE ( 'NONE', #354, #198, #146, .T. ) ;
#343 = CARTESIAN_POINT ( 'NONE',  ( 0.000000000000000000, 0.000000000000000000, 280.0000000000000000 ) ) ;
#344 = ORIENTED_EDGE ( 'NONE', *, *, #185, .F. ) ;
#345 = UNCERTAINTY_MEASURE_WITH_UNIT (LENGTH_MEASURE( 1.000000000000000082E-05 ), #268, 'distance_accuracy_value', 'NONE');
#346 = DIRECTION ( 'NONE',  ( 1.000000000000000000, 0.000000000000000000, 0.000000000000000000 ) ) ;
#347 = FACE_OUTER_BOUND ( 'NONE', #292, .T. ) ;
#348 = AXIS2_PLACEMENT_3D ( 'NONE', #300, #115, #65 ) ;
#349 = APPROVAL_PERSON_ORGANIZATION ( #121, #336, #180 ) ;
#350 = COORDINATED_UNIVERSAL_TIME_OFFSET ( 1, 0, .AHEAD. ) ;
#351 = EDGE_CURVE ( 'NONE', #30, #193, #116, .T. ) ;
#352 = APPROVAL_ROLE ( '' ) ;
#353 = COORDINATED_UNIVERSAL_TIME_OFFSET ( 1, 0, .AHEAD. ) ;
#354 = VERTEX_POINT ( 'NONE', #225 ) ;
#355 = EDGE_CURVE ( 'NONE', #187, #207, #89, .T. ) ;
#356 = AXIS2_PLACEMENT_3D ( 'NONE', #158, #199, #127 ) ;
#357 = ORIENTED_EDGE ( 'NONE', *, *, #369, .F. ) ;
#358 = PERSON_AND_ORGANIZATION ( #243, #60 ) ;
#359 = FACE_OUTER_BOUND ( 'NONE', #366, .T. ) ;
#360 = DIRECTION ( 'NONE',  ( 1.000000000000000000, 0.000000000000000000, 0.000000000000000000 ) ) ;
#361 = VECTOR ( 'NONE', #189, 1000.000000000000000 ) ;
#362 = LOCAL_TIME ( 17, 8, 38.00000000000000000, #218 ) ;
#363 = EDGE_LOOP ( 'NONE', ( #100, #291, #50, #43 ) ) ;
#364 = EDGE_CURVE ( 'NONE', #80, #289, #286, .T. ) ;
#365 = DIRECTION ( 'NONE',  ( 0.000000000000000000, -1.000000000000000000, 0.000000000000000000 ) ) ;
#366 = EDGE_LOOP ( 'NONE', ( #229, #63, #295, #86 ) ) ;
#367 = CYLINDRICAL_SURFACE ( 'NONE', #327, 7.000000000000000000 ) ;
#368 = ORIENTED_EDGE ( 'NONE', *, *, #117, .F. ) ;
#369 = EDGE_CURVE ( 'NONE', #30, #354, #183, .T. ) ;
#370 = APPLICATION_CONTEXT ( 'configuration controlled 3d designs of mechanical parts and assemblies' ) ;
#371 = AXIS2_PLACEMENT_3D ( 'NONE', #224, #39, #46 ) ;
#372 = DIRECTION ( 'NONE',  ( 0.000000000000000000, 0.000000000000000000, 1.000000000000000000 ) ) ;
#373 = DIRECTION ( 'NONE',  ( 1.000000000000000000, 0.000000000000000000, 0.000000000000000000 ) ) ;
#374 = CARTESIAN_POINT ( 'NONE',  ( 0.000000000000000000, 0.000000000000000000, 5.500000000000005329 ) ) ;
#375 = CIRCLE ( 'NONE', #211, 7.000000000000000000 ) ;
#376 = ORIENTED_EDGE ( 'NONE', *, *, #1, .T. ) ;
#377 = TOROIDAL_SURFACE ( 'NONE', #133, 4.500000000000000888, 0.5000000000000000000 ) ;
#378 = DIRECTION ( 'NONE',  ( -1.000000000000000000, 0.000000000000000000, 0.000000000000000000 ) ) ;
#379 = DIRECTION ( 'NONE',  ( 1.000000000000000000, 0.000000000000000000, 0.000000000000000000 ) ) ;
#380 = DIRECTION ( 'NONE',  ( 0.000000000000000000, 0.000000000000000000, 1.000000000000000000 ) ) ;
#381 = PERSON_AND_ORGANIZATION ( #243, #60 ) ;
ENDSEC;
END-ISO-10303-21;
