ISO-10303-21;
HEADER;
FILE_DESCRIPTION (( 'STEP AP203' ),
    '1' );
FILE_NAME ('2abf.STEP',
    '2022-07-08T15:19:09',
    ( '' ),
    ( '' ),
    'SwSTEP 2.0',
    'SolidWorks 2019',
    '' );
FILE_SCHEMA (( 'CONFIG_CONTROL_DESIGN' ));
ENDSEC;

DATA;
#1 = DIRECTION ( 'NONE',  ( -1.000000000000000000, 0.000000000000000000, 0.000000000000000000 ) ) ;
#2 = AXIS2_PLACEMENT_3D ( 'NONE', #256, #44, #46 ) ;
#3 = CARTESIAN_POINT ( 'NONE',  ( 0.000000000000000000, 0.000000000000000000, 5.500000000000005329 ) ) ;
#4 = FACE_OUTER_BOUND ( 'NONE', #161, .T. ) ;
#5 = LINE ( 'NONE', #330, #214 ) ;
#6 = CARTESIAN_POINT ( 'NONE',  ( 4.000000000000000000, 4.898587196589412829E-16, 5.500000000000005329 ) ) ;
#7 = DIRECTION ( 'NONE',  ( 0.000000000000000000, -1.000000000000000000, 0.000000000000000000 ) ) ;
#8 = CARTESIAN_POINT ( 'NONE',  ( 0.000000000000000000, 0.000000000000000000, 455.0000000000000000 ) ) ;
#9 = AXIS2_PLACEMENT_3D ( 'NONE', #335, #283, #222 ) ;
#10 = LINE ( 'NONE', #262, #341 ) ;
#11 = CARTESIAN_POINT ( 'NONE',  ( 0.000000000000000000, 0.000000000000000000, 0.000000000000000000 ) ) ;
#12 = APPROVAL_ROLE ( '' ) ;
#13 = CARTESIAN_POINT ( 'NONE',  ( 7.000000000000000000, 8.572527594031473190E-16, 5.000000000000000000 ) ) ;
#14 = PERSON_AND_ORGANIZATION ( #240, #309 ) ;
#15 = EDGE_CURVE ( 'NONE', #377, #351, #266, .T. ) ;
#16 = PLANE ( 'NONE',  #271 ) ;
#17 = AXIS2_PLACEMENT_3D ( 'NONE', #313, #198, #165 ) ;
#18 = APPROVAL_DATE_TIME ( #170, #153 ) ;
#19 = PERSON_AND_ORGANIZATION_ROLE ( 'design_supplier' ) ;
#20 = ORIENTED_EDGE ( 'NONE', *, *, #205, .T. ) ;
#21 = EDGE_CURVE ( 'NONE', #316, #377, #5, .T. ) ;
#22 = VERTEX_POINT ( 'NONE', #154 ) ;
#23 = ADVANCED_FACE ( 'NONE', ( #242, #39 ), #32, .T. ) ;
#24 = APPLICATION_CONTEXT ( 'configuration controlled 3d designs of mechanical parts and assemblies' ) ;
#25 = AXIS2_PLACEMENT_3D ( 'NONE', #41, #133, #254 ) ;
#26 = APPROVAL_PERSON_ORGANIZATION ( #14, #153, #80 ) ;
#27 = ORIENTED_EDGE ( 'NONE', *, *, #114, .T. ) ;
#28 = EDGE_CURVE ( 'NONE', #316, #347, #252, .T. ) ;
#29 = VERTEX_POINT ( 'NONE', #281 ) ;
#30 = EDGE_LOOP ( 'NONE', ( #146, #294 ) ) ;
#31 = CIRCLE ( 'NONE', #356, 7.000000000000000000 ) ;
#32 = PLANE ( 'NONE',  #297 ) ;
#33 = CARTESIAN_POINT ( 'NONE',  ( 0.000000000000000000, 0.000000000000000000, 455.0000000000000000 ) ) ;
#34 = ADVANCED_FACE ( 'NONE', ( #64 ), #127, .T. ) ;
#35 = MANIFOLD_SOLID_BREP ( 'Odebrat vysunutím3', #285 ) ;
#36 = DIRECTION ( 'NONE',  ( 1.000000000000000000, 0.000000000000000000, 0.000000000000000000 ) ) ;
#37 = AXIS2_PLACEMENT_3D ( 'NONE', #365, #199, #337 ) ;
#38 = APPLICATION_PROTOCOL_DEFINITION ( 'international standard', 'config_control_design', 1994, #172 ) ;
#39 = FACE_OUTER_BOUND ( 'NONE', #30, .T. ) ;
#40 = CYLINDRICAL_SURFACE ( 'NONE', #74, 2.500000000000000000 ) ;
#41 = CARTESIAN_POINT ( 'NONE',  ( 0.000000000000000000, 0.000000000000000000, 0.000000000000000000 ) ) ;
#42 = PRODUCT_DEFINITION_SHAPE ( 'NONE', 'NONE',  #376 ) ;
#43 = DATE_AND_TIME ( #336, #261 ) ;
#44 = DIRECTION ( 'NONE',  ( -0.000000000000000000, -0.000000000000000000, -1.000000000000000000 ) ) ;
#45 = SECURITY_CLASSIFICATION_LEVEL ( 'unclassified' ) ;
#46 = DIRECTION ( 'NONE',  ( -1.000000000000000000, 0.000000000000000000, 0.000000000000000000 ) ) ;
#47 = ORIENTED_EDGE ( 'NONE', *, *, #114, .F. ) ;
#48 = EDGE_LOOP ( 'NONE', ( #176, #204, #272, #206 ) ) ;
#49 = ORIENTED_EDGE ( 'NONE', *, *, #215, .T. ) ;
#50 = AXIS2_PLACEMENT_3D ( 'NONE', #276, #89, #1 ) ;
#51 = EDGE_LOOP ( 'NONE', ( #112, #344 ) ) ;
#52 = ORIENTED_EDGE ( 'NONE', *, *, #187, .T. ) ;
#53 = FACE_OUTER_BOUND ( 'NONE', #85, .T. ) ;
#54 = TOROIDAL_SURFACE ( 'NONE', #352, 4.500000000000000888, 0.5000000000000000000 ) ;
#55 = LOCAL_TIME ( 17, 19, 9.000000000000000000, #338 ) ;
#56 = CARTESIAN_POINT ( 'NONE',  ( 0.000000000000000000, 0.000000000000000000, 455.0000000000000000 ) ) ;
#57 = EDGE_CURVE ( 'NONE', #353, #351, #92, .T. ) ;
#58 = DIRECTION ( 'NONE',  ( -0.000000000000000000, -0.000000000000000000, -1.000000000000000000 ) ) ;
#59 = CARTESIAN_POINT ( 'NONE',  ( 0.000000000000000000, 0.000000000000000000, 455.0000000000000000 ) ) ;
#60 = ADVANCED_FACE ( 'NONE', ( #53 ), #54, .F. ) ;
#61 = DIRECTION ( 'NONE',  ( 0.000000000000000000, 0.000000000000000000, -1.000000000000000000 ) ) ;
#62 = CARTESIAN_POINT ( 'NONE',  ( 4.500000000000000888, 0.000000000000000000, 5.000000000000002665 ) ) ;
#63 = AXIS2_PLACEMENT_3D ( 'NONE', #280, #7, #328 ) ;
#64 = FACE_OUTER_BOUND ( 'NONE', #270, .T. ) ;
#65 = ADVANCED_FACE ( 'NONE', ( #179 ), #71, .F. ) ;
#66 = DIRECTION ( 'NONE',  ( -1.000000000000000000, 0.000000000000000000, 0.000000000000000000 ) ) ;
#67 = DIRECTION ( 'NONE',  ( -1.000000000000000000, 1.224646799147351482E-16, 0.000000000000000000 ) ) ;
#68 = DATE_TIME_ROLE ( 'creation_date' ) ;
#69 = CARTESIAN_POINT ( 'NONE',  ( 0.000000000000000000, 0.000000000000000000, 5.000000000000000000 ) ) ;
#70 = DIRECTION ( 'NONE',  ( 0.000000000000000000, 0.000000000000000000, 1.000000000000000000 ) ) ;
#71 = TOROIDAL_SURFACE ( 'NONE', #277, 4.500000000000000888, 0.5000000000000000000 ) ;
#72 = DIRECTION ( 'NONE',  ( 0.000000000000000000, 0.000000000000000000, 1.000000000000000000 ) ) ;
#73 = EDGE_CURVE ( 'NONE', #377, #22, #87, .T. ) ;
#74 = AXIS2_PLACEMENT_3D ( 'NONE', #8, #61, #221 ) ;
#75 = CARTESIAN_POINT ( 'NONE',  ( 0.000000000000000000, 0.000000000000000000, 0.000000000000000000 ) ) ;
#76 = CARTESIAN_POINT ( 'NONE',  ( 7.000000000000000000, 8.572527594031473190E-16, 5.000000000000000000 ) ) ;
#77 = ORIENTED_EDGE ( 'NONE', *, *, #231, .F. ) ;
#78 = DATE_AND_TIME ( #108, #320 ) ;
#79 = EDGE_CURVE ( 'NONE', #322, #157, #232, .T. ) ;
#80 = APPROVAL_ROLE ( '' ) ;
#81 = CIRCLE ( 'NONE', #220, 2.500000000000000000 ) ;
#82 = ORIENTED_EDGE ( 'NONE', *, *, #185, .T. ) ;
#83 = ORIENTED_EDGE ( 'NONE', *, *, #150, .F. ) ;
#84 = EDGE_LOOP ( 'NONE', ( #83, #317 ) ) ;
#85 = EDGE_LOOP ( 'NONE', ( #235, #265, #296, #134 ) ) ;
#86 = EDGE_CURVE ( 'NONE', #347, #22, #97, .T. ) ;
#87 = CIRCLE ( 'NONE', #106, 4.000000000000000000 ) ;
#88 = ADVANCED_FACE ( 'NONE', ( #190 ), #123, .T. ) ;
#89 = DIRECTION ( 'NONE',  ( -0.000000000000000000, -0.000000000000000000, -1.000000000000000000 ) ) ;
#90 = DIRECTION ( 'NONE',  ( -0.000000000000000000, -0.000000000000000000, -1.000000000000000000 ) ) ;
#91 = DIRECTION ( 'NONE',  ( 0.000000000000000000, 0.000000000000000000, 1.000000000000000000 ) ) ;
#92 = CIRCLE ( 'NONE', #111, 4.500000000000000888 ) ;
#93 = CARTESIAN_POINT ( 'NONE',  ( 2.500000000000000000, 3.061616997868382648E-16, 455.0000000000000000 ) ) ;
#94 = DIRECTION ( 'NONE',  ( -0.000000000000000000, -0.000000000000000000, -1.000000000000000000 ) ) ;
#95 = PRODUCT_RELATED_PRODUCT_CATEGORY ( 'detail', '', ( #325 ) ) ;
#96 = CARTESIAN_POINT ( 'NONE',  ( -7.000000000000000000, 0.000000000000000000, 0.000000000000000000 ) ) ;
#97 = LINE ( 'NONE', #219, #145 ) ;
#98 = AXIS2_PLACEMENT_3D ( 'NONE', #361, #243, #354 ) ;
#99 = CC_DESIGN_APPROVAL ( #153, ( #376 ) ) ;
#100 = PERSON_AND_ORGANIZATION ( #240, #309 ) ;
#101 = CARTESIAN_POINT ( 'NONE',  ( 0.000000000000000000, 0.000000000000000000, 455.0000000000000000 ) ) ;
#102 = CALENDAR_DATE ( 2022, 8, 7 ) ;
#103 = FACE_OUTER_BOUND ( 'NONE', #48, .T. ) ;
#104 = PERSON_AND_ORGANIZATION_ROLE ( 'design_owner' ) ;
#105 = CC_DESIGN_PERSON_AND_ORGANIZATION_ASSIGNMENT ( #100, #19, ( #181 ) ) ;
#106 = AXIS2_PLACEMENT_3D ( 'NONE', #245, #91, #213 ) ;
#107 = DIRECTION ( 'NONE',  ( 1.224646799147353207E-16, 1.000000000000000000, -0.000000000000000000 ) ) ;
#108 = CALENDAR_DATE ( 2022, 8, 7 ) ;
#109 = DATE_AND_TIME ( #346, #55 ) ;
#110 = CC_DESIGN_PERSON_AND_ORGANIZATION_ASSIGNMENT ( #368, #104, ( #325 ) ) ;
#111 = AXIS2_PLACEMENT_3D ( 'NONE', #301, #211, #324 ) ;
#112 = ORIENTED_EDGE ( 'NONE', *, *, #318, .T. ) ;
#113 = EDGE_LOOP ( 'NONE', ( #151, #375 ) ) ;
#114 = EDGE_CURVE ( 'NONE', #29, #284, #81, .T. ) ;
#115 = ORIENTED_EDGE ( 'NONE', *, *, #372, .F. ) ;
#116 = ORIENTED_EDGE ( 'NONE', *, *, #318, .F. ) ;
#117 = CIRCLE ( 'NONE', #202, 0.5000000000000004441 ) ;
#118 = APPROVAL_DATE_TIME ( #78, #323 ) ;
#119 = VECTOR ( 'NONE', #334, 1000.000000000000000 ) ;
#120 = ORIENTED_EDGE ( 'NONE', *, *, #128, .F. ) ;
#121 = DIRECTION ( 'NONE',  ( 0.000000000000000000, 0.000000000000000000, 1.000000000000000000 ) ) ;
#122 = CARTESIAN_POINT ( 'NONE',  ( 7.000000000000000000, 8.572527594031473190E-16, 0.000000000000000000 ) ) ;
#123 = CYLINDRICAL_SURFACE ( 'NONE', #289, 4.000000000000000000 ) ;
#124 = CIRCLE ( 'NONE', #188, 2.500000000000000000 ) ;
#125 = APPROVAL_PERSON_ORGANIZATION ( #135, #246, #230 ) ;
#126 = CARTESIAN_POINT ( 'NONE',  ( 0.000000000000000000, 0.000000000000000000, 5.000000000000000000 ) ) ;
#127 = CYLINDRICAL_SURFACE ( 'NONE', #50, 4.000000000000000000 ) ;
#128 = EDGE_CURVE ( 'NONE', #22, #377, #293, .T. ) ;
#129 = DIRECTION ( 'NONE',  ( 1.000000000000000000, 0.000000000000000000, 0.000000000000000000 ) ) ;
#130 = CARTESIAN_POINT ( 'NONE',  ( -4.500000000000000888, 5.510910596163088569E-16, 5.000000000000002665 ) ) ;
#131 = DIRECTION ( 'NONE',  ( -0.000000000000000000, -0.000000000000000000, -1.000000000000000000 ) ) ;
#132 = CIRCLE ( 'NONE', #168, 2.500000000000000000 ) ;
#133 = DIRECTION ( 'NONE',  ( 0.000000000000000000, 0.000000000000000000, 1.000000000000000000 ) ) ;
#134 = ORIENTED_EDGE ( 'NONE', *, *, #57, .F. ) ;
#135 = PERSON_AND_ORGANIZATION ( #240, #309 ) ;
#136 = CARTESIAN_POINT ( 'NONE',  ( -4.500000000000000888, 5.510910596163089556E-16, 5.500000000000005329 ) ) ;
#137 = DIRECTION ( 'NONE',  ( 1.000000000000000000, 0.000000000000000000, 0.000000000000000000 ) ) ;
#138 = CARTESIAN_POINT ( 'NONE',  ( 2.500000000000000000, 3.061616997868382648E-16, 0.000000000000000000 ) ) ;
#139 = APPROVAL_STATUS ( 'not_yet_approved' ) ;
#140 = AXIS2_PLACEMENT_3D ( 'NONE', #69, #339, #367 ) ;
#141 = FACE_OUTER_BOUND ( 'NONE', #177, .T. ) ;
#142 = PERSON_AND_ORGANIZATION_ROLE ( 'creator' ) ;
#143 = PERSON_AND_ORGANIZATION_ROLE ( 'classification_officer' ) ;
#144 = EDGE_LOOP ( 'NONE', ( #47, #234 ) ) ;
#145 = VECTOR ( 'NONE', #156, 1000.000000000000000 ) ;
#146 = ORIENTED_EDGE ( 'NONE', *, *, #251, .T. ) ;
#147 = APPROVAL_PERSON_ORGANIZATION ( #260, #323, #12 ) ;
#148 = EDGE_LOOP ( 'NONE', ( #291, #149, #229, #152 ) ) ;
#149 = ORIENTED_EDGE ( 'NONE', *, *, #251, .F. ) ;
#150 = EDGE_CURVE ( 'NONE', #340, #381, #124, .T. ) ;
#151 = ORIENTED_EDGE ( 'NONE', *, *, #215, .F. ) ;
#152 = ORIENTED_EDGE ( 'NONE', *, *, #128, .T. ) ;
#153 = APPROVAL ( #139, 'NEURÈENÝ' ) ;
#154 = CARTESIAN_POINT ( 'NONE',  ( -4.000000000000000000, 0.000000000000000000, 5.500000000000005329 ) ) ;
#155 =( LENGTH_UNIT ( ) NAMED_UNIT ( * ) SI_UNIT ( .MILLI., .METRE. ) );
#156 = DIRECTION ( 'NONE',  ( -0.000000000000000000, -0.000000000000000000, -1.000000000000000000 ) ) ;
#157 = VERTEX_POINT ( 'NONE', #96 ) ;
#158 = DIRECTION ( 'NONE',  ( 1.000000000000000000, 0.000000000000000000, -0.000000000000000000 ) ) ;
#159 = LINE ( 'NONE', #183, #119 ) ;
#160 = DIRECTION ( 'NONE',  ( 1.000000000000000000, 0.000000000000000000, 0.000000000000000000 ) ) ;
#161 = EDGE_LOOP ( 'NONE', ( #171, #20, #210, #27 ) ) ;
#162 = CALENDAR_DATE ( 2022, 8, 7 ) ;
#163 = ADVANCED_FACE ( 'NONE', ( #217, #369 ), #16, .F. ) ;
#164 = DATE_TIME_ROLE ( 'classification_date' ) ;
#165 = DIRECTION ( 'NONE',  ( 1.000000000000000000, 0.000000000000000000, -0.000000000000000000 ) ) ;
#166 = PERSON_AND_ORGANIZATION ( #240, #309 ) ;
#167 = LINE ( 'NONE', #288, #238 ) ;
#168 = AXIS2_PLACEMENT_3D ( 'NONE', #101, #72, #364 ) ;
#169 =( GEOMETRIC_REPRESENTATION_CONTEXT ( 3 ) GLOBAL_UNCERTAINTY_ASSIGNED_CONTEXT ( ( #233 ) ) GLOBAL_UNIT_ASSIGNED_CONTEXT ( ( #155, #274, #358 ) ) REPRESENTATION_CONTEXT ( 'NONE', 'WORKASPACE' ) );
#170 = DATE_AND_TIME ( #162, #253 ) ;
#171 = ORIENTED_EDGE ( 'NONE', *, *, #185, .F. ) ;
#172 = APPLICATION_CONTEXT ( 'configuration controlled 3d designs of mechanical parts and assemblies' ) ;
#173 = VERTEX_POINT ( 'NONE', #286 ) ;
#174 = ORIENTED_EDGE ( 'NONE', *, *, #21, .T. ) ;
#175 = CC_DESIGN_PERSON_AND_ORGANIZATION_ASSIGNMENT ( #195, #310, ( #181 ) ) ;
#176 = ORIENTED_EDGE ( 'NONE', *, *, #258, .F. ) ;
#177 = EDGE_LOOP ( 'NONE', ( #77, #349, #374, #49 ) ) ;
#178 = EDGE_CURVE ( 'NONE', #284, #29, #180, .T. ) ;
#179 = FACE_OUTER_BOUND ( 'NONE', #208, .T. ) ;
#180 = CIRCLE ( 'NONE', #9, 2.500000000000000000 ) ;
#181 = PRODUCT_DEFINITION_FORMATION_WITH_SPECIFIED_SOURCE ( 'LIBOVOLNÝ', '', #325, .NOT_KNOWN. ) ;
#182 = CARTESIAN_POINT ( 'NONE',  ( 0.000000000000000000, 0.000000000000000000, 5.500000000000005329 ) ) ;
#183 = CARTESIAN_POINT ( 'NONE',  ( -2.500000000000000000, 0.000000000000000000, 455.0000000000000000 ) ) ;
#184 = DIRECTION ( 'NONE',  ( -1.000000000000000000, 0.000000000000000000, 0.000000000000000000 ) ) ;
#185 = EDGE_CURVE ( 'NONE', #381, #284, #10, .T. ) ;
#186 = DIRECTION ( 'NONE',  ( 0.000000000000000000, 0.000000000000000000, 1.000000000000000000 ) ) ;
#187 = EDGE_CURVE ( 'NONE', #22, #353, #117, .T. ) ;
#188 = AXIS2_PLACEMENT_3D ( 'NONE', #33, #247, #359 ) ;
#189 = CC_DESIGN_SECURITY_CLASSIFICATION ( #332, ( #181 ) ) ;
#190 = FACE_OUTER_BOUND ( 'NONE', #148, .T. ) ;
#191 = DIRECTION ( 'NONE',  ( 0.000000000000000000, 0.000000000000000000, -1.000000000000000000 ) ) ;
#192 = EDGE_CURVE ( 'NONE', #173, #239, #31, .T. ) ;
#193 = DIRECTION ( 'NONE',  ( 0.000000000000000000, 0.000000000000000000, 1.000000000000000000 ) ) ;
#194 = FACE_BOUND ( 'NONE', #51, .T. ) ;
#195 = PERSON_AND_ORGANIZATION ( #240, #309 ) ;
#196 = CIRCLE ( 'NONE', #25, 7.000000000000000000 ) ;
#197 = AXIS2_PLACEMENT_3D ( 'NONE', #244, #282, #362 ) ;
#198 = DIRECTION ( 'NONE',  ( 0.000000000000000000, 0.000000000000000000, 1.000000000000000000 ) ) ;
#199 = DIRECTION ( 'NONE',  ( 0.000000000000000000, 0.000000000000000000, 1.000000000000000000 ) ) ;
#200 = CC_DESIGN_DATE_AND_TIME_ASSIGNMENT ( #43, #164, ( #332 ) ) ;
#201 = APPROVAL_DATE_TIME ( #109, #246 ) ;
#202 = AXIS2_PLACEMENT_3D ( 'NONE', #136, #107, #67 ) ;
#203 = ORIENTED_EDGE ( 'NONE', *, *, #192, .T. ) ;
#204 = ORIENTED_EDGE ( 'NONE', *, *, #231, .T. ) ;
#205 = EDGE_CURVE ( 'NONE', #381, #340, #132, .T. ) ;
#206 = ORIENTED_EDGE ( 'NONE', *, *, #295, .F. ) ;
#207 = CIRCLE ( 'NONE', #37, 4.000000000000000000 ) ;
#208 = EDGE_LOOP ( 'NONE', ( #120, #52, #116, #350 ) ) ;
#209 = ADVANCED_FACE ( 'NONE', ( #103 ), #224, .T. ) ;
#210 = ORIENTED_EDGE ( 'NONE', *, *, #372, .T. ) ;
#211 = DIRECTION ( 'NONE',  ( -0.000000000000000000, -0.000000000000000000, -1.000000000000000000 ) ) ;
#212 = FACE_OUTER_BOUND ( 'NONE', #267, .T. ) ;
#213 = DIRECTION ( 'NONE',  ( 1.000000000000000000, 0.000000000000000000, 0.000000000000000000 ) ) ;
#214 = VECTOR ( 'NONE', #94, 1000.000000000000000 ) ;
#215 = EDGE_CURVE ( 'NONE', #157, #322, #196, .T. ) ;
#216 = CARTESIAN_POINT ( 'NONE',  ( 0.000000000000000000, 0.000000000000000000, 0.000000000000000000 ) ) ;
#217 = FACE_BOUND ( 'NONE', #144, .T. ) ;
#218 = CC_DESIGN_PERSON_AND_ORGANIZATION_ASSIGNMENT ( #314, #143, ( #332 ) ) ;
#219 = CARTESIAN_POINT ( 'NONE',  ( -4.000000000000000000, 0.000000000000000000, 455.0000000000000000 ) ) ;
#220 = AXIS2_PLACEMENT_3D ( 'NONE', #327, #58, #36 ) ;
#221 = DIRECTION ( 'NONE',  ( -1.000000000000000000, 0.000000000000000000, 0.000000000000000000 ) ) ;
#222 = DIRECTION ( 'NONE',  ( 1.000000000000000000, 0.000000000000000000, 0.000000000000000000 ) ) ;
#223 = COORDINATED_UNIVERSAL_TIME_OFFSET ( 1, 0, .AHEAD. ) ;
#224 = CYLINDRICAL_SURFACE ( 'NONE', #2, 7.000000000000000000 ) ;
#225 = APPROVAL_STATUS ( 'not_yet_approved' ) ;
#226 = PLANE ( 'NONE',  #17 ) ;
#227 = LOCAL_TIME ( 17, 19, 9.000000000000000000, #306 ) ;
#228 = DIRECTION ( 'NONE',  ( 0.000000000000000000, 0.000000000000000000, 1.000000000000000000 ) ) ;
#229 = ORIENTED_EDGE ( 'NONE', *, *, #86, .T. ) ;
#230 = APPROVAL_ROLE ( '' ) ;
#231 = EDGE_CURVE ( 'NONE', #239, #322, #342, .T. ) ;
#232 = CIRCLE ( 'NONE', #308, 7.000000000000000000 ) ;
#233 = UNCERTAINTY_MEASURE_WITH_UNIT (LENGTH_MEASURE( 1.000000000000000082E-05 ), #155, 'distance_accuracy_value', 'NONE');
#234 = ORIENTED_EDGE ( 'NONE', *, *, #178, .F. ) ;
#235 = ORIENTED_EDGE ( 'NONE', *, *, #187, .F. ) ;
#236 = SHAPE_DEFINITION_REPRESENTATION ( #42, #343 ) ;
#237 = ORIENTED_EDGE ( 'NONE', *, *, #73, .T. ) ;
#238 = VECTOR ( 'NONE', #259, 1000.000000000000000 ) ;
#239 = VERTEX_POINT ( 'NONE', #76 ) ;
#240 = PERSON ( 'NEURÈENÝ', 'NEURÈENÝ', 'NEURÈENÝ', ('NEURÈENÝ'), ('NEURÈENÝ'), ('NEURÈENÝ') ) ;
#241 = CIRCLE ( 'NONE', #197, 4.500000000000000888 ) ;
#242 = FACE_BOUND ( 'NONE', #84, .T. ) ;
#243 = DIRECTION ( 'NONE',  ( 0.000000000000000000, 0.000000000000000000, 1.000000000000000000 ) ) ;
#244 = CARTESIAN_POINT ( 'NONE',  ( 0.000000000000000000, 0.000000000000000000, 5.000000000000000000 ) ) ;
#245 = CARTESIAN_POINT ( 'NONE',  ( 0.000000000000000000, 0.000000000000000000, 5.500000000000005329 ) ) ;
#246 = APPROVAL ( #225, 'NEURÈENÝ' ) ;
#247 = DIRECTION ( 'NONE',  ( 0.000000000000000000, 0.000000000000000000, 1.000000000000000000 ) ) ;
#248 = CARTESIAN_POINT ( 'NONE',  ( -2.500000000000000000, 0.000000000000000000, 455.0000000000000000 ) ) ;
#249 = CARTESIAN_POINT ( 'NONE',  ( 0.000000000000000000, 0.000000000000000000, 5.500000000000005329 ) ) ;
#250 = CYLINDRICAL_SURFACE ( 'NONE', #290, 7.000000000000000000 ) ;
#251 = EDGE_CURVE ( 'NONE', #347, #316, #207, .T. ) ;
#252 = CIRCLE ( 'NONE', #98, 4.000000000000000000 ) ;
#253 = LOCAL_TIME ( 17, 19, 9.000000000000000000, #263 ) ;
#254 = DIRECTION ( 'NONE',  ( 1.000000000000000000, 0.000000000000000000, 0.000000000000000000 ) ) ;
#255 = APPLICATION_PROTOCOL_DEFINITION ( 'international standard', 'config_control_design', 1994, #24 ) ;
#256 = CARTESIAN_POINT ( 'NONE',  ( 0.000000000000000000, 0.000000000000000000, 5.000000000000000000 ) ) ;
#257 = COORDINATED_UNIVERSAL_TIME_OFFSET ( 1, 0, .AHEAD. ) ;
#258 = EDGE_CURVE ( 'NONE', #239, #173, #302, .T. ) ;
#259 = DIRECTION ( 'NONE',  ( -0.000000000000000000, -0.000000000000000000, -1.000000000000000000 ) ) ;
#260 = PERSON_AND_ORGANIZATION ( #240, #309 ) ;
#261 = LOCAL_TIME ( 17, 19, 9.000000000000000000, #223 ) ;
#262 = CARTESIAN_POINT ( 'NONE',  ( 2.500000000000000000, 3.061616997868382648E-16, 455.0000000000000000 ) ) ;
#263 = COORDINATED_UNIVERSAL_TIME_OFFSET ( 1, 0, .AHEAD. ) ;
#264 = DESIGN_CONTEXT ( 'detailed design', #24, 'design' ) ;
#265 = ORIENTED_EDGE ( 'NONE', *, *, #73, .F. ) ;
#266 = CIRCLE ( 'NONE', #63, 0.5000000000000004441 ) ;
#267 = EDGE_LOOP ( 'NONE', ( #292, #82, #315, #115 ) ) ;
#268 = ORIENTED_EDGE ( 'NONE', *, *, #86, .F. ) ;
#269 = ADVANCED_FACE ( 'NONE', ( #194, #307 ), #226, .T. ) ;
#270 = EDGE_LOOP ( 'NONE', ( #379, #174, #237, #268 ) ) ;
#271 = AXIS2_PLACEMENT_3D ( 'NONE', #11, #193, #304 ) ;
#272 = ORIENTED_EDGE ( 'NONE', *, *, #79, .T. ) ;
#273 = DIRECTION ( 'NONE',  ( 1.000000000000000000, 0.000000000000000000, 0.000000000000000000 ) ) ;
#274 =( NAMED_UNIT ( * ) PLANE_ANGLE_UNIT ( ) SI_UNIT ( $, .RADIAN. ) );
#275 = CARTESIAN_POINT ( 'NONE',  ( 0.000000000000000000, 0.000000000000000000, 455.0000000000000000 ) ) ;
#276 = CARTESIAN_POINT ( 'NONE',  ( 0.000000000000000000, 0.000000000000000000, 455.0000000000000000 ) ) ;
#277 = AXIS2_PLACEMENT_3D ( 'NONE', #3, #331, #355 ) ;
#278 = CC_DESIGN_APPROVAL ( #323, ( #332 ) ) ;
#279 = CARTESIAN_POINT ( 'NONE',  ( 4.000000000000000000, 4.898587196589412829E-16, 455.0000000000000000 ) ) ;
#280 = CARTESIAN_POINT ( 'NONE',  ( 4.500000000000000888, 0.000000000000000000, 5.500000000000005329 ) ) ;
#281 = CARTESIAN_POINT ( 'NONE',  ( -2.500000000000000000, 0.000000000000000000, 0.000000000000000000 ) ) ;
#282 = DIRECTION ( 'NONE',  ( -0.000000000000000000, -0.000000000000000000, -1.000000000000000000 ) ) ;
#283 = DIRECTION ( 'NONE',  ( -0.000000000000000000, -0.000000000000000000, -1.000000000000000000 ) ) ;
#284 = VERTEX_POINT ( 'NONE', #138 ) ;
#285 = CLOSED_SHELL ( 'NONE', ( #378, #65, #34, #209, #298, #269, #163, #88, #23, #60, #345 ) ) ;
#286 = CARTESIAN_POINT ( 'NONE',  ( -7.000000000000000000, 0.000000000000000000, 5.000000000000000000 ) ) ;
#287 = DIRECTION ( 'NONE',  ( 0.000000000000000000, 0.000000000000000000, -1.000000000000000000 ) ) ;
#288 = CARTESIAN_POINT ( 'NONE',  ( -7.000000000000000000, 0.000000000000000000, 5.000000000000000000 ) ) ;
#289 = AXIS2_PLACEMENT_3D ( 'NONE', #59, #299, #184 ) ;
#290 = AXIS2_PLACEMENT_3D ( 'NONE', #126, #90, #66 ) ;
#291 = ORIENTED_EDGE ( 'NONE', *, *, #21, .F. ) ;
#292 = ORIENTED_EDGE ( 'NONE', *, *, #150, .T. ) ;
#293 = CIRCLE ( 'NONE', #363, 4.000000000000000000 ) ;
#294 = ORIENTED_EDGE ( 'NONE', *, *, #28, .T. ) ;
#295 = EDGE_CURVE ( 'NONE', #173, #157, #167, .T. ) ;
#296 = ORIENTED_EDGE ( 'NONE', *, *, #15, .T. ) ;
#297 = AXIS2_PLACEMENT_3D ( 'NONE', #275, #186, #158 ) ;
#298 = ADVANCED_FACE ( 'NONE', ( #141 ), #250, .T. ) ;
#299 = DIRECTION ( 'NONE',  ( -0.000000000000000000, -0.000000000000000000, -1.000000000000000000 ) ) ;
#300 = DIRECTION ( 'NONE',  ( 1.000000000000000000, 0.000000000000000000, 0.000000000000000000 ) ) ;
#301 = CARTESIAN_POINT ( 'NONE',  ( 0.000000000000000000, 0.000000000000000000, 5.000000000000000000 ) ) ;
#302 = CIRCLE ( 'NONE', #140, 7.000000000000000000 ) ;
#303 = DIRECTION ( 'NONE',  ( 0.000000000000000000, 0.000000000000000000, 1.000000000000000000 ) ) ;
#304 = DIRECTION ( 'NONE',  ( 1.000000000000000000, 0.000000000000000000, -0.000000000000000000 ) ) ;
#305 = EDGE_LOOP ( 'NONE', ( #203, #321 ) ) ;
#306 = COORDINATED_UNIVERSAL_TIME_OFFSET ( 1, 0, .AHEAD. ) ;
#307 = FACE_OUTER_BOUND ( 'NONE', #305, .T. ) ;
#308 = AXIS2_PLACEMENT_3D ( 'NONE', #216, #357, #273 ) ;
#309 = ORGANIZATION ( 'NEURÈENÝ', 'NEURÈENÝ', '' ) ;
#310 = PERSON_AND_ORGANIZATION_ROLE ( 'creator' ) ;
#311 = CARTESIAN_POINT ( 'NONE',  ( 0.000000000000000000, 0.000000000000000000, 5.000000000000000000 ) ) ;
#312 = CC_DESIGN_DATE_AND_TIME_ASSIGNMENT ( #373, #68, ( #376 ) ) ;
#313 = CARTESIAN_POINT ( 'NONE',  ( 0.000000000000000000, 0.000000000000000000, 5.000000000000000000 ) ) ;
#314 = PERSON_AND_ORGANIZATION ( #240, #309 ) ;
#315 = ORIENTED_EDGE ( 'NONE', *, *, #178, .T. ) ;
#316 = VERTEX_POINT ( 'NONE', #279 ) ;
#317 = ORIENTED_EDGE ( 'NONE', *, *, #205, .F. ) ;
#318 = EDGE_CURVE ( 'NONE', #351, #353, #241, .T. ) ;
#319 = VECTOR ( 'NONE', #131, 1000.000000000000000 ) ;
#320 = LOCAL_TIME ( 17, 19, 9.000000000000000000, #257 ) ;
#321 = ORIENTED_EDGE ( 'NONE', *, *, #258, .T. ) ;
#322 = VERTEX_POINT ( 'NONE', #122 ) ;
#323 = APPROVAL ( #371, 'NEURÈENÝ' ) ;
#324 = DIRECTION ( 'NONE',  ( 1.000000000000000000, 0.000000000000000000, 0.000000000000000000 ) ) ;
#325 = PRODUCT ( '2abf', '2abf', '', ( #366 ) ) ;
#326 = CYLINDRICAL_SURFACE ( 'NONE', #370, 2.500000000000000000 ) ;
#327 = CARTESIAN_POINT ( 'NONE',  ( 0.000000000000000000, 0.000000000000000000, 0.000000000000000000 ) ) ;
#328 = DIRECTION ( 'NONE',  ( 0.000000000000000000, 0.000000000000000000, -1.000000000000000000 ) ) ;
#329 = DIRECTION ( 'NONE',  ( -1.000000000000000000, 0.000000000000000000, 0.000000000000000000 ) ) ;
#330 = CARTESIAN_POINT ( 'NONE',  ( 4.000000000000000000, 4.898587196589412829E-16, 455.0000000000000000 ) ) ;
#331 = DIRECTION ( 'NONE',  ( 0.000000000000000000, 0.000000000000000000, 1.000000000000000000 ) ) ;
#332 = SECURITY_CLASSIFICATION ( '', '', #45 ) ;
#333 = CC_DESIGN_PERSON_AND_ORGANIZATION_ASSIGNMENT ( #166, #142, ( #376 ) ) ;
#334 = DIRECTION ( 'NONE',  ( 0.000000000000000000, 0.000000000000000000, -1.000000000000000000 ) ) ;
#335 = CARTESIAN_POINT ( 'NONE',  ( 0.000000000000000000, 0.000000000000000000, 0.000000000000000000 ) ) ;
#336 = CALENDAR_DATE ( 2022, 8, 7 ) ;
#337 = DIRECTION ( 'NONE',  ( 1.000000000000000000, 0.000000000000000000, 0.000000000000000000 ) ) ;
#338 = COORDINATED_UNIVERSAL_TIME_OFFSET ( 1, 0, .AHEAD. ) ;
#339 = DIRECTION ( 'NONE',  ( 0.000000000000000000, 0.000000000000000000, 1.000000000000000000 ) ) ;
#340 = VERTEX_POINT ( 'NONE', #248 ) ;
#341 = VECTOR ( 'NONE', #287, 1000.000000000000000 ) ;
#342 = LINE ( 'NONE', #13, #319 ) ;
#343 = ADVANCED_BREP_SHAPE_REPRESENTATION ( '2abf', ( #35, #380 ), #169 ) ;
#344 = ORIENTED_EDGE ( 'NONE', *, *, #57, .T. ) ;
#345 = ADVANCED_FACE ( 'NONE', ( #4 ), #40, .F. ) ;
#346 = CALENDAR_DATE ( 2022, 8, 7 ) ;
#347 = VERTEX_POINT ( 'NONE', #360 ) ;
#348 = CC_DESIGN_APPROVAL ( #246, ( #181 ) ) ;
#349 = ORIENTED_EDGE ( 'NONE', *, *, #192, .F. ) ;
#350 = ORIENTED_EDGE ( 'NONE', *, *, #15, .F. ) ;
#351 = VERTEX_POINT ( 'NONE', #62 ) ;
#352 = AXIS2_PLACEMENT_3D ( 'NONE', #249, #121, #129 ) ;
#353 = VERTEX_POINT ( 'NONE', #130 ) ;
#354 = DIRECTION ( 'NONE',  ( 1.000000000000000000, 0.000000000000000000, 0.000000000000000000 ) ) ;
#355 = DIRECTION ( 'NONE',  ( 1.000000000000000000, 0.000000000000000000, 0.000000000000000000 ) ) ;
#356 = AXIS2_PLACEMENT_3D ( 'NONE', #311, #228, #160 ) ;
#357 = DIRECTION ( 'NONE',  ( 0.000000000000000000, 0.000000000000000000, 1.000000000000000000 ) ) ;
#358 =( NAMED_UNIT ( * ) SI_UNIT ( $, .STERADIAN. ) SOLID_ANGLE_UNIT ( ) );
#359 = DIRECTION ( 'NONE',  ( 1.000000000000000000, 0.000000000000000000, 0.000000000000000000 ) ) ;
#360 = CARTESIAN_POINT ( 'NONE',  ( -4.000000000000000000, 0.000000000000000000, 455.0000000000000000 ) ) ;
#361 = CARTESIAN_POINT ( 'NONE',  ( 0.000000000000000000, 0.000000000000000000, 455.0000000000000000 ) ) ;
#362 = DIRECTION ( 'NONE',  ( 1.000000000000000000, 0.000000000000000000, 0.000000000000000000 ) ) ;
#363 = AXIS2_PLACEMENT_3D ( 'NONE', #182, #303, #300 ) ;
#364 = DIRECTION ( 'NONE',  ( 1.000000000000000000, 0.000000000000000000, 0.000000000000000000 ) ) ;
#365 = CARTESIAN_POINT ( 'NONE',  ( 0.000000000000000000, 0.000000000000000000, 455.0000000000000000 ) ) ;
#366 = MECHANICAL_CONTEXT ( 'NONE', #172, 'mechanical' ) ;
#367 = DIRECTION ( 'NONE',  ( 1.000000000000000000, 0.000000000000000000, 0.000000000000000000 ) ) ;
#368 = PERSON_AND_ORGANIZATION ( #240, #309 ) ;
#369 = FACE_OUTER_BOUND ( 'NONE', #113, .T. ) ;
#370 = AXIS2_PLACEMENT_3D ( 'NONE', #56, #191, #329 ) ;
#371 = APPROVAL_STATUS ( 'not_yet_approved' ) ;
#372 = EDGE_CURVE ( 'NONE', #340, #29, #159, .T. ) ;
#373 = DATE_AND_TIME ( #102, #227 ) ;
#374 = ORIENTED_EDGE ( 'NONE', *, *, #295, .T. ) ;
#375 = ORIENTED_EDGE ( 'NONE', *, *, #79, .F. ) ;
#376 = PRODUCT_DEFINITION ( 'NEZNÁMÝ', '', #181, #264 ) ;
#377 = VERTEX_POINT ( 'NONE', #6 ) ;
#378 = ADVANCED_FACE ( 'NONE', ( #212 ), #326, .F. ) ;
#379 = ORIENTED_EDGE ( 'NONE', *, *, #28, .F. ) ;
#380 = AXIS2_PLACEMENT_3D ( 'NONE', #75, #70, #137 ) ;
#381 = VERTEX_POINT ( 'NONE', #93 ) ;
ENDSEC;
END-ISO-10303-21;
