ISO-10303-21;
HEADER;
FILE_DESCRIPTION (( 'STEP AP203' ),
    '1' );
FILE_NAME ('e597.STEP',
    '2022-07-08T14:56:09',
    ( '' ),
    ( '' ),
    'SwSTEP 2.0',
    'SolidWorks 2019',
    '' );
FILE_SCHEMA (( 'CONFIG_CONTROL_DESIGN' ));
ENDSEC;

DATA;
#1 = PERSON_AND_ORGANIZATION_ROLE ( 'creator' ) ;
#2 = ADVANCED_FACE ( 'NONE', ( #318, #120 ), #55, .T. ) ;
#3 = DATE_AND_TIME ( #260, #222 ) ;
#4 = PLANE ( 'NONE',  #129 ) ;
#5 = AXIS2_PLACEMENT_3D ( 'NONE', #347, #233, #348 ) ;
#6 = COORDINATED_UNIVERSAL_TIME_OFFSET ( 1, 0, .AHEAD. ) ;
#7 = CIRCLE ( 'NONE', #66, 8.000000000000000000 ) ;
#8 = DIRECTION ( 'NONE',  ( 1.000000000000000000, 0.000000000000000000, 0.000000000000000000 ) ) ;
#9 = ADVANCED_FACE ( 'NONE', ( #254 ), #173, .F. ) ;
#10 = DIRECTION ( 'NONE',  ( 0.000000000000000000, 0.000000000000000000, 1.000000000000000000 ) ) ;
#11 = VECTOR ( 'NONE', #39, 1000.000000000000000 ) ;
#12 = EDGE_LOOP ( 'NONE', ( #196, #287, #335, #176 ) ) ;
#13 = ADVANCED_BREP_SHAPE_REPRESENTATION ( 'e597', ( #247, #327 ), #89 ) ;
#14 = EDGE_CURVE ( 'NONE', #225, #317, #102, .T. ) ;
#15 = FACE_OUTER_BOUND ( 'NONE', #47, .T. ) ;
#16 = ORIENTED_EDGE ( 'NONE', *, *, #30, .T. ) ;
#17 = FACE_OUTER_BOUND ( 'NONE', #185, .T. ) ;
#18 = DIRECTION ( 'NONE',  ( 0.000000000000000000, 0.000000000000000000, 1.000000000000000000 ) ) ;
#19 = VECTOR ( 'NONE', #296, 1000.000000000000000 ) ;
#20 = EDGE_LOOP ( 'NONE', ( #319, #41 ) ) ;
#21 = ADVANCED_FACE ( 'NONE', ( #112 ), #58, .T. ) ;
#22 = CARTESIAN_POINT ( 'NONE',  ( -5.000000000000000000, 0.000000000000000000, 5.499999999999949374 ) ) ;
#23 = ORIENTED_EDGE ( 'NONE', *, *, #294, .T. ) ;
#24 = ORGANIZATION ( 'NEURÈENÝ', 'NEURÈENÝ', '' ) ;
#25 =( NAMED_UNIT ( * ) PLANE_ANGLE_UNIT ( ) SI_UNIT ( $, .RADIAN. ) );
#26 = VERTEX_POINT ( 'NONE', #380 ) ;
#27 = AXIS2_PLACEMENT_3D ( 'NONE', #87, #83, #316 ) ;
#28 = DATE_AND_TIME ( #289, #342 ) ;
#29 = APPROVAL_PERSON_ORGANIZATION ( #295, #154, #155 ) ;
#30 = EDGE_CURVE ( 'NONE', #224, #225, #143, .T. ) ;
#31 = DIRECTION ( 'NONE',  ( 1.000000000000000000, 0.000000000000000000, 0.000000000000000000 ) ) ;
#32 = FACE_OUTER_BOUND ( 'NONE', #12, .T. ) ;
#33 = SECURITY_CLASSIFICATION_LEVEL ( 'unclassified' ) ;
#34 = DIRECTION ( 'NONE',  ( 1.000000000000000000, 0.000000000000000000, -0.000000000000000000 ) ) ;
#35 = PERSON_AND_ORGANIZATION_ROLE ( 'creator' ) ;
#36 = CIRCLE ( 'NONE', #271, 3.000000000000000444 ) ;
#37 = DIRECTION ( 'NONE',  ( 0.000000000000000000, 0.000000000000000000, -1.000000000000000000 ) ) ;
#38 = ORIENTED_EDGE ( 'NONE', *, *, #132, .F. ) ;
#39 = DIRECTION ( 'NONE',  ( -0.000000000000000000, -0.000000000000000000, -1.000000000000000000 ) ) ;
#40 = CLOSED_SHELL ( 'NONE', ( #241, #9, #351, #21, #125, #2, #275, #60, #128, #309, #52 ) ) ;
#41 = ORIENTED_EDGE ( 'NONE', *, *, #156, .T. ) ;
#42 = AXIS2_PLACEMENT_3D ( 'NONE', #184, #18, #101 ) ;
#43 = VERTEX_POINT ( 'NONE', #140 ) ;
#44 = EDGE_CURVE ( 'NONE', #114, #43, #312, .T. ) ;
#45 = CC_DESIGN_PERSON_AND_ORGANIZATION_ASSIGNMENT ( #326, #1, ( #320 ) ) ;
#46 = EDGE_LOOP ( 'NONE', ( #251, #139 ) ) ;
#47 = EDGE_LOOP ( 'NONE', ( #131, #106, #163, #273 ) ) ;
#48 = CARTESIAN_POINT ( 'NONE',  ( 0.000000000000000000, 0.000000000000000000, 0.000000000000000000 ) ) ;
#49 = AXIS2_PLACEMENT_3D ( 'NONE', #250, #337, #164 ) ;
#50 = CARTESIAN_POINT ( 'NONE',  ( -5.500000000000000000, 6.735557395310442023E-16, 5.499999999999949374 ) ) ;
#51 = DIRECTION ( 'NONE',  ( 1.000000000000000000, 0.000000000000000000, 0.000000000000000000 ) ) ;
#52 = ADVANCED_FACE ( 'NONE', ( #88 ), #203, .F. ) ;
#53 = APPLICATION_CONTEXT ( 'configuration controlled 3d designs of mechanical parts and assemblies' ) ;
#54 = DIRECTION ( 'NONE',  ( -0.000000000000000000, -0.000000000000000000, -1.000000000000000000 ) ) ;
#55 = PLANE ( 'NONE',  #146 ) ;
#56 = CIRCLE ( 'NONE', #189, 5.500000000000000000 ) ;
#57 = CARTESIAN_POINT ( 'NONE',  ( -3.000000000000000444, 0.000000000000000000, 655.0000000000000000 ) ) ;
#58 = CYLINDRICAL_SURFACE ( 'NONE', #259, 8.000000000000000000 ) ;
#59 = DATE_AND_TIME ( #356, #133 ) ;
#60 = ADVANCED_FACE ( 'NONE', ( #298 ), #354, .T. ) ;
#61 = DIRECTION ( 'NONE',  ( -1.000000000000000000, 0.000000000000000000, 0.000000000000000000 ) ) ;
#62 = AXIS2_PLACEMENT_3D ( 'NONE', #211, #261, #153 ) ;
#63 = APPROVAL_DATE_TIME ( #234, #64 ) ;
#64 = APPROVAL ( #179, 'NEURÈENÝ' ) ;
#65 = CARTESIAN_POINT ( 'NONE',  ( 0.000000000000000000, 0.000000000000000000, 655.0000000000000000 ) ) ;
#66 = AXIS2_PLACEMENT_3D ( 'NONE', #308, #10, #310 ) ;
#67 = DIRECTION ( 'NONE',  ( -0.000000000000000000, -0.000000000000000000, -1.000000000000000000 ) ) ;
#68 = PERSON_AND_ORGANIZATION_ROLE ( 'classification_officer' ) ;
#69 = CARTESIAN_POINT ( 'NONE',  ( 0.000000000000000000, 0.000000000000000000, 655.0000000000000000 ) ) ;
#70 = DIRECTION ( 'NONE',  ( 0.000000000000000000, 0.000000000000000000, 1.000000000000000000 ) ) ;
#71 = DIRECTION ( 'NONE',  ( 1.000000000000000000, 0.000000000000000000, 0.000000000000000000 ) ) ;
#72 = ORIENTED_EDGE ( 'NONE', *, *, #44, .F. ) ;
#73 = VECTOR ( 'NONE', #231, 1000.000000000000000 ) ;
#74 = ORIENTED_EDGE ( 'NONE', *, *, #79, .F. ) ;
#75 = DIRECTION ( 'NONE',  ( 1.000000000000000000, 0.000000000000000000, 0.000000000000000000 ) ) ;
#76 = AXIS2_PLACEMENT_3D ( 'NONE', #105, #218, #186 ) ;
#77 = ORIENTED_EDGE ( 'NONE', *, *, #188, .T. ) ;
#78 = VERTEX_POINT ( 'NONE', #159 ) ;
#79 = EDGE_CURVE ( 'NONE', #26, #317, #122, .T. ) ;
#80 = DIRECTION ( 'NONE',  ( 0.000000000000000000, -1.000000000000000000, 0.000000000000000000 ) ) ;
#81 = VERTEX_POINT ( 'NONE', #177 ) ;
#82 = AXIS2_PLACEMENT_3D ( 'NONE', #69, #37, #293 ) ;
#83 = DIRECTION ( 'NONE',  ( -0.000000000000000000, -0.000000000000000000, -1.000000000000000000 ) ) ;
#84 = ORIENTED_EDGE ( 'NONE', *, *, #98, .F. ) ;
#85 = VERTEX_POINT ( 'NONE', #325 ) ;
#86 = PRODUCT_RELATED_PRODUCT_CATEGORY ( 'detail', '', ( #378 ) ) ;
#87 = CARTESIAN_POINT ( 'NONE',  ( 0.000000000000000000, 0.000000000000000000, 655.0000000000000000 ) ) ;
#88 = FACE_OUTER_BOUND ( 'NONE', #170, .T. ) ;
#89 =( GEOMETRIC_REPRESENTATION_CONTEXT ( 3 ) GLOBAL_UNCERTAINTY_ASSIGNED_CONTEXT ( ( #197 ) ) GLOBAL_UNIT_ASSIGNED_CONTEXT ( ( #195, #25, #282 ) ) REPRESENTATION_CONTEXT ( 'NONE', 'WORKASPACE' ) );
#90 = DIRECTION ( 'NONE',  ( 0.000000000000000000, 0.000000000000000000, 1.000000000000000000 ) ) ;
#91 = DATE_TIME_ROLE ( 'creation_date' ) ;
#92 = FACE_OUTER_BOUND ( 'NONE', #303, .T. ) ;
#93 = COORDINATED_UNIVERSAL_TIME_OFFSET ( 1, 0, .AHEAD. ) ;
#94 = CARTESIAN_POINT ( 'NONE',  ( 5.000000000000000000, 6.123233995736766282E-16, 655.0000000000000000 ) ) ;
#95 = CIRCLE ( 'NONE', #76, 3.000000000000000444 ) ;
#96 = CALENDAR_DATE ( 2022, 8, 7 ) ;
#97 = LINE ( 'NONE', #94, #288 ) ;
#98 = EDGE_CURVE ( 'NONE', #43, #81, #97, .T. ) ;
#99 = APPLICATION_PROTOCOL_DEFINITION ( 'international standard', 'config_control_design', 1994, #53 ) ;
#100 = LINE ( 'NONE', #207, #19 ) ;
#101 = DIRECTION ( 'NONE',  ( 1.000000000000000000, 0.000000000000000000, 0.000000000000000000 ) ) ;
#102 = CIRCLE ( 'NONE', #237, 8.000000000000000000 ) ;
#103 = AXIS2_PLACEMENT_3D ( 'NONE', #249, #109, #223 ) ;
#104 = ORIENTED_EDGE ( 'NONE', *, *, #156, .F. ) ;
#105 = CARTESIAN_POINT ( 'NONE',  ( 0.000000000000000000, 0.000000000000000000, 0.000000000000000000 ) ) ;
#106 = ORIENTED_EDGE ( 'NONE', *, *, #132, .T. ) ;
#107 = CARTESIAN_POINT ( 'NONE',  ( 0.000000000000000000, 0.000000000000000000, 655.0000000000000000 ) ) ;
#108 = ORIENTED_EDGE ( 'NONE', *, *, #257, .T. ) ;
#109 = DIRECTION ( 'NONE',  ( 0.000000000000000000, 0.000000000000000000, 1.000000000000000000 ) ) ;
#110 = APPROVAL_PERSON_ORGANIZATION ( #381, #64, #330 ) ;
#111 = ORIENTED_EDGE ( 'NONE', *, *, #208, .T. ) ;
#112 = FACE_OUTER_BOUND ( 'NONE', #360, .T. ) ;
#113 = FACE_OUTER_BOUND ( 'NONE', #191, .T. ) ;
#114 = VERTEX_POINT ( 'NONE', #148 ) ;
#115 = CIRCLE ( 'NONE', #269, 0.5000000000000004441 ) ;
#116 = CARTESIAN_POINT ( 'NONE',  ( 0.000000000000000000, 0.000000000000000000, 5.499999999999949374 ) ) ;
#117 = CARTESIAN_POINT ( 'NONE',  ( 8.000000000000000000, 9.797174393178825657E-16, 5.000000000000000000 ) ) ;
#118 = AXIS2_PLACEMENT_3D ( 'NONE', #258, #313, #51 ) ;
#119 = CARTESIAN_POINT ( 'NONE',  ( 0.000000000000000000, 0.000000000000000000, 0.000000000000000000 ) ) ;
#120 = FACE_OUTER_BOUND ( 'NONE', #162, .T. ) ;
#121 = CIRCLE ( 'NONE', #333, 3.000000000000000444 ) ;
#122 = LINE ( 'NONE', #323, #358 ) ;
#123 = DIRECTION ( 'NONE',  ( -0.000000000000000000, -0.000000000000000000, -1.000000000000000000 ) ) ;
#124 = APPROVAL_STATUS ( 'not_yet_approved' ) ;
#125 = ADVANCED_FACE ( 'NONE', ( #32 ), #151, .T. ) ;
#126 = CC_DESIGN_APPROVAL ( #235, ( #270 ) ) ;
#127 = DIRECTION ( 'NONE',  ( -0.000000000000000000, -0.000000000000000000, -1.000000000000000000 ) ) ;
#128 = ADVANCED_FACE ( 'NONE', ( #263, #92 ), #4, .T. ) ;
#129 = AXIS2_PLACEMENT_3D ( 'NONE', #352, #238, #34 ) ;
#130 = DIRECTION ( 'NONE',  ( 0.000000000000000000, 0.000000000000000000, 1.000000000000000000 ) ) ;
#131 = ORIENTED_EDGE ( 'NONE', *, *, #201, .T. ) ;
#132 = EDGE_CURVE ( 'NONE', #187, #78, #100, .T. ) ;
#133 = LOCAL_TIME ( 16, 56, 9.000000000000000000, #93 ) ;
#134 = PLANE ( 'NONE',  #103 ) ;
#135 = ORIENTED_EDGE ( 'NONE', *, *, #44, .T. ) ;
#136 = CARTESIAN_POINT ( 'NONE',  ( 5.500000000000000000, 0.000000000000000000, 4.999999999999975131 ) ) ;
#137 = ORIENTED_EDGE ( 'NONE', *, *, #257, .F. ) ;
#138 = LOCAL_TIME ( 16, 56, 9.000000000000000000, #324 ) ;
#139 = ORIENTED_EDGE ( 'NONE', *, *, #142, .F. ) ;
#140 = CARTESIAN_POINT ( 'NONE',  ( 5.000000000000000000, 6.123233995736766282E-16, 655.0000000000000000 ) ) ;
#141 = ORIENTED_EDGE ( 'NONE', *, *, #14, .F. ) ;
#142 = EDGE_CURVE ( 'NONE', #187, #363, #368, .T. ) ;
#143 = LINE ( 'NONE', #117, #73 ) ;
#144 = CARTESIAN_POINT ( 'NONE',  ( 0.000000000000000000, 0.000000000000000000, 5.000000000000000000 ) ) ;
#145 = EDGE_LOOP ( 'NONE', ( #306, #198, #248, #230 ) ) ;
#146 = AXIS2_PLACEMENT_3D ( 'NONE', #226, #90, #345 ) ;
#147 = APPROVAL_DATE_TIME ( #59, #235 ) ;
#148 = CARTESIAN_POINT ( 'NONE',  ( -5.000000000000000000, 0.000000000000000000, 655.0000000000000000 ) ) ;
#149 = AXIS2_PLACEMENT_3D ( 'NONE', #374, #80, #346 ) ;
#150 = DATE_TIME_ROLE ( 'classification_date' ) ;
#151 = CYLINDRICAL_SURFACE ( 'NONE', #62, 8.000000000000000000 ) ;
#152 = MECHANICAL_CONTEXT ( 'NONE', #212, 'mechanical' ) ;
#153 = DIRECTION ( 'NONE',  ( -1.000000000000000000, 0.000000000000000000, 0.000000000000000000 ) ) ;
#154 = APPROVAL ( #292, 'NEURÈENÝ' ) ;
#155 = APPROVAL_ROLE ( '' ) ;
#156 = EDGE_CURVE ( 'NONE', #85, #217, #339, .T. ) ;
#157 = CARTESIAN_POINT ( 'NONE',  ( 0.000000000000000000, 0.000000000000000000, 655.0000000000000000 ) ) ;
#158 = CALENDAR_DATE ( 2022, 8, 7 ) ;
#159 = CARTESIAN_POINT ( 'NONE',  ( 3.000000000000000444, 3.673940397442060361E-16, 0.000000000000000000 ) ) ;
#160 = EDGE_LOOP ( 'NONE', ( #276, #340, #169, #104 ) ) ;
#161 = CARTESIAN_POINT ( 'NONE',  ( -3.000000000000000444, 0.000000000000000000, 0.000000000000000000 ) ) ;
#162 = EDGE_LOOP ( 'NONE', ( #243, #111 ) ) ;
#163 = ORIENTED_EDGE ( 'NONE', *, *, #301, .T. ) ;
#164 = DIRECTION ( 'NONE',  ( -1.000000000000000000, 0.000000000000000000, 0.000000000000000000 ) ) ;
#165 = ORIENTED_EDGE ( 'NONE', *, *, #221, .F. ) ;
#166 = CARTESIAN_POINT ( 'NONE',  ( 8.000000000000000000, 9.797174393178825657E-16, 5.000000000000000000 ) ) ;
#167 = ORIENTED_EDGE ( 'NONE', *, *, #365, .F. ) ;
#168 = AXIS2_PLACEMENT_3D ( 'NONE', #216, #305, #300 ) ;
#169 = ORIENTED_EDGE ( 'NONE', *, *, #328, .T. ) ;
#170 = EDGE_LOOP ( 'NONE', ( #38, #336, #194, #219 ) ) ;
#171 = CC_DESIGN_PERSON_AND_ORGANIZATION_ASSIGNMENT ( #206, #35, ( #270 ) ) ;
#172 = CYLINDRICAL_SURFACE ( 'NONE', #27, 5.000000000000000000 ) ;
#173 = TOROIDAL_SURFACE ( 'NONE', #118, 5.500000000000000000, 0.5000000000000000000 ) ;
#174 = DIRECTION ( 'NONE',  ( 1.224646799147353207E-16, 1.000000000000000000, -0.000000000000000000 ) ) ;
#175 = DIRECTION ( 'NONE',  ( -1.000000000000000000, 1.224646799147351482E-16, 0.000000000000000000 ) ) ;
#176 = ORIENTED_EDGE ( 'NONE', *, *, #244, .T. ) ;
#177 = CARTESIAN_POINT ( 'NONE',  ( 5.000000000000000000, 6.123233995736766282E-16, 5.499999999999949374 ) ) ;
#178 = PERSON_AND_ORGANIZATION_ROLE ( 'design_supplier' ) ;
#179 = APPROVAL_STATUS ( 'not_yet_approved' ) ;
#180 = COORDINATED_UNIVERSAL_TIME_OFFSET ( 1, 0, .AHEAD. ) ;
#181 = DIRECTION ( 'NONE',  ( 1.000000000000000000, 0.000000000000000000, 0.000000000000000000 ) ) ;
#182 = SECURITY_CLASSIFICATION ( '', '', #33 ) ;
#183 = CARTESIAN_POINT ( 'NONE',  ( 0.000000000000000000, 0.000000000000000000, 5.499999999999949374 ) ) ;
#184 = CARTESIAN_POINT ( 'NONE',  ( 0.000000000000000000, 0.000000000000000000, 0.000000000000000000 ) ) ;
#185 = EDGE_LOOP ( 'NONE', ( #256, #141 ) ) ;
#186 = DIRECTION ( 'NONE',  ( 1.000000000000000000, 0.000000000000000000, 0.000000000000000000 ) ) ;
#187 = VERTEX_POINT ( 'NONE', #357 ) ;
#188 = EDGE_CURVE ( 'NONE', #338, #81, #299, .T. ) ;
#189 = AXIS2_PLACEMENT_3D ( 'NONE', #214, #334, #75 ) ;
#190 = LINE ( 'NONE', #266, #11 ) ;
#191 = EDGE_LOOP ( 'NONE', ( #165, #246, #23, #137 ) ) ;
#192 = EDGE_CURVE ( 'NONE', #26, #224, #7, .T. ) ;
#193 = DIRECTION ( 'NONE',  ( 1.000000000000000000, 0.000000000000000000, 0.000000000000000000 ) ) ;
#194 = ORIENTED_EDGE ( 'NONE', *, *, #344, .T. ) ;
#195 =( LENGTH_UNIT ( ) NAMED_UNIT ( * ) SI_UNIT ( .MILLI., .METRE. ) );
#196 = ORIENTED_EDGE ( 'NONE', *, *, #30, .F. ) ;
#197 = UNCERTAINTY_MEASURE_WITH_UNIT (LENGTH_MEASURE( 1.000000000000000082E-05 ), #195, 'distance_accuracy_value', 'NONE');
#198 = ORIENTED_EDGE ( 'NONE', *, *, #371, .T. ) ;
#199 = DIRECTION ( 'NONE',  ( 1.000000000000000000, 0.000000000000000000, 0.000000000000000000 ) ) ;
#200 = LINE ( 'NONE', #57, #359 ) ;
#201 = EDGE_CURVE ( 'NONE', #363, #187, #121, .T. ) ;
#202 = CARTESIAN_POINT ( 'NONE',  ( -8.000000000000000000, 0.000000000000000000, 0.000000000000000000 ) ) ;
#203 = CYLINDRICAL_SURFACE ( 'NONE', #82, 3.000000000000000444 ) ;
#204 = DIRECTION ( 'NONE',  ( 0.000000000000000000, 0.000000000000000000, 1.000000000000000000 ) ) ;
#205 = DIRECTION ( 'NONE',  ( -0.000000000000000000, -0.000000000000000000, -1.000000000000000000 ) ) ;
#206 = PERSON_AND_ORGANIZATION ( #364, #24 ) ;
#207 = CARTESIAN_POINT ( 'NONE',  ( 3.000000000000000444, 3.673940397442060361E-16, 655.0000000000000000 ) ) ;
#208 = EDGE_CURVE ( 'NONE', #224, #26, #253, .T. ) ;
#209 = AXIS2_PLACEMENT_3D ( 'NONE', #157, #264, #8 ) ;
#210 = PERSON_AND_ORGANIZATION ( #364, #24 ) ;
#211 = CARTESIAN_POINT ( 'NONE',  ( 0.000000000000000000, 0.000000000000000000, 5.000000000000000000 ) ) ;
#212 = APPLICATION_CONTEXT ( 'configuration controlled 3d designs of mechanical parts and assemblies' ) ;
#213 = PERSON_AND_ORGANIZATION ( #364, #24 ) ;
#214 = CARTESIAN_POINT ( 'NONE',  ( 0.000000000000000000, 0.000000000000000000, 5.000000000000000000 ) ) ;
#215 = AXIS2_PLACEMENT_3D ( 'NONE', #331, #70, #181 ) ;
#216 = CARTESIAN_POINT ( 'NONE',  ( 0.000000000000000000, 0.000000000000000000, 5.000000000000000000 ) ) ;
#217 = VERTEX_POINT ( 'NONE', #136 ) ;
#218 = DIRECTION ( 'NONE',  ( -0.000000000000000000, -0.000000000000000000, -1.000000000000000000 ) ) ;
#219 = ORIENTED_EDGE ( 'NONE', *, *, #365, .T. ) ;
#220 = CYLINDRICAL_SURFACE ( 'NONE', #49, 3.000000000000000444 ) ;
#221 = EDGE_CURVE ( 'NONE', #43, #114, #291, .T. ) ;
#222 = LOCAL_TIME ( 16, 56, 9.000000000000000000, #350 ) ;
#223 = DIRECTION ( 'NONE',  ( 1.000000000000000000, 0.000000000000000000, -0.000000000000000000 ) ) ;
#224 = VERTEX_POINT ( 'NONE', #166 ) ;
#225 = VERTEX_POINT ( 'NONE', #274 ) ;
#226 = CARTESIAN_POINT ( 'NONE',  ( 0.000000000000000000, 0.000000000000000000, 5.000000000000000000 ) ) ;
#227 = DESIGN_CONTEXT ( 'detailed design', #53, 'design' ) ;
#228 = CARTESIAN_POINT ( 'NONE',  ( 0.000000000000000000, 0.000000000000000000, 0.000000000000000000 ) ) ;
#229 = TOROIDAL_SURFACE ( 'NONE', #307, 5.500000000000000000, 0.5000000000000000000 ) ;
#230 = ORIENTED_EDGE ( 'NONE', *, *, #328, .F. ) ;
#231 = DIRECTION ( 'NONE',  ( -0.000000000000000000, -0.000000000000000000, -1.000000000000000000 ) ) ;
#232 = DIRECTION ( 'NONE',  ( 0.000000000000000000, 0.000000000000000000, 1.000000000000000000 ) ) ;
#233 = DIRECTION ( 'NONE',  ( 0.000000000000000000, 0.000000000000000000, 1.000000000000000000 ) ) ;
#234 = DATE_AND_TIME ( #96, #138 ) ;
#235 = APPROVAL ( #124, 'NEURÈENÝ' ) ;
#236 = PRODUCT_DEFINITION_SHAPE ( 'NONE', 'NONE',  #270 ) ;
#237 = AXIS2_PLACEMENT_3D ( 'NONE', #48, #279, #199 ) ;
#238 = DIRECTION ( 'NONE',  ( 0.000000000000000000, 0.000000000000000000, 1.000000000000000000 ) ) ;
#239 = CIRCLE ( 'NONE', #42, 8.000000000000000000 ) ;
#240 = DIRECTION ( 'NONE',  ( 1.000000000000000000, 0.000000000000000000, 0.000000000000000000 ) ) ;
#241 = ADVANCED_FACE ( 'NONE', ( #15 ), #220, .F. ) ;
#242 = CARTESIAN_POINT ( 'NONE',  ( 0.000000000000000000, 0.000000000000000000, 655.0000000000000000 ) ) ;
#243 = ORIENTED_EDGE ( 'NONE', *, *, #192, .T. ) ;
#244 = EDGE_CURVE ( 'NONE', #317, #225, #239, .T. ) ;
#245 = CC_DESIGN_APPROVAL ( #154, ( #182 ) ) ;
#246 = ORIENTED_EDGE ( 'NONE', *, *, #98, .T. ) ;
#247 = MANIFOLD_SOLID_BREP ( 'Odebrat vysunutím3', #40 ) ;
#248 = ORIENTED_EDGE ( 'NONE', *, *, #252, .F. ) ;
#249 = CARTESIAN_POINT ( 'NONE',  ( 0.000000000000000000, 0.000000000000000000, 0.000000000000000000 ) ) ;
#250 = CARTESIAN_POINT ( 'NONE',  ( 0.000000000000000000, 0.000000000000000000, 655.0000000000000000 ) ) ;
#251 = ORIENTED_EDGE ( 'NONE', *, *, #201, .F. ) ;
#252 = EDGE_CURVE ( 'NONE', #217, #85, #56, .T. ) ;
#253 = CIRCLE ( 'NONE', #168, 8.000000000000000000 ) ;
#254 = FACE_OUTER_BOUND ( 'NONE', #145, .T. ) ;
#255 = DIRECTION ( 'NONE',  ( 1.000000000000000000, 0.000000000000000000, 0.000000000000000000 ) ) ;
#256 = ORIENTED_EDGE ( 'NONE', *, *, #244, .F. ) ;
#257 = EDGE_CURVE ( 'NONE', #114, #338, #190, .T. ) ;
#258 = CARTESIAN_POINT ( 'NONE',  ( 0.000000000000000000, 0.000000000000000000, 5.499999999999949374 ) ) ;
#259 = AXIS2_PLACEMENT_3D ( 'NONE', #144, #377, #321 ) ;
#260 = CALENDAR_DATE ( 2022, 8, 7 ) ;
#261 = DIRECTION ( 'NONE',  ( -0.000000000000000000, -0.000000000000000000, -1.000000000000000000 ) ) ;
#262 = APPROVAL_ROLE ( '' ) ;
#263 = FACE_BOUND ( 'NONE', #46, .T. ) ;
#264 = DIRECTION ( 'NONE',  ( 0.000000000000000000, 0.000000000000000000, 1.000000000000000000 ) ) ;
#265 = AXIS2_PLACEMENT_3D ( 'NONE', #183, #130, #362 ) ;
#266 = CARTESIAN_POINT ( 'NONE',  ( -5.000000000000000000, 0.000000000000000000, 655.0000000000000000 ) ) ;
#267 = DATE_AND_TIME ( #158, #315 ) ;
#268 = VERTEX_POINT ( 'NONE', #161 ) ;
#269 = AXIS2_PLACEMENT_3D ( 'NONE', #50, #174, #175 ) ;
#270 = PRODUCT_DEFINITION ( 'NEZNÁMÝ', '', #320, #227 ) ;
#271 = AXIS2_PLACEMENT_3D ( 'NONE', #228, #54, #369 ) ;
#272 = DIRECTION ( 'NONE',  ( 0.000000000000000000, 0.000000000000000000, 1.000000000000000000 ) ) ;
#273 = ORIENTED_EDGE ( 'NONE', *, *, #344, .F. ) ;
#274 = CARTESIAN_POINT ( 'NONE',  ( 8.000000000000000000, 9.797174393178825657E-16, 0.000000000000000000 ) ) ;
#275 = ADVANCED_FACE ( 'NONE', ( #332, #17 ), #134, .F. ) ;
#276 = ORIENTED_EDGE ( 'NONE', *, *, #371, .F. ) ;
#277 = AXIS2_PLACEMENT_3D ( 'NONE', #290, #127, #240 ) ;
#278 = CC_DESIGN_SECURITY_CLASSIFICATION ( #182, ( #320 ) ) ;
#279 = DIRECTION ( 'NONE',  ( 0.000000000000000000, 0.000000000000000000, 1.000000000000000000 ) ) ;
#280 = SHAPE_DEFINITION_REPRESENTATION ( #236, #13 ) ;
#281 = EDGE_LOOP ( 'NONE', ( #84, #72, #108, #77 ) ) ;
#282 =( NAMED_UNIT ( * ) SI_UNIT ( $, .STERADIAN. ) SOLID_ANGLE_UNIT ( ) );
#283 = CC_DESIGN_PERSON_AND_ORGANIZATION_ASSIGNMENT ( #210, #68, ( #182 ) ) ;
#284 = CC_DESIGN_DATE_AND_TIME_ASSIGNMENT ( #3, #91, ( #270 ) ) ;
#285 = APPROVAL_PERSON_ORGANIZATION ( #213, #235, #262 ) ;
#286 = APPLICATION_PROTOCOL_DEFINITION ( 'international standard', 'config_control_design', 1994, #212 ) ;
#287 = ORIENTED_EDGE ( 'NONE', *, *, #192, .F. ) ;
#288 = VECTOR ( 'NONE', #67, 1000.000000000000000 ) ;
#289 = CALENDAR_DATE ( 2022, 8, 7 ) ;
#290 = CARTESIAN_POINT ( 'NONE',  ( 0.000000000000000000, 0.000000000000000000, 5.000000000000000000 ) ) ;
#291 = CIRCLE ( 'NONE', #353, 5.000000000000000000 ) ;
#292 = APPROVAL_STATUS ( 'not_yet_approved' ) ;
#293 = DIRECTION ( 'NONE',  ( -1.000000000000000000, 0.000000000000000000, 0.000000000000000000 ) ) ;
#294 = EDGE_CURVE ( 'NONE', #81, #338, #375, .T. ) ;
#295 = PERSON_AND_ORGANIZATION ( #364, #24 ) ;
#296 = DIRECTION ( 'NONE',  ( 0.000000000000000000, 0.000000000000000000, -1.000000000000000000 ) ) ;
#297 = PERSON_AND_ORGANIZATION ( #364, #24 ) ;
#298 = FACE_OUTER_BOUND ( 'NONE', #281, .T. ) ;
#299 = CIRCLE ( 'NONE', #215, 5.000000000000000000 ) ;
#300 = DIRECTION ( 'NONE',  ( 1.000000000000000000, 0.000000000000000000, 0.000000000000000000 ) ) ;
#301 = EDGE_CURVE ( 'NONE', #78, #268, #95, .T. ) ;
#302 = DIRECTION ( 'NONE',  ( 0.000000000000000000, 0.000000000000000000, 1.000000000000000000 ) ) ;
#303 = EDGE_LOOP ( 'NONE', ( #135, #372 ) ) ;
#304 = CC_DESIGN_PERSON_AND_ORGANIZATION_ASSIGNMENT ( #322, #329, ( #378 ) ) ;
#305 = DIRECTION ( 'NONE',  ( 0.000000000000000000, 0.000000000000000000, 1.000000000000000000 ) ) ;
#306 = ORIENTED_EDGE ( 'NONE', *, *, #188, .F. ) ;
#307 = AXIS2_PLACEMENT_3D ( 'NONE', #116, #232, #255 ) ;
#308 = CARTESIAN_POINT ( 'NONE',  ( 0.000000000000000000, 0.000000000000000000, 5.000000000000000000 ) ) ;
#309 = ADVANCED_FACE ( 'NONE', ( #341 ), #229, .F. ) ;
#310 = DIRECTION ( 'NONE',  ( 1.000000000000000000, 0.000000000000000000, 0.000000000000000000 ) ) ;
#311 = ORIENTED_EDGE ( 'NONE', *, *, #14, .T. ) ;
#312 = CIRCLE ( 'NONE', #5, 5.000000000000000000 ) ;
#313 = DIRECTION ( 'NONE',  ( 0.000000000000000000, 0.000000000000000000, 1.000000000000000000 ) ) ;
#314 = CIRCLE ( 'NONE', #149, 0.5000000000000004441 ) ;
#315 = LOCAL_TIME ( 16, 56, 9.000000000000000000, #6 ) ;
#316 = DIRECTION ( 'NONE',  ( -1.000000000000000000, 0.000000000000000000, 0.000000000000000000 ) ) ;
#317 = VERTEX_POINT ( 'NONE', #202 ) ;
#318 = FACE_BOUND ( 'NONE', #20, .T. ) ;
#319 = ORIENTED_EDGE ( 'NONE', *, *, #252, .T. ) ;
#320 = PRODUCT_DEFINITION_FORMATION_WITH_SPECIFIED_SOURCE ( 'LIBOVOLNÝ', '', #378, .NOT_KNOWN. ) ;
#321 = DIRECTION ( 'NONE',  ( -1.000000000000000000, 0.000000000000000000, 0.000000000000000000 ) ) ;
#322 = PERSON_AND_ORGANIZATION ( #364, #24 ) ;
#323 = CARTESIAN_POINT ( 'NONE',  ( -8.000000000000000000, 0.000000000000000000, 5.000000000000000000 ) ) ;
#324 = COORDINATED_UNIVERSAL_TIME_OFFSET ( 1, 0, .AHEAD. ) ;
#325 = CARTESIAN_POINT ( 'NONE',  ( -5.500000000000000000, 6.735557395310442023E-16, 4.999999999999975131 ) ) ;
#326 = PERSON_AND_ORGANIZATION ( #364, #24 ) ;
#327 = AXIS2_PLACEMENT_3D ( 'NONE', #119, #204, #31 ) ;
#328 = EDGE_CURVE ( 'NONE', #81, #217, #314, .T. ) ;
#329 = PERSON_AND_ORGANIZATION_ROLE ( 'design_owner' ) ;
#330 = APPROVAL_ROLE ( '' ) ;
#331 = CARTESIAN_POINT ( 'NONE',  ( 0.000000000000000000, 0.000000000000000000, 5.499999999999949374 ) ) ;
#332 = FACE_BOUND ( 'NONE', #366, .T. ) ;
#333 = AXIS2_PLACEMENT_3D ( 'NONE', #107, #272, #193 ) ;
#334 = DIRECTION ( 'NONE',  ( -0.000000000000000000, -0.000000000000000000, -1.000000000000000000 ) ) ;
#335 = ORIENTED_EDGE ( 'NONE', *, *, #79, .T. ) ;
#336 = ORIENTED_EDGE ( 'NONE', *, *, #142, .T. ) ;
#337 = DIRECTION ( 'NONE',  ( 0.000000000000000000, 0.000000000000000000, -1.000000000000000000 ) ) ;
#338 = VERTEX_POINT ( 'NONE', #22 ) ;
#339 = CIRCLE ( 'NONE', #277, 5.500000000000000000 ) ;
#340 = ORIENTED_EDGE ( 'NONE', *, *, #294, .F. ) ;
#341 = FACE_OUTER_BOUND ( 'NONE', #160, .T. ) ;
#342 = LOCAL_TIME ( 16, 56, 9.000000000000000000, #180 ) ;
#343 = CARTESIAN_POINT ( 'NONE',  ( -3.000000000000000444, 0.000000000000000000, 655.0000000000000000 ) ) ;
#344 = EDGE_CURVE ( 'NONE', #363, #268, #200, .T. ) ;
#345 = DIRECTION ( 'NONE',  ( 1.000000000000000000, 0.000000000000000000, -0.000000000000000000 ) ) ;
#346 = DIRECTION ( 'NONE',  ( 0.000000000000000000, 0.000000000000000000, -1.000000000000000000 ) ) ;
#347 = CARTESIAN_POINT ( 'NONE',  ( 0.000000000000000000, 0.000000000000000000, 655.0000000000000000 ) ) ;
#348 = DIRECTION ( 'NONE',  ( 1.000000000000000000, 0.000000000000000000, 0.000000000000000000 ) ) ;
#349 = CC_DESIGN_APPROVAL ( #64, ( #320 ) ) ;
#350 = COORDINATED_UNIVERSAL_TIME_OFFSET ( 1, 0, .AHEAD. ) ;
#351 = ADVANCED_FACE ( 'NONE', ( #113 ), #172, .T. ) ;
#352 = CARTESIAN_POINT ( 'NONE',  ( 0.000000000000000000, 0.000000000000000000, 655.0000000000000000 ) ) ;
#353 = AXIS2_PLACEMENT_3D ( 'NONE', #242, #302, #71 ) ;
#354 = CYLINDRICAL_SURFACE ( 'NONE', #379, 5.000000000000000000 ) ;
#355 = CC_DESIGN_DATE_AND_TIME_ASSIGNMENT ( #28, #150, ( #182 ) ) ;
#356 = CALENDAR_DATE ( 2022, 8, 7 ) ;
#357 = CARTESIAN_POINT ( 'NONE',  ( 3.000000000000000444, 3.673940397442060361E-16, 655.0000000000000000 ) ) ;
#358 = VECTOR ( 'NONE', #123, 1000.000000000000000 ) ;
#359 = VECTOR ( 'NONE', #376, 1000.000000000000000 ) ;
#360 = EDGE_LOOP ( 'NONE', ( #367, #16, #311, #74 ) ) ;
#361 = APPROVAL_DATE_TIME ( #267, #154 ) ;
#362 = DIRECTION ( 'NONE',  ( 1.000000000000000000, 0.000000000000000000, 0.000000000000000000 ) ) ;
#363 = VERTEX_POINT ( 'NONE', #343 ) ;
#364 = PERSON ( 'NEURÈENÝ', 'NEURÈENÝ', 'NEURÈENÝ', ('NEURÈENÝ'), ('NEURÈENÝ'), ('NEURÈENÝ') ) ;
#365 = EDGE_CURVE ( 'NONE', #268, #78, #36, .T. ) ;
#366 = EDGE_LOOP ( 'NONE', ( #167, #370 ) ) ;
#367 = ORIENTED_EDGE ( 'NONE', *, *, #208, .F. ) ;
#368 = CIRCLE ( 'NONE', #209, 3.000000000000000444 ) ;
#369 = DIRECTION ( 'NONE',  ( 1.000000000000000000, 0.000000000000000000, 0.000000000000000000 ) ) ;
#370 = ORIENTED_EDGE ( 'NONE', *, *, #301, .F. ) ;
#371 = EDGE_CURVE ( 'NONE', #338, #85, #115, .T. ) ;
#372 = ORIENTED_EDGE ( 'NONE', *, *, #221, .T. ) ;
#373 = CC_DESIGN_PERSON_AND_ORGANIZATION_ASSIGNMENT ( #297, #178, ( #320 ) ) ;
#374 = CARTESIAN_POINT ( 'NONE',  ( 5.500000000000000000, 0.000000000000000000, 5.499999999999949374 ) ) ;
#375 = CIRCLE ( 'NONE', #265, 5.000000000000000000 ) ;
#376 = DIRECTION ( 'NONE',  ( 0.000000000000000000, 0.000000000000000000, -1.000000000000000000 ) ) ;
#377 = DIRECTION ( 'NONE',  ( -0.000000000000000000, -0.000000000000000000, -1.000000000000000000 ) ) ;
#378 = PRODUCT ( 'e597', 'e597', '', ( #152 ) ) ;
#379 = AXIS2_PLACEMENT_3D ( 'NONE', #65, #205, #61 ) ;
#380 = CARTESIAN_POINT ( 'NONE',  ( -8.000000000000000000, 0.000000000000000000, 5.000000000000000000 ) ) ;
#381 = PERSON_AND_ORGANIZATION ( #364, #24 ) ;
ENDSEC;
END-ISO-10303-21;
