ISO-10303-21;
HEADER;
FILE_DESCRIPTION (( 'STEP AP203' ),
    '1' );
FILE_NAME ('8a47.STEP',
    '2022-07-08T15:44:10',
    ( '' ),
    ( '' ),
    'SwSTEP 2.0',
    'SolidWorks 2019',
    '' );
FILE_SCHEMA (( 'CONFIG_CONTROL_DESIGN' ));
ENDSEC;

DATA;
#1 = DIRECTION ( 'NONE',  ( 0.000000000000000000, 0.000000000000000000, 1.000000000000000000 ) ) ;
#2 = ORIENTED_EDGE ( 'NONE', *, *, #52, .T. ) ;
#3 = FACE_BOUND ( 'NONE', #334, .T. ) ;
#4 = ORGANIZATION ( 'NEURÈENÝ', 'NEURÈENÝ', '' ) ;
#5 = DATE_TIME_ROLE ( 'classification_date' ) ;
#6 = DIRECTION ( 'NONE',  ( 1.000000000000000000, 0.000000000000000000, 0.000000000000000000 ) ) ;
#7 = PERSON_AND_ORGANIZATION_ROLE ( 'classification_officer' ) ;
#8 = CARTESIAN_POINT ( 'NONE',  ( -2.500000000000000000, 0.000000000000000000, 353.0000000000000000 ) ) ;
#9 = DIRECTION ( 'NONE',  ( -1.000000000000000000, 0.000000000000000000, 0.000000000000000000 ) ) ;
#10 = AXIS2_PLACEMENT_3D ( 'NONE', #136, #319, #378 ) ;
#11 = LOCAL_TIME ( 17, 44, 10.00000000000000000, #297 ) ;
#12 = DIRECTION ( 'NONE',  ( -0.000000000000000000, -0.000000000000000000, -1.000000000000000000 ) ) ;
#13 = EDGE_CURVE ( 'NONE', #141, #258, #102, .T. ) ;
#14 = DIRECTION ( 'NONE',  ( 0.000000000000000000, 0.000000000000000000, 1.000000000000000000 ) ) ;
#15 = ORIENTED_EDGE ( 'NONE', *, *, #128, .F. ) ;
#16 = CARTESIAN_POINT ( 'NONE',  ( 5.000000000000000000, 6.123233995736766282E-16, 3.000000000000000000 ) ) ;
#17 = AXIS2_PLACEMENT_3D ( 'NONE', #153, #143, #35 ) ;
#18 = FACE_OUTER_BOUND ( 'NONE', #192, .T. ) ;
#19 = TOROIDAL_SURFACE ( 'NONE', #216, 2.799999999999999822, 0.2999999999999999889 ) ;
#20 = APPROVAL ( #348, 'NEURÈENÝ' ) ;
#21 = PLANE ( 'NONE',  #84 ) ;
#22 = ORIENTED_EDGE ( 'NONE', *, *, #298, .F. ) ;
#23 = DIRECTION ( 'NONE',  ( -0.000000000000000000, -0.000000000000000000, -1.000000000000000000 ) ) ;
#24 = DIRECTION ( 'NONE',  ( 1.000000000000000000, 0.000000000000000000, 0.000000000000000000 ) ) ;
#25 = AXIS2_PLACEMENT_3D ( 'NONE', #280, #43, #161 ) ;
#26 = EDGE_LOOP ( 'NONE', ( #106, #29 ) ) ;
#27 = PERSON_AND_ORGANIZATION ( #342, #4 ) ;
#28 = ORIENTED_EDGE ( 'NONE', *, *, #181, .F. ) ;
#29 = ORIENTED_EDGE ( 'NONE', *, *, #135, .F. ) ;
#30 = CALENDAR_DATE ( 2022, 8, 7 ) ;
#31 = CIRCLE ( 'NONE', #10, 2.500000000000000000 ) ;
#32 = CARTESIAN_POINT ( 'NONE',  ( -5.000000000000000000, 0.000000000000000000, 0.000000000000000000 ) ) ;
#33 = LOCAL_TIME ( 17, 44, 10.00000000000000000, #293 ) ;
#34 = APPROVAL_STATUS ( 'not_yet_approved' ) ;
#35 = DIRECTION ( 'NONE',  ( 1.000000000000000000, 0.000000000000000000, -0.000000000000000000 ) ) ;
#36 = FACE_OUTER_BOUND ( 'NONE', #335, .T. ) ;
#37 = APPROVAL ( #89, 'NEURÈENÝ' ) ;
#38 = DIRECTION ( 'NONE',  ( 0.000000000000000000, 0.000000000000000000, -1.000000000000000000 ) ) ;
#39 = DIRECTION ( 'NONE',  ( 1.000000000000000000, 0.000000000000000000, 0.000000000000000000 ) ) ;
#40 = ORIENTED_EDGE ( 'NONE', *, *, #135, .T. ) ;
#41 = EDGE_LOOP ( 'NONE', ( #352, #2, #305, #205 ) ) ;
#42 = VECTOR ( 'NONE', #23, 1000.000000000000000 ) ;
#43 = DIRECTION ( 'NONE',  ( 0.000000000000000000, 0.000000000000000000, 1.000000000000000000 ) ) ;
#44 = DIRECTION ( 'NONE',  ( 1.000000000000000000, 0.000000000000000000, 0.000000000000000000 ) ) ;
#45 = EDGE_CURVE ( 'NONE', #281, #57, #215, .T. ) ;
#46 = ORIENTED_EDGE ( 'NONE', *, *, #350, .F. ) ;
#47 = LINE ( 'NONE', #311, #195 ) ;
#48 = CC_DESIGN_APPROVAL ( #37, ( #353 ) ) ;
#49 = CARTESIAN_POINT ( 'NONE',  ( 2.799999999999999822, 0.000000000000000000, 3.000000000000012434 ) ) ;
#50 = DIRECTION ( 'NONE',  ( 1.000000000000000000, 0.000000000000000000, 0.000000000000000000 ) ) ;
#51 = EDGE_LOOP ( 'NONE', ( #189, #374 ) ) ;
#52 = EDGE_CURVE ( 'NONE', #286, #347, #233, .T. ) ;
#53 = EDGE_LOOP ( 'NONE', ( #371, #248, #157, #15 ) ) ;
#54 = CALENDAR_DATE ( 2022, 8, 7 ) ;
#55 = CIRCLE ( 'NONE', #318, 2.799999999999999822 ) ;
#56 = ORIENTED_EDGE ( 'NONE', *, *, #142, .T. ) ;
#57 = VERTEX_POINT ( 'NONE', #49 ) ;
#58 = DIRECTION ( 'NONE',  ( 1.000000000000000000, 0.000000000000000000, 0.000000000000000000 ) ) ;
#59 = FACE_OUTER_BOUND ( 'NONE', #218, .T. ) ;
#60 = EDGE_CURVE ( 'NONE', #57, #347, #360, .T. ) ;
#61 = AXIS2_PLACEMENT_3D ( 'NONE', #208, #299, #115 ) ;
#62 = DIRECTION ( 'NONE',  ( -0.000000000000000000, -0.000000000000000000, -1.000000000000000000 ) ) ;
#63 = DIRECTION ( 'NONE',  ( 1.000000000000000000, 0.000000000000000000, 0.000000000000000000 ) ) ;
#64 = APPROVAL ( #34, 'NEURÈENÝ' ) ;
#65 = DIRECTION ( 'NONE',  ( -1.000000000000000000, 0.000000000000000000, 0.000000000000000000 ) ) ;
#66 = LINE ( 'NONE', #207, #253 ) ;
#67 = CIRCLE ( 'NONE', #125, 5.000000000000000000 ) ;
#68 = CIRCLE ( 'NONE', #25, 5.000000000000000000 ) ;
#69 = DIRECTION ( 'NONE',  ( 0.000000000000000000, 0.000000000000000000, 1.000000000000000000 ) ) ;
#70 = EDGE_LOOP ( 'NONE', ( #252, #304 ) ) ;
#71 = EDGE_CURVE ( 'NONE', #314, #100, #31, .T. ) ;
#72 = TOROIDAL_SURFACE ( 'NONE', #122, 2.799999999999999822, 0.2999999999999999889 ) ;
#73 = CARTESIAN_POINT ( 'NONE',  ( 2.500000000000000000, 3.061616997868383141E-16, 3.300000000000025135 ) ) ;
#74 = ADVANCED_FACE ( 'NONE', ( #226 ), #239, .T. ) ;
#75 = DIRECTION ( 'NONE',  ( 0.000000000000000000, 0.000000000000000000, 1.000000000000000000 ) ) ;
#76 = CARTESIAN_POINT ( 'NONE',  ( -2.799999999999999822, 3.429011037612588783E-16, 3.300000000000025135 ) ) ;
#77 = DIRECTION ( 'NONE',  ( -0.000000000000000000, -0.000000000000000000, -1.000000000000000000 ) ) ;
#78 = VERTEX_POINT ( 'NONE', #214 ) ;
#79 = CARTESIAN_POINT ( 'NONE',  ( 0.000000000000000000, 0.000000000000000000, 3.000000000000000000 ) ) ;
#80 = ORIENTED_EDGE ( 'NONE', *, *, #373, .T. ) ;
#81 = CALENDAR_DATE ( 2022, 8, 7 ) ;
#82 = CARTESIAN_POINT ( 'NONE',  ( 0.000000000000000000, 0.000000000000000000, 3.000000000000000000 ) ) ;
#83 = CLOSED_SHELL ( 'NONE', ( #160, #277, #113, #74, #227, #292, #308, #186, #118, #284, #108 ) ) ;
#84 = AXIS2_PLACEMENT_3D ( 'NONE', #333, #69, #162 ) ;
#85 = EDGE_LOOP ( 'NONE', ( #170, #343, #177, #101 ) ) ;
#86 = DATE_TIME_ROLE ( 'creation_date' ) ;
#87 = PRODUCT_DEFINITION ( 'NEZNÁMÝ', '', #353, #232 ) ;
#88 = DIRECTION ( 'NONE',  ( 0.000000000000000000, 0.000000000000000000, 1.000000000000000000 ) ) ;
#89 = APPROVAL_STATUS ( 'not_yet_approved' ) ;
#90 = CARTESIAN_POINT ( 'NONE',  ( 0.000000000000000000, 0.000000000000000000, 3.000000000000000000 ) ) ;
#91 = FACE_OUTER_BOUND ( 'NONE', #70, .T. ) ;
#92 = AXIS2_PLACEMENT_3D ( 'NONE', #151, #62, #9 ) ;
#93 = CC_DESIGN_PERSON_AND_ORGANIZATION_ASSIGNMENT ( #201, #140, ( #353 ) ) ;
#94 = CARTESIAN_POINT ( 'NONE',  ( 2.500000000000000000, 3.061616997868383141E-16, 353.0000000000000000 ) ) ;
#95 = DIRECTION ( 'NONE',  ( 0.000000000000000000, 0.000000000000000000, 1.000000000000000000 ) ) ;
#96 = CALENDAR_DATE ( 2022, 8, 7 ) ;
#97 = FACE_OUTER_BOUND ( 'NONE', #41, .T. ) ;
#98 = CC_DESIGN_SECURITY_CLASSIFICATION ( #261, ( #353 ) ) ;
#99 = EDGE_CURVE ( 'NONE', #281, #286, #145, .T. ) ;
#100 = VERTEX_POINT ( 'NONE', #180 ) ;
#101 = ORIENTED_EDGE ( 'NONE', *, *, #350, .T. ) ;
#102 = CIRCLE ( 'NONE', #301, 5.000000000000000000 ) ;
#103 = AXIS2_PLACEMENT_3D ( 'NONE', #79, #14, #375 ) ;
#104 = LINE ( 'NONE', #310, #365 ) ;
#105 = FACE_OUTER_BOUND ( 'NONE', #51, .T. ) ;
#106 = ORIENTED_EDGE ( 'NONE', *, *, #329, .F. ) ;
#107 = ORIENTED_EDGE ( 'NONE', *, *, #209, .F. ) ;
#108 = ADVANCED_FACE ( 'NONE', ( #296 ), #179, .F. ) ;
#109 = ORIENTED_EDGE ( 'NONE', *, *, #13, .F. ) ;
#110 = COORDINATED_UNIVERSAL_TIME_OFFSET ( 1, 0, .AHEAD. ) ;
#111 = ORIENTED_EDGE ( 'NONE', *, *, #71, .F. ) ;
#112 = EDGE_LOOP ( 'NONE', ( #290, #312 ) ) ;
#113 = ADVANCED_FACE ( 'NONE', ( #359 ), #147, .T. ) ;
#114 = DATE_AND_TIME ( #54, #130 ) ;
#115 = DIRECTION ( 'NONE',  ( -1.000000000000000000, 0.000000000000000000, 0.000000000000000000 ) ) ;
#116 = CARTESIAN_POINT ( 'NONE',  ( 0.000000000000000000, 0.000000000000000000, 0.000000000000000000 ) ) ;
#117 = APPROVAL_ROLE ( '' ) ;
#118 = ADVANCED_FACE ( 'NONE', ( #3, #91 ), #211, .T. ) ;
#119 = CARTESIAN_POINT ( 'NONE',  ( 0.000000000000000000, 0.000000000000000000, 353.0000000000000000 ) ) ;
#120 = AXIS2_PLACEMENT_3D ( 'NONE', #282, #340, #276 ) ;
#121 = CARTESIAN_POINT ( 'NONE',  ( -5.000000000000000000, 0.000000000000000000, 3.000000000000000000 ) ) ;
#122 = AXIS2_PLACEMENT_3D ( 'NONE', #370, #364, #50 ) ;
#123 = DIRECTION ( 'NONE',  ( 1.000000000000000000, 0.000000000000000000, 0.000000000000000000 ) ) ;
#124 = DIRECTION ( 'NONE',  ( 1.000000000000000000, 0.000000000000000000, 0.000000000000000000 ) ) ;
#125 = AXIS2_PLACEMENT_3D ( 'NONE', #236, #187, #149 ) ;
#126 = ORIENTED_EDGE ( 'NONE', *, *, #142, .F. ) ;
#127 = VERTEX_POINT ( 'NONE', #330 ) ;
#128 = EDGE_CURVE ( 'NONE', #347, #57, #55, .T. ) ;
#129 = DIRECTION ( 'NONE',  ( 0.000000000000000000, 0.000000000000000000, -1.000000000000000000 ) ) ;
#130 = LOCAL_TIME ( 17, 44, 10.00000000000000000, #110 ) ;
#131 = CYLINDRICAL_SURFACE ( 'NONE', #306, 5.000000000000000000 ) ;
#132 = DIRECTION ( 'NONE',  ( -1.000000000000000000, 0.000000000000000000, 0.000000000000000000 ) ) ;
#133 = DIRECTION ( 'NONE',  ( 0.000000000000000000, -1.000000000000000000, 0.000000000000000000 ) ) ;
#134 = DIRECTION ( 'NONE',  ( 1.000000000000000000, 0.000000000000000000, 0.000000000000000000 ) ) ;
#135 = EDGE_CURVE ( 'NONE', #323, #194, #67, .T. ) ;
#136 = CARTESIAN_POINT ( 'NONE',  ( 0.000000000000000000, 0.000000000000000000, 353.0000000000000000 ) ) ;
#137 =( NAMED_UNIT ( * ) SI_UNIT ( $, .STERADIAN. ) SOLID_ANGLE_UNIT ( ) );
#138 = AXIS2_PLACEMENT_3D ( 'NONE', #341, #75, #44 ) ;
#139 = EDGE_LOOP ( 'NONE', ( #46, #126 ) ) ;
#140 = PERSON_AND_ORGANIZATION_ROLE ( 'creator' ) ;
#141 = VERTEX_POINT ( 'NONE', #121 ) ;
#142 = EDGE_CURVE ( 'NONE', #127, #309, #275, .T. ) ;
#143 = DIRECTION ( 'NONE',  ( 0.000000000000000000, 0.000000000000000000, 1.000000000000000000 ) ) ;
#144 = PERSON_AND_ORGANIZATION ( #342, #4 ) ;
#145 = CIRCLE ( 'NONE', #241, 2.500000000000000000 ) ;
#146 = AXIS2_PLACEMENT_3D ( 'NONE', #254, #1, #58 ) ;
#147 = CYLINDRICAL_SURFACE ( 'NONE', #61, 2.500000000000000000 ) ;
#148 = PERSON_AND_ORGANIZATION ( #342, #4 ) ;
#149 = DIRECTION ( 'NONE',  ( 1.000000000000000000, 0.000000000000000000, 0.000000000000000000 ) ) ;
#150 = APPROVAL_DATE_TIME ( #367, #64 ) ;
#151 = CARTESIAN_POINT ( 'NONE',  ( 0.000000000000000000, 0.000000000000000000, 353.0000000000000000 ) ) ;
#152 = AXIS2_PLACEMENT_3D ( 'NONE', #90, #95, #331 ) ;
#153 = CARTESIAN_POINT ( 'NONE',  ( 0.000000000000000000, 0.000000000000000000, 353.0000000000000000 ) ) ;
#154 = SHAPE_DEFINITION_REPRESENTATION ( #381, #255 ) ;
#155 = FACE_OUTER_BOUND ( 'NONE', #53, .T. ) ;
#156 = EDGE_CURVE ( 'NONE', #78, #345, #158, .T. ) ;
#157 = ORIENTED_EDGE ( 'NONE', *, *, #45, .T. ) ;
#158 = CIRCLE ( 'NONE', #376, 1.500000000000000222 ) ;
#159 = APPROVAL_PERSON_ORGANIZATION ( #295, #64, #117 ) ;
#160 = ADVANCED_FACE ( 'NONE', ( #36 ), #237, .F. ) ;
#161 = DIRECTION ( 'NONE',  ( 1.000000000000000000, 0.000000000000000000, 0.000000000000000000 ) ) ;
#162 = DIRECTION ( 'NONE',  ( 1.000000000000000000, 0.000000000000000000, -0.000000000000000000 ) ) ;
#163 = ORIENTED_EDGE ( 'NONE', *, *, #213, .T. ) ;
#164 = AXIS2_PLACEMENT_3D ( 'NONE', #278, #249, #124 ) ;
#165 = CARTESIAN_POINT ( 'NONE',  ( 5.000000000000000000, 6.123233995736766282E-16, 0.000000000000000000 ) ) ;
#166 = DIRECTION ( 'NONE',  ( -0.000000000000000000, -0.000000000000000000, -1.000000000000000000 ) ) ;
#167 = EDGE_CURVE ( 'NONE', #258, #141, #210, .T. ) ;
#168 = CARTESIAN_POINT ( 'NONE',  ( -2.799999999999999822, 3.429011037612589276E-16, 3.000000000000012434 ) ) ;
#169 = DIRECTION ( 'NONE',  ( 0.000000000000000000, 0.000000000000000000, 1.000000000000000000 ) ) ;
#170 = ORIENTED_EDGE ( 'NONE', *, *, #219, .F. ) ;
#171 = AXIS2_PLACEMENT_3D ( 'NONE', #202, #166, #24 ) ;
#172 = LOCAL_TIME ( 17, 44, 10.00000000000000000, #326 ) ;
#173 = APPROVAL_ROLE ( '' ) ;
#174 = PRODUCT_RELATED_PRODUCT_CATEGORY ( 'detail', '', ( #285 ) ) ;
#175 = EDGE_LOOP ( 'NONE', ( #291, #190, #40, #28 ) ) ;
#176 =( NAMED_UNIT ( * ) PLANE_ANGLE_UNIT ( ) SI_UNIT ( $, .RADIAN. ) );
#177 = ORIENTED_EDGE ( 'NONE', *, *, #315, .T. ) ;
#178 = PERSON_AND_ORGANIZATION_ROLE ( 'design_supplier' ) ;
#179 = CYLINDRICAL_SURFACE ( 'NONE', #220, 1.500000000000000222 ) ;
#180 = CARTESIAN_POINT ( 'NONE',  ( -2.500000000000000000, 0.000000000000000000, 353.0000000000000000 ) ) ;
#181 = EDGE_CURVE ( 'NONE', #141, #194, #66, .T. ) ;
#182 = DIRECTION ( 'NONE',  ( 1.000000000000000000, 0.000000000000000000, 0.000000000000000000 ) ) ;
#183 = CARTESIAN_POINT ( 'NONE',  ( 0.000000000000000000, 0.000000000000000000, 353.0000000000000000 ) ) ;
#184 = AXIS2_PLACEMENT_3D ( 'NONE', #361, #260, #65 ) ;
#185 = APPROVAL_PERSON_ORGANIZATION ( #228, #37, #206 ) ;
#186 = ADVANCED_FACE ( 'NONE', ( #59 ), #327, .T. ) ;
#187 = DIRECTION ( 'NONE',  ( 0.000000000000000000, 0.000000000000000000, 1.000000000000000000 ) ) ;
#188 = UNCERTAINTY_MEASURE_WITH_UNIT (LENGTH_MEASURE( 1.000000000000000082E-05 ), #193, 'distance_accuracy_value', 'NONE');
#189 = ORIENTED_EDGE ( 'NONE', *, *, #13, .T. ) ;
#190 = ORIENTED_EDGE ( 'NONE', *, *, #363, .T. ) ;
#191 = CARTESIAN_POINT ( 'NONE',  ( -1.500000000000000222, 0.000000000000000000, 0.000000000000000000 ) ) ;
#192 = EDGE_LOOP ( 'NONE', ( #223, #109, #366, #339 ) ) ;
#193 =( LENGTH_UNIT ( ) NAMED_UNIT ( * ) SI_UNIT ( .MILLI., .METRE. ) );
#194 = VERTEX_POINT ( 'NONE', #32 ) ;
#195 = VECTOR ( 'NONE', #198, 1000.000000000000000 ) ;
#196 = DIRECTION ( 'NONE',  ( 0.000000000000000000, 0.000000000000000000, 1.000000000000000000 ) ) ;
#197 = ORIENTED_EDGE ( 'NONE', *, *, #246, .F. ) ;
#198 = DIRECTION ( 'NONE',  ( 0.000000000000000000, 0.000000000000000000, -1.000000000000000000 ) ) ;
#199 = ORIENTED_EDGE ( 'NONE', *, *, #246, .T. ) ;
#200 = CC_DESIGN_DATE_AND_TIME_ASSIGNMENT ( #263, #5, ( #261 ) ) ;
#201 = PERSON_AND_ORGANIZATION ( #342, #4 ) ;
#202 = CARTESIAN_POINT ( 'NONE',  ( 0.000000000000000000, 0.000000000000000000, 3.000000000000000000 ) ) ;
#203 = CIRCLE ( 'NONE', #270, 1.500000000000000222 ) ;
#204 = APPLICATION_PROTOCOL_DEFINITION ( 'international standard', 'config_control_design', 1994, #245 ) ;
#205 = ORIENTED_EDGE ( 'NONE', *, *, #45, .F. ) ;
#206 = APPROVAL_ROLE ( '' ) ;
#207 = CARTESIAN_POINT ( 'NONE',  ( -5.000000000000000000, 0.000000000000000000, 3.000000000000000000 ) ) ;
#208 = CARTESIAN_POINT ( 'NONE',  ( 0.000000000000000000, 0.000000000000000000, 353.0000000000000000 ) ) ;
#209 = EDGE_CURVE ( 'NONE', #100, #286, #266, .T. ) ;
#210 = CIRCLE ( 'NONE', #152, 5.000000000000000000 ) ;
#211 = PLANE ( 'NONE',  #17 ) ;
#212 = DIRECTION ( 'NONE',  ( -0.000000000000000000, -0.000000000000000000, -1.000000000000000000 ) ) ;
#213 = EDGE_CURVE ( 'NONE', #314, #281, #238, .T. ) ;
#214 = CARTESIAN_POINT ( 'NONE',  ( 1.500000000000000222, 1.836970198721030181E-16, 353.0000000000000000 ) ) ;
#215 = CIRCLE ( 'NONE', #351, 0.2999999999999999334 ) ;
#216 = AXIS2_PLACEMENT_3D ( 'NONE', #251, #225, #134 ) ;
#217 = FACE_BOUND ( 'NONE', #139, .T. ) ;
#218 = EDGE_LOOP ( 'NONE', ( #242, #22, #274, #80 ) ) ;
#219 = EDGE_CURVE ( 'NONE', #78, #127, #47, .T. ) ;
#220 = AXIS2_PLACEMENT_3D ( 'NONE', #183, #38, #303 ) ;
#221 = CC_DESIGN_APPROVAL ( #64, ( #261 ) ) ;
#222 = FACE_OUTER_BOUND ( 'NONE', #26, .T. ) ;
#223 = ORIENTED_EDGE ( 'NONE', *, *, #363, .F. ) ;
#224 = CARTESIAN_POINT ( 'NONE',  ( 2.799999999999999822, 0.000000000000000000, 3.300000000000025135 ) ) ;
#225 = DIRECTION ( 'NONE',  ( 0.000000000000000000, 0.000000000000000000, 1.000000000000000000 ) ) ;
#226 = FACE_OUTER_BOUND ( 'NONE', #175, .T. ) ;
#227 = ADVANCED_FACE ( 'NONE', ( #18 ), #131, .T. ) ;
#228 = PERSON_AND_ORGANIZATION ( #342, #4 ) ;
#229 = DIRECTION ( 'NONE',  ( 1.224646799147353207E-16, 1.000000000000000000, -0.000000000000000000 ) ) ;
#230 = PERSON_AND_ORGANIZATION ( #342, #4 ) ;
#231 = ORIENTED_EDGE ( 'NONE', *, *, #219, .T. ) ;
#232 = DESIGN_CONTEXT ( 'detailed design', #272, 'design' ) ;
#233 = CIRCLE ( 'NONE', #337, 0.2999999999999999334 ) ;
#234 = VECTOR ( 'NONE', #212, 1000.000000000000000 ) ;
#235 = COORDINATED_UNIVERSAL_TIME_OFFSET ( 1, 0, .AHEAD. ) ;
#236 = CARTESIAN_POINT ( 'NONE',  ( 0.000000000000000000, 0.000000000000000000, 0.000000000000000000 ) ) ;
#237 = CYLINDRICAL_SURFACE ( 'NONE', #287, 1.500000000000000222 ) ;
#238 = LINE ( 'NONE', #94, #234 ) ;
#239 = CYLINDRICAL_SURFACE ( 'NONE', #184, 5.000000000000000000 ) ;
#240 = CARTESIAN_POINT ( 'NONE',  ( 0.000000000000000000, 0.000000000000000000, 3.000000000000000000 ) ) ;
#241 = AXIS2_PLACEMENT_3D ( 'NONE', #264, #300, #63 ) ;
#242 = ORIENTED_EDGE ( 'NONE', *, *, #213, .F. ) ;
#243 = CC_DESIGN_PERSON_AND_ORGANIZATION_ASSIGNMENT ( #27, #317, ( #87 ) ) ;
#244 = VECTOR ( 'NONE', #269, 1000.000000000000000 ) ;
#245 = APPLICATION_CONTEXT ( 'configuration controlled 3d designs of mechanical parts and assemblies' ) ;
#246 = EDGE_CURVE ( 'NONE', #345, #78, #203, .T. ) ;
#247 = CARTESIAN_POINT ( 'NONE',  ( 5.000000000000000000, 6.123233995736766282E-16, 3.000000000000000000 ) ) ;
#248 = ORIENTED_EDGE ( 'NONE', *, *, #99, .F. ) ;
#249 = DIRECTION ( 'NONE',  ( 0.000000000000000000, 0.000000000000000000, 1.000000000000000000 ) ) ;
#250 = ORIENTED_EDGE ( 'NONE', *, *, #99, .T. ) ;
#251 = CARTESIAN_POINT ( 'NONE',  ( 0.000000000000000000, 0.000000000000000000, 3.300000000000025135 ) ) ;
#252 = ORIENTED_EDGE ( 'NONE', *, *, #298, .T. ) ;
#253 = VECTOR ( 'NONE', #325, 1000.000000000000000 ) ;
#254 = CARTESIAN_POINT ( 'NONE',  ( 0.000000000000000000, 0.000000000000000000, 0.000000000000000000 ) ) ;
#255 = ADVANCED_BREP_SHAPE_REPRESENTATION ( '8a47', ( #267, #146 ), #338 ) ;
#256 = DIRECTION ( 'NONE',  ( 1.000000000000000000, 0.000000000000000000, 0.000000000000000000 ) ) ;
#257 = SECURITY_CLASSIFICATION_LEVEL ( 'unclassified' ) ;
#258 = VERTEX_POINT ( 'NONE', #247 ) ;
#259 = PERSON_AND_ORGANIZATION_ROLE ( 'design_owner' ) ;
#260 = DIRECTION ( 'NONE',  ( -0.000000000000000000, -0.000000000000000000, -1.000000000000000000 ) ) ;
#261 = SECURITY_CLASSIFICATION ( '', '', #257 ) ;
#262 = CC_DESIGN_DATE_AND_TIME_ASSIGNMENT ( #354, #86, ( #87 ) ) ;
#263 = DATE_AND_TIME ( #30, #33 ) ;
#264 = CARTESIAN_POINT ( 'NONE',  ( 0.000000000000000000, 0.000000000000000000, 3.300000000000025135 ) ) ;
#265 = APPROVAL_DATE_TIME ( #324, #37 ) ;
#266 = LINE ( 'NONE', #8, #244 ) ;
#267 = MANIFOLD_SOLID_BREP ( 'Odebrat vysunutím3', #83 ) ;
#268 = CC_DESIGN_PERSON_AND_ORGANIZATION_ASSIGNMENT ( #230, #7, ( #261 ) ) ;
#269 = DIRECTION ( 'NONE',  ( -0.000000000000000000, -0.000000000000000000, -1.000000000000000000 ) ) ;
#270 = AXIS2_PLACEMENT_3D ( 'NONE', #344, #196, #39 ) ;
#271 = CARTESIAN_POINT ( 'NONE',  ( 0.000000000000000000, 0.000000000000000000, 3.000000000000000000 ) ) ;
#272 = APPLICATION_CONTEXT ( 'configuration controlled 3d designs of mechanical parts and assemblies' ) ;
#273 = PLANE ( 'NONE',  #103 ) ;
#274 = ORIENTED_EDGE ( 'NONE', *, *, #209, .T. ) ;
#275 = CIRCLE ( 'NONE', #328, 1.500000000000000222 ) ;
#276 = DIRECTION ( 'NONE',  ( 1.000000000000000000, 0.000000000000000000, 0.000000000000000000 ) ) ;
#277 = ADVANCED_FACE ( 'NONE', ( #97 ), #72, .F. ) ;
#278 = CARTESIAN_POINT ( 'NONE',  ( 0.000000000000000000, 0.000000000000000000, 353.0000000000000000 ) ) ;
#279 = CIRCLE ( 'NONE', #120, 1.500000000000000222 ) ;
#280 = CARTESIAN_POINT ( 'NONE',  ( 0.000000000000000000, 0.000000000000000000, 0.000000000000000000 ) ) ;
#281 = VERTEX_POINT ( 'NONE', #73 ) ;
#282 = CARTESIAN_POINT ( 'NONE',  ( 0.000000000000000000, 0.000000000000000000, 0.000000000000000000 ) ) ;
#283 = DIRECTION ( 'NONE',  ( -1.000000000000000000, 1.224646799147353207E-16, 0.000000000000000000 ) ) ;
#284 = ADVANCED_FACE ( 'NONE', ( #155 ), #19, .F. ) ;
#285 = PRODUCT ( '8a47', '8a47', '', ( #356 ) ) ;
#286 = VERTEX_POINT ( 'NONE', #346 ) ;
#287 = AXIS2_PLACEMENT_3D ( 'NONE', #294, #362, #357 ) ;
#288 = LOCAL_TIME ( 17, 44, 10.00000000000000000, #235 ) ;
#289 = APPROVAL_DATE_TIME ( #114, #20 ) ;
#290 = ORIENTED_EDGE ( 'NONE', *, *, #60, .T. ) ;
#291 = ORIENTED_EDGE ( 'NONE', *, *, #167, .F. ) ;
#292 = ADVANCED_FACE ( 'NONE', ( #368, #105 ), #273, .T. ) ;
#293 = COORDINATED_UNIVERSAL_TIME_OFFSET ( 1, 0, .AHEAD. ) ;
#294 = CARTESIAN_POINT ( 'NONE',  ( 0.000000000000000000, 0.000000000000000000, 353.0000000000000000 ) ) ;
#295 = PERSON_AND_ORGANIZATION ( #342, #4 ) ;
#296 = FACE_OUTER_BOUND ( 'NONE', #85, .T. ) ;
#297 = COORDINATED_UNIVERSAL_TIME_OFFSET ( 1, 0, .AHEAD. ) ;
#298 = EDGE_CURVE ( 'NONE', #100, #314, #332, .T. ) ;
#299 = DIRECTION ( 'NONE',  ( -0.000000000000000000, -0.000000000000000000, -1.000000000000000000 ) ) ;
#300 = DIRECTION ( 'NONE',  ( 0.000000000000000000, 0.000000000000000000, 1.000000000000000000 ) ) ;
#301 = AXIS2_PLACEMENT_3D ( 'NONE', #82, #169, #256 ) ;
#302 = APPROVAL_PERSON_ORGANIZATION ( #144, #20, #173 ) ;
#303 = DIRECTION ( 'NONE',  ( -1.000000000000000000, 0.000000000000000000, 0.000000000000000000 ) ) ;
#304 = ORIENTED_EDGE ( 'NONE', *, *, #71, .T. ) ;
#305 = ORIENTED_EDGE ( 'NONE', *, *, #60, .F. ) ;
#306 = AXIS2_PLACEMENT_3D ( 'NONE', #240, #77, #132 ) ;
#307 = CARTESIAN_POINT ( 'NONE',  ( 2.500000000000000000, 3.061616997868383141E-16, 353.0000000000000000 ) ) ;
#308 = ADVANCED_FACE ( 'NONE', ( #217, #222 ), #21, .F. ) ;
#309 = VERTEX_POINT ( 'NONE', #191 ) ;
#310 = CARTESIAN_POINT ( 'NONE',  ( -1.500000000000000222, 0.000000000000000000, 353.0000000000000000 ) ) ;
#311 = CARTESIAN_POINT ( 'NONE',  ( 1.500000000000000222, 1.836970198721030181E-16, 353.0000000000000000 ) ) ;
#312 = ORIENTED_EDGE ( 'NONE', *, *, #128, .T. ) ;
#313 = CARTESIAN_POINT ( 'NONE',  ( -1.500000000000000222, 0.000000000000000000, 353.0000000000000000 ) ) ;
#314 = VERTEX_POINT ( 'NONE', #307 ) ;
#315 = EDGE_CURVE ( 'NONE', #345, #309, #104, .T. ) ;
#316 = ORIENTED_EDGE ( 'NONE', *, *, #315, .F. ) ;
#317 = PERSON_AND_ORGANIZATION_ROLE ( 'creator' ) ;
#318 = AXIS2_PLACEMENT_3D ( 'NONE', #271, #12, #6 ) ;
#319 = DIRECTION ( 'NONE',  ( 0.000000000000000000, 0.000000000000000000, 1.000000000000000000 ) ) ;
#320 = CC_DESIGN_APPROVAL ( #20, ( #87 ) ) ;
#321 = CALENDAR_DATE ( 2022, 8, 7 ) ;
#322 = CC_DESIGN_PERSON_AND_ORGANIZATION_ASSIGNMENT ( #358, #259, ( #285 ) ) ;
#323 = VERTEX_POINT ( 'NONE', #165 ) ;
#324 = DATE_AND_TIME ( #81, #172 ) ;
#325 = DIRECTION ( 'NONE',  ( -0.000000000000000000, -0.000000000000000000, -1.000000000000000000 ) ) ;
#326 = COORDINATED_UNIVERSAL_TIME_OFFSET ( 1, 0, .AHEAD. ) ;
#327 = CYLINDRICAL_SURFACE ( 'NONE', #92, 2.500000000000000000 ) ;
#328 = AXIS2_PLACEMENT_3D ( 'NONE', #116, #355, #182 ) ;
#329 = EDGE_CURVE ( 'NONE', #194, #323, #68, .T. ) ;
#330 = CARTESIAN_POINT ( 'NONE',  ( 1.500000000000000222, 1.836970198721030181E-16, 0.000000000000000000 ) ) ;
#331 = DIRECTION ( 'NONE',  ( 1.000000000000000000, 0.000000000000000000, 0.000000000000000000 ) ) ;
#332 = CIRCLE ( 'NONE', #164, 2.500000000000000000 ) ;
#333 = CARTESIAN_POINT ( 'NONE',  ( 0.000000000000000000, 0.000000000000000000, 0.000000000000000000 ) ) ;
#334 = EDGE_LOOP ( 'NONE', ( #197, #349 ) ) ;
#335 = EDGE_LOOP ( 'NONE', ( #199, #231, #56, #316 ) ) ;
#336 = CC_DESIGN_PERSON_AND_ORGANIZATION_ASSIGNMENT ( #148, #178, ( #353 ) ) ;
#337 = AXIS2_PLACEMENT_3D ( 'NONE', #76, #229, #283 ) ;
#338 =( GEOMETRIC_REPRESENTATION_CONTEXT ( 3 ) GLOBAL_UNCERTAINTY_ASSIGNED_CONTEXT ( ( #188 ) ) GLOBAL_UNIT_ASSIGNED_CONTEXT ( ( #193, #176, #137 ) ) REPRESENTATION_CONTEXT ( 'NONE', 'WORKASPACE' ) );
#339 = ORIENTED_EDGE ( 'NONE', *, *, #329, .T. ) ;
#340 = DIRECTION ( 'NONE',  ( -0.000000000000000000, -0.000000000000000000, -1.000000000000000000 ) ) ;
#341 = CARTESIAN_POINT ( 'NONE',  ( 0.000000000000000000, 0.000000000000000000, 3.300000000000025135 ) ) ;
#342 = PERSON ( 'NEURÈENÝ', 'NEURÈENÝ', 'NEURÈENÝ', ('NEURÈENÝ'), ('NEURÈENÝ'), ('NEURÈENÝ') ) ;
#343 = ORIENTED_EDGE ( 'NONE', *, *, #156, .T. ) ;
#344 = CARTESIAN_POINT ( 'NONE',  ( 0.000000000000000000, 0.000000000000000000, 353.0000000000000000 ) ) ;
#345 = VERTEX_POINT ( 'NONE', #313 ) ;
#346 = CARTESIAN_POINT ( 'NONE',  ( -2.500000000000000000, 0.000000000000000000, 3.300000000000025135 ) ) ;
#347 = VERTEX_POINT ( 'NONE', #168 ) ;
#348 = APPROVAL_STATUS ( 'not_yet_approved' ) ;
#349 = ORIENTED_EDGE ( 'NONE', *, *, #156, .F. ) ;
#350 = EDGE_CURVE ( 'NONE', #309, #127, #279, .T. ) ;
#351 = AXIS2_PLACEMENT_3D ( 'NONE', #224, #133, #380 ) ;
#352 = ORIENTED_EDGE ( 'NONE', *, *, #373, .F. ) ;
#353 = PRODUCT_DEFINITION_FORMATION_WITH_SPECIFIED_SOURCE ( 'LIBOVOLNÝ', '', #285, .NOT_KNOWN. ) ;
#354 = DATE_AND_TIME ( #321, #288 ) ;
#355 = DIRECTION ( 'NONE',  ( -0.000000000000000000, -0.000000000000000000, -1.000000000000000000 ) ) ;
#356 = MECHANICAL_CONTEXT ( 'NONE', #245, 'mechanical' ) ;
#357 = DIRECTION ( 'NONE',  ( -1.000000000000000000, 0.000000000000000000, 0.000000000000000000 ) ) ;
#358 = PERSON_AND_ORGANIZATION ( #342, #4 ) ;
#359 = FACE_OUTER_BOUND ( 'NONE', #369, .T. ) ;
#360 = CIRCLE ( 'NONE', #171, 2.799999999999999822 ) ;
#361 = CARTESIAN_POINT ( 'NONE',  ( 0.000000000000000000, 0.000000000000000000, 3.000000000000000000 ) ) ;
#362 = DIRECTION ( 'NONE',  ( 0.000000000000000000, 0.000000000000000000, -1.000000000000000000 ) ) ;
#363 = EDGE_CURVE ( 'NONE', #258, #323, #372, .T. ) ;
#364 = DIRECTION ( 'NONE',  ( 0.000000000000000000, 0.000000000000000000, 1.000000000000000000 ) ) ;
#365 = VECTOR ( 'NONE', #129, 1000.000000000000000 ) ;
#366 = ORIENTED_EDGE ( 'NONE', *, *, #181, .T. ) ;
#367 = DATE_AND_TIME ( #96, #11 ) ;
#368 = FACE_BOUND ( 'NONE', #112, .T. ) ;
#369 = EDGE_LOOP ( 'NONE', ( #111, #163, #250, #107 ) ) ;
#370 = CARTESIAN_POINT ( 'NONE',  ( 0.000000000000000000, 0.000000000000000000, 3.300000000000025135 ) ) ;
#371 = ORIENTED_EDGE ( 'NONE', *, *, #52, .F. ) ;
#372 = LINE ( 'NONE', #16, #42 ) ;
#373 = EDGE_CURVE ( 'NONE', #286, #281, #377, .T. ) ;
#374 = ORIENTED_EDGE ( 'NONE', *, *, #167, .T. ) ;
#375 = DIRECTION ( 'NONE',  ( 1.000000000000000000, 0.000000000000000000, -0.000000000000000000 ) ) ;
#376 = AXIS2_PLACEMENT_3D ( 'NONE', #119, #88, #123 ) ;
#377 = CIRCLE ( 'NONE', #138, 2.500000000000000000 ) ;
#378 = DIRECTION ( 'NONE',  ( 1.000000000000000000, 0.000000000000000000, 0.000000000000000000 ) ) ;
#379 = APPLICATION_PROTOCOL_DEFINITION ( 'international standard', 'config_control_design', 1994, #272 ) ;
#380 = DIRECTION ( 'NONE',  ( 0.000000000000000000, 0.000000000000000000, -1.000000000000000000 ) ) ;
#381 = PRODUCT_DEFINITION_SHAPE ( 'NONE', 'NONE',  #87 ) ;
ENDSEC;
END-ISO-10303-21;
