ISO-10303-21;
HEADER;
FILE_DESCRIPTION (( 'STEP AP203' ),
    '1' );
FILE_NAME ('c71d.STEP',
    '2022-07-08T14:54:28',
    ( '' ),
    ( '' ),
    'SwSTEP 2.0',
    'SolidWorks 2019',
    '' );
FILE_SCHEMA (( 'CONFIG_CONTROL_DESIGN' ));
ENDSEC;

DATA;
#1 = ADVANCED_FACE ( 'NONE', ( #18 ), #248, .T. ) ;
#2 = VERTEX_POINT ( 'NONE', #300 ) ;
#3 = FACE_OUTER_BOUND ( 'NONE', #117, .T. ) ;
#4 = CIRCLE ( 'NONE', #173, 6.000000000000000888 ) ;
#5 = EDGE_LOOP ( 'NONE', ( #41, #86 ) ) ;
#6 = CARTESIAN_POINT ( 'NONE',  ( -6.000000000000000888, 0.000000000000000000, 7.500000000000007105 ) ) ;
#7 = VERTEX_POINT ( 'NONE', #129 ) ;
#8 = AXIS2_PLACEMENT_3D ( 'NONE', #134, #371, #210 ) ;
#9 = EDGE_CURVE ( 'NONE', #178, #361, #52, .T. ) ;
#10 = CARTESIAN_POINT ( 'NONE',  ( -10.00000000000000000, 0.000000000000000000, 0.000000000000000000 ) ) ;
#11 = ORIENTED_EDGE ( 'NONE', *, *, #182, .T. ) ;
#12 = EDGE_LOOP ( 'NONE', ( #209, #65, #33, #88 ) ) ;
#13 = APPROVAL_PERSON_ORGANIZATION ( #102, #42, #199 ) ;
#14 = ORIENTED_EDGE ( 'NONE', *, *, #308, .F. ) ;
#15 = CIRCLE ( 'NONE', #264, 10.00000000000000000 ) ;
#16 = EDGE_CURVE ( 'NONE', #298, #2, #15, .T. ) ;
#17 = CARTESIAN_POINT ( 'NONE',  ( 10.00000000000000000, 1.224646799147353256E-15, 7.000000000000000000 ) ) ;
#18 = FACE_OUTER_BOUND ( 'NONE', #61, .T. ) ;
#19 = CIRCLE ( 'NONE', #253, 10.00000000000000000 ) ;
#20 = DIRECTION ( 'NONE',  ( 1.000000000000000000, 0.000000000000000000, 0.000000000000000000 ) ) ;
#21 = APPROVAL_STATUS ( 'not_yet_approved' ) ;
#22 = CC_DESIGN_DATE_AND_TIME_ASSIGNMENT ( #280, #84, ( #244 ) ) ;
#23 = VERTEX_POINT ( 'NONE', #105 ) ;
#24 = DIRECTION ( 'NONE',  ( 0.000000000000000000, 0.000000000000000000, -1.000000000000000000 ) ) ;
#25 = CIRCLE ( 'NONE', #251, 6.500000000000000888 ) ;
#26 = VECTOR ( 'NONE', #74, 1000.000000000000000 ) ;
#27 = PERSON_AND_ORGANIZATION ( #57, #359 ) ;
#28 = CARTESIAN_POINT ( 'NONE',  ( 0.000000000000000000, 0.000000000000000000, 7.500000000000007105 ) ) ;
#29 = PERSON_AND_ORGANIZATION ( #57, #359 ) ;
#30 = DIRECTION ( 'NONE',  ( 1.000000000000000000, 0.000000000000000000, 0.000000000000000000 ) ) ;
#31 = AXIS2_PLACEMENT_3D ( 'NONE', #327, #147, #208 ) ;
#32 = CARTESIAN_POINT ( 'NONE',  ( 0.000000000000000000, 0.000000000000000000, 0.000000000000000000 ) ) ;
#33 = ORIENTED_EDGE ( 'NONE', *, *, #336, .T. ) ;
#34 = CYLINDRICAL_SURFACE ( 'NONE', #31, 10.00000000000000000 ) ;
#35 = VERTEX_POINT ( 'NONE', #279 ) ;
#36 = AXIS2_PLACEMENT_3D ( 'NONE', #325, #323, #203 ) ;
#37 = ORIENTED_EDGE ( 'NONE', *, *, #79, .T. ) ;
#38 = CARTESIAN_POINT ( 'NONE',  ( 0.000000000000000000, 0.000000000000000000, 0.000000000000000000 ) ) ;
#39 = ORIENTED_EDGE ( 'NONE', *, *, #115, .T. ) ;
#40 = CARTESIAN_POINT ( 'NONE',  ( -6.000000000000000888, 0.000000000000000000, 182.0000000000000000 ) ) ;
#41 = ORIENTED_EDGE ( 'NONE', *, *, #144, .T. ) ;
#42 = APPROVAL ( #374, 'NEURÈENÝ' ) ;
#43 = AXIS2_PLACEMENT_3D ( 'NONE', #332, #246, #76 ) ;
#44 = ORIENTED_EDGE ( 'NONE', *, *, #336, .F. ) ;
#45 = CIRCLE ( 'NONE', #285, 6.000000000000000888 ) ;
#46 = DIRECTION ( 'NONE',  ( 0.000000000000000000, 0.000000000000000000, 1.000000000000000000 ) ) ;
#47 = CARTESIAN_POINT ( 'NONE',  ( 0.000000000000000000, 0.000000000000000000, 0.000000000000000000 ) ) ;
#48 = VECTOR ( 'NONE', #24, 1000.000000000000000 ) ;
#49 = ADVANCED_FACE ( 'NONE', ( #159 ), #131, .F. ) ;
#50 = DIRECTION ( 'NONE',  ( 0.000000000000000000, 0.000000000000000000, 1.000000000000000000 ) ) ;
#51 = CARTESIAN_POINT ( 'NONE',  ( 6.500000000000000888, 0.000000000000000000, 7.000000000000002665 ) ) ;
#52 = CIRCLE ( 'NONE', #362, 3.000000000000000444 ) ;
#53 = CARTESIAN_POINT ( 'NONE',  ( 0.000000000000000000, 0.000000000000000000, 7.000000000000000000 ) ) ;
#54 = CALENDAR_DATE ( 2022, 8, 7 ) ;
#55 = CARTESIAN_POINT ( 'NONE',  ( 3.000000000000000444, 3.673940397442060361E-16, 182.0000000000000000 ) ) ;
#56 = EDGE_CURVE ( 'NONE', #358, #328, #193, .T. ) ;
#57 = PERSON ( 'NEURÈENÝ', 'NEURÈENÝ', 'NEURÈENÝ', ('NEURÈENÝ'), ('NEURÈENÝ'), ('NEURÈENÝ') ) ;
#58 = FACE_OUTER_BOUND ( 'NONE', #320, .T. ) ;
#59 = AXIS2_PLACEMENT_3D ( 'NONE', #184, #312, #375 ) ;
#60 = DIRECTION ( 'NONE',  ( -1.000000000000000000, 1.224646799147351482E-16, 0.000000000000000000 ) ) ;
#61 = EDGE_LOOP ( 'NONE', ( #270, #153, #114, #44 ) ) ;
#62 = EDGE_CURVE ( 'NONE', #23, #295, #45, .T. ) ;
#63 = CC_DESIGN_APPROVAL ( #157, ( #244 ) ) ;
#64 = DIRECTION ( 'NONE',  ( 1.000000000000000000, 0.000000000000000000, 0.000000000000000000 ) ) ;
#65 = ORIENTED_EDGE ( 'NONE', *, *, #196, .F. ) ;
#66 = DIRECTION ( 'NONE',  ( -0.000000000000000000, -0.000000000000000000, -1.000000000000000000 ) ) ;
#67 = ORIENTED_EDGE ( 'NONE', *, *, #238, .T. ) ;
#68 = EDGE_LOOP ( 'NONE', ( #356, #94 ) ) ;
#69 = FACE_OUTER_BOUND ( 'NONE', #185, .T. ) ;
#70 = TOROIDAL_SURFACE ( 'NONE', #43, 6.500000000000000888, 0.5000000000000000000 ) ;
#71 = ORIENTED_EDGE ( 'NONE', *, *, #372, .F. ) ;
#72 = LINE ( 'NONE', #122, #202 ) ;
#73 = CC_DESIGN_PERSON_AND_ORGANIZATION_ASSIGNMENT ( #339, #187, ( #303 ) ) ;
#74 = DIRECTION ( 'NONE',  ( -0.000000000000000000, -0.000000000000000000, -1.000000000000000000 ) ) ;
#75 = DIRECTION ( 'NONE',  ( 0.000000000000000000, 0.000000000000000000, 1.000000000000000000 ) ) ;
#76 = DIRECTION ( 'NONE',  ( 1.000000000000000000, 0.000000000000000000, 0.000000000000000000 ) ) ;
#77 = AXIS2_PLACEMENT_3D ( 'NONE', #330, #46, #242 ) ;
#78 = ORIENTED_EDGE ( 'NONE', *, *, #16, .F. ) ;
#79 = EDGE_CURVE ( 'NONE', #240, #138, #121, .T. ) ;
#80 = APPLICATION_PROTOCOL_DEFINITION ( 'international standard', 'config_control_design', 1994, #89 ) ;
#81 = DIRECTION ( 'NONE',  ( -1.000000000000000000, 0.000000000000000000, 0.000000000000000000 ) ) ;
#82 = AXIS2_PLACEMENT_3D ( 'NONE', #123, #357, #64 ) ;
#83 = LINE ( 'NONE', #352, #213 ) ;
#84 = DATE_TIME_ROLE ( 'classification_date' ) ;
#85 = CARTESIAN_POINT ( 'NONE',  ( 0.000000000000000000, 0.000000000000000000, 182.0000000000000000 ) ) ;
#86 = ORIENTED_EDGE ( 'NONE', *, *, #256, .T. ) ;
#87 = PERSON_AND_ORGANIZATION ( #57, #359 ) ;
#88 = ORIENTED_EDGE ( 'NONE', *, *, #16, .T. ) ;
#89 = APPLICATION_CONTEXT ( 'configuration controlled 3d designs of mechanical parts and assemblies' ) ;
#90 = DIRECTION ( 'NONE',  ( -0.000000000000000000, -0.000000000000000000, -1.000000000000000000 ) ) ;
#91 = ORIENTED_EDGE ( 'NONE', *, *, #372, .T. ) ;
#92 = CC_DESIGN_PERSON_AND_ORGANIZATION_ASSIGNMENT ( #229, #311, ( #244 ) ) ;
#93 = DIRECTION ( 'NONE',  ( 1.000000000000000000, 0.000000000000000000, 0.000000000000000000 ) ) ;
#94 = ORIENTED_EDGE ( 'NONE', *, *, #304, .T. ) ;
#95 = CARTESIAN_POINT ( 'NONE',  ( 6.000000000000000888, 7.347880794884120722E-16, 182.0000000000000000 ) ) ;
#96 = ORIENTED_EDGE ( 'NONE', *, *, #256, .F. ) ;
#97 = LINE ( 'NONE', #95, #226 ) ;
#98 = CIRCLE ( 'NONE', #272, 10.00000000000000000 ) ;
#99 = FACE_OUTER_BOUND ( 'NONE', #12, .T. ) ;
#100 = VERTEX_POINT ( 'NONE', #51 ) ;
#101 = EDGE_CURVE ( 'NONE', #138, #240, #169, .T. ) ;
#102 = PERSON_AND_ORGANIZATION ( #57, #359 ) ;
#103 = DIRECTION ( 'NONE',  ( 0.000000000000000000, 0.000000000000000000, 1.000000000000000000 ) ) ;
#104 = LOCAL_TIME ( 16, 54, 28.00000000000000000, #309 ) ;
#105 = CARTESIAN_POINT ( 'NONE',  ( 6.000000000000000888, 7.347880794884120722E-16, 7.500000000000007105 ) ) ;
#106 = PERSON_AND_ORGANIZATION_ROLE ( 'creator' ) ;
#107 = LINE ( 'NONE', #55, #48 ) ;
#108 = PRODUCT_DEFINITION ( 'NEZNÁMÝ', '', #220, #224 ) ;
#109 = PERSON_AND_ORGANIZATION_ROLE ( 'design_supplier' ) ;
#110 = COORDINATED_UNIVERSAL_TIME_OFFSET ( 1, 0, .AHEAD. ) ;
#111 = DIRECTION ( 'NONE',  ( 1.000000000000000000, 0.000000000000000000, 0.000000000000000000 ) ) ;
#112 = APPROVAL_STATUS ( 'not_yet_approved' ) ;
#113 = CARTESIAN_POINT ( 'NONE',  ( -6.500000000000000888, 7.960204194457796463E-16, 7.500000000000007105 ) ) ;
#114 = ORIENTED_EDGE ( 'NONE', *, *, #149, .T. ) ;
#115 = EDGE_CURVE ( 'NONE', #23, #100, #215, .T. ) ;
#116 = DIRECTION ( 'NONE',  ( 0.000000000000000000, 0.000000000000000000, 1.000000000000000000 ) ) ;
#117 = EDGE_LOOP ( 'NONE', ( #148, #67, #291, #120 ) ) ;
#118 = APPROVAL_PERSON_ORGANIZATION ( #29, #157, #370 ) ;
#119 = CARTESIAN_POINT ( 'NONE',  ( 0.000000000000000000, 0.000000000000000000, 182.0000000000000000 ) ) ;
#120 = ORIENTED_EDGE ( 'NONE', *, *, #206, .F. ) ;
#121 = CIRCLE ( 'NONE', #338, 6.000000000000000888 ) ;
#122 = CARTESIAN_POINT ( 'NONE',  ( -3.000000000000000444, 0.000000000000000000, 182.0000000000000000 ) ) ;
#123 = CARTESIAN_POINT ( 'NONE',  ( 0.000000000000000000, 0.000000000000000000, 7.000000000000000000 ) ) ;
#124 = ORIENTED_EDGE ( 'NONE', *, *, #135, .F. ) ;
#125 = CIRCLE ( 'NONE', #319, 3.000000000000000444 ) ;
#126 = ADVANCED_FACE ( 'NONE', ( #58 ), #344, .T. ) ;
#127 = DIRECTION ( 'NONE',  ( -1.000000000000000000, 0.000000000000000000, 0.000000000000000000 ) ) ;
#128 =( NAMED_UNIT ( * ) SI_UNIT ( $, .STERADIAN. ) SOLID_ANGLE_UNIT ( ) );
#129 = CARTESIAN_POINT ( 'NONE',  ( 10.00000000000000000, 1.224646799147353256E-15, 7.000000000000000000 ) ) ;
#130 = ADVANCED_FACE ( 'NONE', ( #195 ), #376, .F. ) ;
#131 = CYLINDRICAL_SURFACE ( 'NONE', #274, 3.000000000000000444 ) ;
#132 = FACE_OUTER_BOUND ( 'NONE', #354, .T. ) ;
#133 = CARTESIAN_POINT ( 'NONE',  ( 0.000000000000000000, 0.000000000000000000, 182.0000000000000000 ) ) ;
#134 = CARTESIAN_POINT ( 'NONE',  ( 0.000000000000000000, 0.000000000000000000, 182.0000000000000000 ) ) ;
#135 = EDGE_CURVE ( 'NONE', #178, #358, #107, .T. ) ;
#136 = COORDINATED_UNIVERSAL_TIME_OFFSET ( 1, 0, .AHEAD. ) ;
#137 = FACE_OUTER_BOUND ( 'NONE', #68, .T. ) ;
#138 = VERTEX_POINT ( 'NONE', #380 ) ;
#139 = APPROVAL_PERSON_ORGANIZATION ( #27, #281, #162 ) ;
#140 = APPROVAL_DATE_TIME ( #164, #157 ) ;
#141 = DIRECTION ( 'NONE',  ( 0.000000000000000000, 0.000000000000000000, 1.000000000000000000 ) ) ;
#142 = DATE_AND_TIME ( #194, #263 ) ;
#143 = DIRECTION ( 'NONE',  ( 1.000000000000000000, 0.000000000000000000, -0.000000000000000000 ) ) ;
#144 = EDGE_CURVE ( 'NONE', #100, #35, #25, .T. ) ;
#145 = DIRECTION ( 'NONE',  ( 0.000000000000000000, 0.000000000000000000, -1.000000000000000000 ) ) ;
#146 = CIRCLE ( 'NONE', #334, 0.5000000000000004441 ) ;
#147 = DIRECTION ( 'NONE',  ( -0.000000000000000000, -0.000000000000000000, -1.000000000000000000 ) ) ;
#148 = ORIENTED_EDGE ( 'NONE', *, *, #101, .F. ) ;
#149 = EDGE_CURVE ( 'NONE', #2, #298, #98, .T. ) ;
#150 = VERTEX_POINT ( 'NONE', #317 ) ;
#151 = DIRECTION ( 'NONE',  ( 1.000000000000000000, 0.000000000000000000, -0.000000000000000000 ) ) ;
#152 = ADVANCED_FACE ( 'NONE', ( #282 ), #318, .F. ) ;
#153 = ORIENTED_EDGE ( 'NONE', *, *, #340, .T. ) ;
#154 = AXIS2_PLACEMENT_3D ( 'NONE', #85, #90, #231 ) ;
#155 = CIRCLE ( 'NONE', #36, 6.500000000000000888 ) ;
#156 = ORIENTED_EDGE ( 'NONE', *, *, #135, .T. ) ;
#157 = APPROVAL ( #112, 'NEURÈENÝ' ) ;
#158 = CARTESIAN_POINT ( 'NONE',  ( 0.000000000000000000, 0.000000000000000000, 7.500000000000007105 ) ) ;
#159 = FACE_OUTER_BOUND ( 'NONE', #227, .T. ) ;
#160 = CARTESIAN_POINT ( 'NONE',  ( 0.000000000000000000, 0.000000000000000000, 7.500000000000007105 ) ) ;
#161 = DIRECTION ( 'NONE',  ( -0.000000000000000000, -0.000000000000000000, -1.000000000000000000 ) ) ;
#162 = APPROVAL_ROLE ( '' ) ;
#163 = PLANE ( 'NONE',  #313 ) ;
#164 = DATE_AND_TIME ( #54, #104 ) ;
#165 = DIRECTION ( 'NONE',  ( -0.000000000000000000, -0.000000000000000000, -1.000000000000000000 ) ) ;
#166 = ORIENTED_EDGE ( 'NONE', *, *, #101, .T. ) ;
#167 = CC_DESIGN_SECURITY_CLASSIFICATION ( #244, ( #220 ) ) ;
#168 = CARTESIAN_POINT ( 'NONE',  ( 0.000000000000000000, 0.000000000000000000, 0.000000000000000000 ) ) ;
#169 = CIRCLE ( 'NONE', #8, 6.000000000000000888 ) ;
#170 = CC_DESIGN_DATE_AND_TIME_ASSIGNMENT ( #142, #219, ( #108 ) ) ;
#171 = APPROVAL_DATE_TIME ( #345, #281 ) ;
#172 = ORIENTED_EDGE ( 'NONE', *, *, #206, .T. ) ;
#173 = AXIS2_PLACEMENT_3D ( 'NONE', #158, #50, #368 ) ;
#174 = ADVANCED_FACE ( 'NONE', ( #290, #137 ), #163, .T. ) ;
#175 = FACE_BOUND ( 'NONE', #234, .T. ) ;
#176 = ORIENTED_EDGE ( 'NONE', *, *, #79, .F. ) ;
#177 = DIRECTION ( 'NONE',  ( -0.000000000000000000, -0.000000000000000000, -1.000000000000000000 ) ) ;
#178 = VERTEX_POINT ( 'NONE', #259 ) ;
#179 = LINE ( 'NONE', #294, #26 ) ;
#180 = DIRECTION ( 'NONE',  ( 0.000000000000000000, 0.000000000000000000, 1.000000000000000000 ) ) ;
#181 = ORIENTED_EDGE ( 'NONE', *, *, #56, .T. ) ;
#182 = EDGE_CURVE ( 'NONE', #295, #35, #146, .T. ) ;
#183 = EDGE_LOOP ( 'NONE', ( #14, #239 ) ) ;
#184 = CARTESIAN_POINT ( 'NONE',  ( 6.500000000000000888, 0.000000000000000000, 7.500000000000007105 ) ) ;
#185 = EDGE_LOOP ( 'NONE', ( #37, #166 ) ) ;
#186 = DIRECTION ( 'NONE',  ( 1.000000000000000000, 0.000000000000000000, 0.000000000000000000 ) ) ;
#187 = PERSON_AND_ORGANIZATION_ROLE ( 'design_owner' ) ;
#188 = DIRECTION ( 'NONE',  ( 0.000000000000000000, 0.000000000000000000, 1.000000000000000000 ) ) ;
#189 = DIRECTION ( 'NONE',  ( 1.000000000000000000, 0.000000000000000000, 0.000000000000000000 ) ) ;
#190 = EDGE_CURVE ( 'NONE', #328, #358, #353, .T. ) ;
#191 = CALENDAR_DATE ( 2022, 8, 7 ) ;
#192 = DIRECTION ( 'NONE',  ( 1.000000000000000000, 0.000000000000000000, 0.000000000000000000 ) ) ;
#193 = CIRCLE ( 'NONE', #221, 3.000000000000000444 ) ;
#194 = CALENDAR_DATE ( 2022, 8, 7 ) ;
#195 = FACE_OUTER_BOUND ( 'NONE', #255, .T. ) ;
#196 = EDGE_CURVE ( 'NONE', #150, #7, #19, .T. ) ;
#197 = DIRECTION ( 'NONE',  ( 1.000000000000000000, 0.000000000000000000, 0.000000000000000000 ) ) ;
#198 = CLOSED_SHELL ( 'NONE', ( #49, #152, #329, #1, #315, #174, #289, #126, #271, #363, #130 ) ) ;
#199 = APPROVAL_ROLE ( '' ) ;
#200 = ORIENTED_EDGE ( 'NONE', *, *, #190, .F. ) ;
#201 = PLANE ( 'NONE',  #341 ) ;
#202 = VECTOR ( 'NONE', #265, 1000.000000000000000 ) ;
#203 = DIRECTION ( 'NONE',  ( 1.000000000000000000, 0.000000000000000000, 0.000000000000000000 ) ) ;
#204 = CYLINDRICAL_SURFACE ( 'NONE', #379, 6.000000000000000888 ) ;
#205 = FACE_BOUND ( 'NONE', #183, .T. ) ;
#206 = EDGE_CURVE ( 'NONE', #240, #295, #83, .T. ) ;
#207 = AXIS2_PLACEMENT_3D ( 'NONE', #38, #268, #233 ) ;
#208 = DIRECTION ( 'NONE',  ( -1.000000000000000000, 0.000000000000000000, 0.000000000000000000 ) ) ;
#209 = ORIENTED_EDGE ( 'NONE', *, *, #340, .F. ) ;
#210 = DIRECTION ( 'NONE',  ( 1.000000000000000000, 0.000000000000000000, 0.000000000000000000 ) ) ;
#211 = PRODUCT_RELATED_PRODUCT_CATEGORY ( 'detail', '', ( #303 ) ) ;
#212 =( NAMED_UNIT ( * ) PLANE_ANGLE_UNIT ( ) SI_UNIT ( $, .RADIAN. ) );
#213 = VECTOR ( 'NONE', #66, 1000.000000000000000 ) ;
#214 = DIRECTION ( 'NONE',  ( 1.000000000000000000, 0.000000000000000000, 0.000000000000000000 ) ) ;
#215 = CIRCLE ( 'NONE', #59, 0.5000000000000004441 ) ;
#216 = DIRECTION ( 'NONE',  ( -0.000000000000000000, -0.000000000000000000, -1.000000000000000000 ) ) ;
#217 =( LENGTH_UNIT ( ) NAMED_UNIT ( * ) SI_UNIT ( .MILLI., .METRE. ) );
#218 = EDGE_LOOP ( 'NONE', ( #71, #11, #232, #337 ) ) ;
#219 = DATE_TIME_ROLE ( 'creation_date' ) ;
#220 = PRODUCT_DEFINITION_FORMATION_WITH_SPECIFIED_SOURCE ( 'LIBOVOLNÝ', '', #303, .NOT_KNOWN. ) ;
#221 = AXIS2_PLACEMENT_3D ( 'NONE', #367, #216, #189 ) ;
#222 = DATE_AND_TIME ( #191, #276 ) ;
#223 = CC_DESIGN_PERSON_AND_ORGANIZATION_ASSIGNMENT ( #342, #249, ( #108 ) ) ;
#224 = DESIGN_CONTEXT ( 'detailed design', #89, 'design' ) ;
#225 = DIRECTION ( 'NONE',  ( 1.000000000000000000, 0.000000000000000000, 0.000000000000000000 ) ) ;
#226 = VECTOR ( 'NONE', #177, 1000.000000000000000 ) ;
#227 = EDGE_LOOP ( 'NONE', ( #326, #156, #181, #266 ) ) ;
#228 = VECTOR ( 'NONE', #364, 1000.000000000000000 ) ;
#229 = PERSON_AND_ORGANIZATION ( #57, #359 ) ;
#230 = ADVANCED_BREP_SHAPE_REPRESENTATION ( 'c71d', ( #254, #77 ), #273 ) ;
#231 = DIRECTION ( 'NONE',  ( -1.000000000000000000, 0.000000000000000000, 0.000000000000000000 ) ) ;
#232 = ORIENTED_EDGE ( 'NONE', *, *, #144, .F. ) ;
#233 = DIRECTION ( 'NONE',  ( 1.000000000000000000, 0.000000000000000000, -0.000000000000000000 ) ) ;
#234 = EDGE_LOOP ( 'NONE', ( #200, #322 ) ) ;
#235 = AXIS2_PLACEMENT_3D ( 'NONE', #32, #288, #30 ) ;
#236 = DIRECTION ( 'NONE',  ( -0.000000000000000000, -0.000000000000000000, -1.000000000000000000 ) ) ;
#237 = AXIS2_PLACEMENT_3D ( 'NONE', #365, #161, #127 ) ;
#238 = EDGE_CURVE ( 'NONE', #138, #23, #97, .T. ) ;
#239 = ORIENTED_EDGE ( 'NONE', *, *, #9, .F. ) ;
#240 = VERTEX_POINT ( 'NONE', #40 ) ;
#241 = CARTESIAN_POINT ( 'NONE',  ( -3.000000000000000444, 0.000000000000000000, 182.0000000000000000 ) ) ;
#242 = DIRECTION ( 'NONE',  ( 1.000000000000000000, 0.000000000000000000, 0.000000000000000000 ) ) ;
#243 = MECHANICAL_CONTEXT ( 'NONE', #287, 'mechanical' ) ;
#244 = SECURITY_CLASSIFICATION ( '', '', #378 ) ;
#245 = CARTESIAN_POINT ( 'NONE',  ( 0.000000000000000000, 0.000000000000000000, 182.0000000000000000 ) ) ;
#246 = DIRECTION ( 'NONE',  ( 0.000000000000000000, 0.000000000000000000, 1.000000000000000000 ) ) ;
#247 = CC_DESIGN_PERSON_AND_ORGANIZATION_ASSIGNMENT ( #250, #109, ( #220 ) ) ;
#248 = CYLINDRICAL_SURFACE ( 'NONE', #237, 10.00000000000000000 ) ;
#249 = PERSON_AND_ORGANIZATION_ROLE ( 'creator' ) ;
#250 = PERSON_AND_ORGANIZATION ( #57, #359 ) ;
#251 = AXIS2_PLACEMENT_3D ( 'NONE', #53, #165, #225 ) ;
#252 = CARTESIAN_POINT ( 'NONE',  ( 0.000000000000000000, 0.000000000000000000, 7.000000000000000000 ) ) ;
#253 = AXIS2_PLACEMENT_3D ( 'NONE', #261, #348, #192 ) ;
#254 = MANIFOLD_SOLID_BREP ( 'Odebrat vysunutím3', #198 ) ;
#255 = EDGE_LOOP ( 'NONE', ( #124, #349, #324, #267 ) ) ;
#256 = EDGE_CURVE ( 'NONE', #35, #100, #155, .T. ) ;
#257 = SHAPE_DEFINITION_REPRESENTATION ( #331, #230 ) ;
#258 = CALENDAR_DATE ( 2022, 8, 7 ) ;
#259 = CARTESIAN_POINT ( 'NONE',  ( 3.000000000000000444, 3.673940397442060361E-16, 182.0000000000000000 ) ) ;
#260 = CALENDAR_DATE ( 2022, 8, 7 ) ;
#261 = CARTESIAN_POINT ( 'NONE',  ( 0.000000000000000000, 0.000000000000000000, 7.000000000000000000 ) ) ;
#262 = AXIS2_PLACEMENT_3D ( 'NONE', #377, #145, #310 ) ;
#263 = LOCAL_TIME ( 16, 54, 28.00000000000000000, #278 ) ;
#264 = AXIS2_PLACEMENT_3D ( 'NONE', #47, #188, #186 ) ;
#265 = DIRECTION ( 'NONE',  ( 0.000000000000000000, 0.000000000000000000, -1.000000000000000000 ) ) ;
#266 = ORIENTED_EDGE ( 'NONE', *, *, #321, .F. ) ;
#267 = ORIENTED_EDGE ( 'NONE', *, *, #190, .T. ) ;
#268 = DIRECTION ( 'NONE',  ( 0.000000000000000000, 0.000000000000000000, 1.000000000000000000 ) ) ;
#269 = PLANE ( 'NONE',  #207 ) ;
#270 = ORIENTED_EDGE ( 'NONE', *, *, #304, .F. ) ;
#271 = ADVANCED_FACE ( 'NONE', ( #205, #69 ), #201, .T. ) ;
#272 = AXIS2_PLACEMENT_3D ( 'NONE', #168, #343, #197 ) ;
#273 =( GEOMETRIC_REPRESENTATION_CONTEXT ( 3 ) GLOBAL_UNCERTAINTY_ASSIGNED_CONTEXT ( ( #284 ) ) GLOBAL_UNIT_ASSIGNED_CONTEXT ( ( #217, #212, #128 ) ) REPRESENTATION_CONTEXT ( 'NONE', 'WORKASPACE' ) );
#274 = AXIS2_PLACEMENT_3D ( 'NONE', #245, #369, #81 ) ;
#275 = ORIENTED_EDGE ( 'NONE', *, *, #149, .F. ) ;
#276 = LOCAL_TIME ( 16, 54, 28.00000000000000000, #110 ) ;
#277 = DIRECTION ( 'NONE',  ( 0.000000000000000000, 0.000000000000000000, 1.000000000000000000 ) ) ;
#278 = COORDINATED_UNIVERSAL_TIME_OFFSET ( 1, 0, .AHEAD. ) ;
#279 = CARTESIAN_POINT ( 'NONE',  ( -6.500000000000000888, 7.960204194457796463E-16, 7.000000000000002665 ) ) ;
#280 = DATE_AND_TIME ( #258, #296 ) ;
#281 = APPROVAL ( #21, 'NEURÈENÝ' ) ;
#282 = FACE_OUTER_BOUND ( 'NONE', #218, .T. ) ;
#283 = CC_DESIGN_APPROVAL ( #281, ( #220 ) ) ;
#284 = UNCERTAINTY_MEASURE_WITH_UNIT (LENGTH_MEASURE( 1.000000000000000082E-05 ), #217, 'distance_accuracy_value', 'NONE');
#285 = AXIS2_PLACEMENT_3D ( 'NONE', #160, #277, #20 ) ;
#286 = COORDINATED_UNIVERSAL_TIME_OFFSET ( 1, 0, .AHEAD. ) ;
#287 = APPLICATION_CONTEXT ( 'configuration controlled 3d designs of mechanical parts and assemblies' ) ;
#288 = DIRECTION ( 'NONE',  ( -0.000000000000000000, -0.000000000000000000, -1.000000000000000000 ) ) ;
#289 = ADVANCED_FACE ( 'NONE', ( #175, #297 ), #269, .F. ) ;
#290 = FACE_BOUND ( 'NONE', #5, .T. ) ;
#291 = ORIENTED_EDGE ( 'NONE', *, *, #62, .T. ) ;
#292 = CARTESIAN_POINT ( 'NONE',  ( -3.000000000000000444, 0.000000000000000000, 0.000000000000000000 ) ) ;
#293 = ORIENTED_EDGE ( 'NONE', *, *, #182, .F. ) ;
#294 = CARTESIAN_POINT ( 'NONE',  ( -10.00000000000000000, 0.000000000000000000, 7.000000000000000000 ) ) ;
#295 = VERTEX_POINT ( 'NONE', #6 ) ;
#296 = LOCAL_TIME ( 16, 54, 28.00000000000000000, #286 ) ;
#297 = FACE_OUTER_BOUND ( 'NONE', #347, .T. ) ;
#298 = VERTEX_POINT ( 'NONE', #10 ) ;
#299 = ORIENTED_EDGE ( 'NONE', *, *, #62, .F. ) ;
#300 = CARTESIAN_POINT ( 'NONE',  ( 10.00000000000000000, 1.224646799147353256E-15, 0.000000000000000000 ) ) ;
#301 = AXIS2_PLACEMENT_3D ( 'NONE', #28, #141, #111 ) ;
#302 = CC_DESIGN_APPROVAL ( #42, ( #108 ) ) ;
#303 = PRODUCT ( 'c71d', 'c71d', '', ( #243 ) ) ;
#304 = EDGE_CURVE ( 'NONE', #7, #150, #373, .T. ) ;
#305 = LINE ( 'NONE', #17, #228 ) ;
#306 = CARTESIAN_POINT ( 'NONE',  ( 0.000000000000000000, 0.000000000000000000, 182.0000000000000000 ) ) ;
#307 = DIRECTION ( 'NONE',  ( 1.000000000000000000, 0.000000000000000000, 0.000000000000000000 ) ) ;
#308 = EDGE_CURVE ( 'NONE', #361, #178, #125, .T. ) ;
#309 = COORDINATED_UNIVERSAL_TIME_OFFSET ( 1, 0, .AHEAD. ) ;
#310 = DIRECTION ( 'NONE',  ( -1.000000000000000000, 0.000000000000000000, 0.000000000000000000 ) ) ;
#311 = PERSON_AND_ORGANIZATION_ROLE ( 'classification_officer' ) ;
#312 = DIRECTION ( 'NONE',  ( 0.000000000000000000, -1.000000000000000000, 0.000000000000000000 ) ) ;
#313 = AXIS2_PLACEMENT_3D ( 'NONE', #252, #346, #143 ) ;
#314 = DIRECTION ( 'NONE',  ( 1.224646799147353207E-16, 1.000000000000000000, -0.000000000000000000 ) ) ;
#315 = ADVANCED_FACE ( 'NONE', ( #99 ), #34, .T. ) ;
#316 = APPROVAL_DATE_TIME ( #222, #42 ) ;
#317 = CARTESIAN_POINT ( 'NONE',  ( -10.00000000000000000, 0.000000000000000000, 7.000000000000000000 ) ) ;
#318 = TOROIDAL_SURFACE ( 'NONE', #301, 6.500000000000000888, 0.5000000000000000000 ) ;
#319 = AXIS2_PLACEMENT_3D ( 'NONE', #350, #116, #93 ) ;
#320 = EDGE_LOOP ( 'NONE', ( #333, #176, #172, #91 ) ) ;
#321 = EDGE_CURVE ( 'NONE', #361, #328, #72, .T. ) ;
#322 = ORIENTED_EDGE ( 'NONE', *, *, #56, .F. ) ;
#323 = DIRECTION ( 'NONE',  ( -0.000000000000000000, -0.000000000000000000, -1.000000000000000000 ) ) ;
#324 = ORIENTED_EDGE ( 'NONE', *, *, #321, .T. ) ;
#325 = CARTESIAN_POINT ( 'NONE',  ( 0.000000000000000000, 0.000000000000000000, 7.000000000000000000 ) ) ;
#326 = ORIENTED_EDGE ( 'NONE', *, *, #308, .T. ) ;
#327 = CARTESIAN_POINT ( 'NONE',  ( 0.000000000000000000, 0.000000000000000000, 7.000000000000000000 ) ) ;
#328 = VERTEX_POINT ( 'NONE', #292 ) ;
#329 = ADVANCED_FACE ( 'NONE', ( #3 ), #204, .T. ) ;
#330 = CARTESIAN_POINT ( 'NONE',  ( 0.000000000000000000, 0.000000000000000000, 0.000000000000000000 ) ) ;
#331 = PRODUCT_DEFINITION_SHAPE ( 'NONE', 'NONE',  #108 ) ;
#332 = CARTESIAN_POINT ( 'NONE',  ( 0.000000000000000000, 0.000000000000000000, 7.500000000000007105 ) ) ;
#333 = ORIENTED_EDGE ( 'NONE', *, *, #238, .F. ) ;
#334 = AXIS2_PLACEMENT_3D ( 'NONE', #113, #314, #60 ) ;
#335 = APPLICATION_PROTOCOL_DEFINITION ( 'international standard', 'config_control_design', 1994, #287 ) ;
#336 = EDGE_CURVE ( 'NONE', #150, #298, #179, .T. ) ;
#337 = ORIENTED_EDGE ( 'NONE', *, *, #115, .F. ) ;
#338 = AXIS2_PLACEMENT_3D ( 'NONE', #133, #75, #307 ) ;
#339 = PERSON_AND_ORGANIZATION ( #57, #359 ) ;
#340 = EDGE_CURVE ( 'NONE', #7, #2, #305, .T. ) ;
#341 = AXIS2_PLACEMENT_3D ( 'NONE', #381, #180, #151 ) ;
#342 = PERSON_AND_ORGANIZATION ( #57, #359 ) ;
#343 = DIRECTION ( 'NONE',  ( 0.000000000000000000, 0.000000000000000000, 1.000000000000000000 ) ) ;
#344 = CYLINDRICAL_SURFACE ( 'NONE', #154, 6.000000000000000888 ) ;
#345 = DATE_AND_TIME ( #260, #366 ) ;
#346 = DIRECTION ( 'NONE',  ( 0.000000000000000000, 0.000000000000000000, 1.000000000000000000 ) ) ;
#347 = EDGE_LOOP ( 'NONE', ( #78, #275 ) ) ;
#348 = DIRECTION ( 'NONE',  ( 0.000000000000000000, 0.000000000000000000, 1.000000000000000000 ) ) ;
#349 = ORIENTED_EDGE ( 'NONE', *, *, #9, .T. ) ;
#350 = CARTESIAN_POINT ( 'NONE',  ( 0.000000000000000000, 0.000000000000000000, 182.0000000000000000 ) ) ;
#351 = CC_DESIGN_PERSON_AND_ORGANIZATION_ASSIGNMENT ( #87, #106, ( #220 ) ) ;
#352 = CARTESIAN_POINT ( 'NONE',  ( -6.000000000000000888, 0.000000000000000000, 182.0000000000000000 ) ) ;
#353 = CIRCLE ( 'NONE', #235, 3.000000000000000444 ) ;
#354 = EDGE_LOOP ( 'NONE', ( #293, #299, #39, #96 ) ) ;
#355 = DIRECTION ( 'NONE',  ( -1.000000000000000000, 0.000000000000000000, 0.000000000000000000 ) ) ;
#356 = ORIENTED_EDGE ( 'NONE', *, *, #196, .T. ) ;
#357 = DIRECTION ( 'NONE',  ( 0.000000000000000000, 0.000000000000000000, 1.000000000000000000 ) ) ;
#358 = VERTEX_POINT ( 'NONE', #360 ) ;
#359 = ORGANIZATION ( 'NEURÈENÝ', 'NEURÈENÝ', '' ) ;
#360 = CARTESIAN_POINT ( 'NONE',  ( 3.000000000000000444, 3.673940397442060361E-16, 0.000000000000000000 ) ) ;
#361 = VERTEX_POINT ( 'NONE', #241 ) ;
#362 = AXIS2_PLACEMENT_3D ( 'NONE', #306, #103, #214 ) ;
#363 = ADVANCED_FACE ( 'NONE', ( #132 ), #70, .F. ) ;
#364 = DIRECTION ( 'NONE',  ( -0.000000000000000000, -0.000000000000000000, -1.000000000000000000 ) ) ;
#365 = CARTESIAN_POINT ( 'NONE',  ( 0.000000000000000000, 0.000000000000000000, 7.000000000000000000 ) ) ;
#366 = LOCAL_TIME ( 16, 54, 28.00000000000000000, #136 ) ;
#367 = CARTESIAN_POINT ( 'NONE',  ( 0.000000000000000000, 0.000000000000000000, 0.000000000000000000 ) ) ;
#368 = DIRECTION ( 'NONE',  ( 1.000000000000000000, 0.000000000000000000, 0.000000000000000000 ) ) ;
#369 = DIRECTION ( 'NONE',  ( 0.000000000000000000, 0.000000000000000000, -1.000000000000000000 ) ) ;
#370 = APPROVAL_ROLE ( '' ) ;
#371 = DIRECTION ( 'NONE',  ( 0.000000000000000000, 0.000000000000000000, 1.000000000000000000 ) ) ;
#372 = EDGE_CURVE ( 'NONE', #295, #23, #4, .T. ) ;
#373 = CIRCLE ( 'NONE', #82, 10.00000000000000000 ) ;
#374 = APPROVAL_STATUS ( 'not_yet_approved' ) ;
#375 = DIRECTION ( 'NONE',  ( 0.000000000000000000, 0.000000000000000000, -1.000000000000000000 ) ) ;
#376 = CYLINDRICAL_SURFACE ( 'NONE', #262, 3.000000000000000444 ) ;
#377 = CARTESIAN_POINT ( 'NONE',  ( 0.000000000000000000, 0.000000000000000000, 182.0000000000000000 ) ) ;
#378 = SECURITY_CLASSIFICATION_LEVEL ( 'unclassified' ) ;
#379 = AXIS2_PLACEMENT_3D ( 'NONE', #119, #236, #355 ) ;
#380 = CARTESIAN_POINT ( 'NONE',  ( 6.000000000000000888, 7.347880794884120722E-16, 182.0000000000000000 ) ) ;
#381 = CARTESIAN_POINT ( 'NONE',  ( 0.000000000000000000, 0.000000000000000000, 182.0000000000000000 ) ) ;
ENDSEC;
END-ISO-10303-21;
