ISO-10303-21;
HEADER;
FILE_DESCRIPTION (( 'STEP AP203' ),
    '1' );
FILE_NAME ('c256.STEP',
    '2022-07-08T15:19:17',
    ( '' ),
    ( '' ),
    'SwSTEP 2.0',
    'SolidWorks 2019',
    '' );
FILE_SCHEMA (( 'CONFIG_CONTROL_DESIGN' ));
ENDSEC;

DATA;
#1 = DIRECTION ( 'NONE',  ( 0.000000000000000000, 0.000000000000000000, 1.000000000000000000 ) ) ;
#2 = CARTESIAN_POINT ( 'NONE',  ( 0.000000000000000000, 0.000000000000000000, 405.0000000000000000 ) ) ;
#3 = AXIS2_PLACEMENT_3D ( 'NONE', #216, #57, #298 ) ;
#4 = DIRECTION ( 'NONE',  ( 0.000000000000000000, 0.000000000000000000, 1.000000000000000000 ) ) ;
#5 = LOCAL_TIME ( 17, 19, 17.00000000000000000, #231 ) ;
#6 = APPLICATION_CONTEXT ( 'configuration controlled 3d designs of mechanical parts and assemblies' ) ;
#7 = LINE ( 'NONE', #127, #347 ) ;
#8 = CYLINDRICAL_SURFACE ( 'NONE', #379, 2.500000000000000000 ) ;
#9 = ORIENTED_EDGE ( 'NONE', *, *, #167, .T. ) ;
#10 = PERSON_AND_ORGANIZATION_ROLE ( 'design_supplier' ) ;
#11 = AXIS2_PLACEMENT_3D ( 'NONE', #375, #29, #151 ) ;
#12 = ORIENTED_EDGE ( 'NONE', *, *, #217, .T. ) ;
#13 = APPROVAL ( #55, 'NEURÈENÝ' ) ;
#14 = PERSON_AND_ORGANIZATION ( #99, #148 ) ;
#15 = ORIENTED_EDGE ( 'NONE', *, *, #173, .T. ) ;
#16 = EDGE_LOOP ( 'NONE', ( #101, #255, #253, #77 ) ) ;
#17 = VECTOR ( 'NONE', #296, 1000.000000000000000 ) ;
#18 = LOCAL_TIME ( 17, 19, 17.00000000000000000, #117 ) ;
#19 = EDGE_CURVE ( 'NONE', #327, #65, #112, .T. ) ;
#20 = AXIS2_PLACEMENT_3D ( 'NONE', #34, #302, #67 ) ;
#21 = DIRECTION ( 'NONE',  ( -1.000000000000000000, 0.000000000000000000, 0.000000000000000000 ) ) ;
#22 = CARTESIAN_POINT ( 'NONE',  ( 4.500000000000000888, 0.000000000000000000, 5.500000000000005329 ) ) ;
#23 = APPROVAL ( #288, 'NEURÈENÝ' ) ;
#24 = ORIENTED_EDGE ( 'NONE', *, *, #246, .F. ) ;
#25 = LINE ( 'NONE', #215, #17 ) ;
#26 = CC_DESIGN_SECURITY_CLASSIFICATION ( #188, ( #204 ) ) ;
#27 = PLANE ( 'NONE',  #268 ) ;
#28 = COORDINATED_UNIVERSAL_TIME_OFFSET ( 1, 0, .AHEAD. ) ;
#29 = DIRECTION ( 'NONE',  ( 0.000000000000000000, 0.000000000000000000, 1.000000000000000000 ) ) ;
#30 = DIRECTION ( 'NONE',  ( 1.000000000000000000, 0.000000000000000000, 0.000000000000000000 ) ) ;
#31 = EDGE_CURVE ( 'NONE', #46, #175, #266, .T. ) ;
#32 = CARTESIAN_POINT ( 'NONE',  ( -2.500000000000000000, 0.000000000000000000, 0.000000000000000000 ) ) ;
#33 = CARTESIAN_POINT ( 'NONE',  ( -2.500000000000000000, 0.000000000000000000, 405.0000000000000000 ) ) ;
#34 = CARTESIAN_POINT ( 'NONE',  ( 0.000000000000000000, 0.000000000000000000, 5.000000000000000000 ) ) ;
#35 = AXIS2_PLACEMENT_3D ( 'NONE', #82, #316, #180 ) ;
#36 = CYLINDRICAL_SURFACE ( 'NONE', #251, 2.500000000000000000 ) ;
#37 = CC_DESIGN_DATE_AND_TIME_ASSIGNMENT ( #344, #367, ( #121 ) ) ;
#38 = CARTESIAN_POINT ( 'NONE',  ( 7.000000000000000000, 8.572527594031473190E-16, 0.000000000000000000 ) ) ;
#39 = ORIENTED_EDGE ( 'NONE', *, *, #134, .T. ) ;
#40 = ADVANCED_FACE ( 'NONE', ( #239 ), #346, .T. ) ;
#41 = APPROVAL ( #81, 'NEURÈENÝ' ) ;
#42 = AXIS2_PLACEMENT_3D ( 'NONE', #311, #44, #174 ) ;
#43 = ORIENTED_EDGE ( 'NONE', *, *, #139, .T. ) ;
#44 = DIRECTION ( 'NONE',  ( -0.000000000000000000, -0.000000000000000000, -1.000000000000000000 ) ) ;
#45 = ORIENTED_EDGE ( 'NONE', *, *, #31, .F. ) ;
#46 = VERTEX_POINT ( 'NONE', #232 ) ;
#47 = CARTESIAN_POINT ( 'NONE',  ( 0.000000000000000000, 0.000000000000000000, 0.000000000000000000 ) ) ;
#48 = TOROIDAL_SURFACE ( 'NONE', #274, 4.500000000000000888, 0.5000000000000000000 ) ;
#49 = APPROVAL_PERSON_ORGANIZATION ( #259, #23, #314 ) ;
#50 = CARTESIAN_POINT ( 'NONE',  ( 2.500000000000000000, 3.061616997868383141E-16, 0.000000000000000000 ) ) ;
#51 = DIRECTION ( 'NONE',  ( 0.000000000000000000, 0.000000000000000000, 1.000000000000000000 ) ) ;
#52 = AXIS2_PLACEMENT_3D ( 'NONE', #22, #368, #144 ) ;
#53 = DATE_TIME_ROLE ( 'classification_date' ) ;
#54 = CARTESIAN_POINT ( 'NONE',  ( 0.000000000000000000, 0.000000000000000000, 405.0000000000000000 ) ) ;
#55 = APPROVAL_STATUS ( 'not_yet_approved' ) ;
#56 = FACE_OUTER_BOUND ( 'NONE', #343, .T. ) ;
#57 = DIRECTION ( 'NONE',  ( -0.000000000000000000, -0.000000000000000000, -1.000000000000000000 ) ) ;
#58 = CIRCLE ( 'NONE', #303, 4.000000000000000000 ) ;
#59 = EDGE_CURVE ( 'NONE', #73, #325, #94, .T. ) ;
#60 = CARTESIAN_POINT ( 'NONE',  ( 0.000000000000000000, 0.000000000000000000, 405.0000000000000000 ) ) ;
#61 = EDGE_LOOP ( 'NONE', ( #202, #206, #130, #369 ) ) ;
#62 = DIRECTION ( 'NONE',  ( 0.000000000000000000, 0.000000000000000000, -1.000000000000000000 ) ) ;
#63 = CARTESIAN_POINT ( 'NONE',  ( 4.000000000000000000, 4.898587196589412829E-16, 405.0000000000000000 ) ) ;
#64 = CC_DESIGN_PERSON_AND_ORGANIZATION_ASSIGNMENT ( #140, #308, ( #191 ) ) ;
#65 = VERTEX_POINT ( 'NONE', #273 ) ;
#66 = AXIS2_PLACEMENT_3D ( 'NONE', #293, #354, #90 ) ;
#67 = DIRECTION ( 'NONE',  ( 1.000000000000000000, 0.000000000000000000, 0.000000000000000000 ) ) ;
#68 = ORIENTED_EDGE ( 'NONE', *, *, #78, .F. ) ;
#69 = FACE_OUTER_BOUND ( 'NONE', #142, .T. ) ;
#70 = ORIENTED_EDGE ( 'NONE', *, *, #173, .F. ) ;
#71 = EDGE_CURVE ( 'NONE', #325, #75, #319, .T. ) ;
#72 = DATE_AND_TIME ( #168, #5 ) ;
#73 = VERTEX_POINT ( 'NONE', #270 ) ;
#74 = PERSON_AND_ORGANIZATION ( #99, #148 ) ;
#75 = VERTEX_POINT ( 'NONE', #150 ) ;
#76 = MECHANICAL_CONTEXT ( 'NONE', #336, 'mechanical' ) ;
#77 = ORIENTED_EDGE ( 'NONE', *, *, #71, .F. ) ;
#78 = EDGE_CURVE ( 'NONE', #96, #363, #219, .T. ) ;
#79 = ORIENTED_EDGE ( 'NONE', *, *, #221, .T. ) ;
#80 = EDGE_CURVE ( 'NONE', #73, #365, #25, .T. ) ;
#81 = APPROVAL_STATUS ( 'not_yet_approved' ) ;
#82 = CARTESIAN_POINT ( 'NONE',  ( 0.000000000000000000, 0.000000000000000000, 405.0000000000000000 ) ) ;
#83 = CLOSED_SHELL ( 'NONE', ( #373, #135, #40, #115, #233, #152, #306, #340, #225, #318, #345 ) ) ;
#84 = LINE ( 'NONE', #33, #353 ) ;
#85 = CC_DESIGN_DATE_AND_TIME_ASSIGNMENT ( #91, #53, ( #188 ) ) ;
#86 = CARTESIAN_POINT ( 'NONE',  ( 0.000000000000000000, 0.000000000000000000, 5.000000000000000000 ) ) ;
#87 = APPROVAL_ROLE ( '' ) ;
#88 = DIRECTION ( 'NONE',  ( 1.000000000000000000, 0.000000000000000000, 0.000000000000000000 ) ) ;
#89 = CIRCLE ( 'NONE', #11, 7.000000000000000000 ) ;
#90 = DIRECTION ( 'NONE',  ( -1.000000000000000000, 1.224646799147351482E-16, 0.000000000000000000 ) ) ;
#91 = DATE_AND_TIME ( #153, #269 ) ;
#92 = DIRECTION ( 'NONE',  ( -0.000000000000000000, -0.000000000000000000, -1.000000000000000000 ) ) ;
#93 = FACE_OUTER_BOUND ( 'NONE', #108, .T. ) ;
#94 = CIRCLE ( 'NONE', #331, 7.000000000000000000 ) ;
#95 = CARTESIAN_POINT ( 'NONE',  ( -7.000000000000000000, 0.000000000000000000, 5.000000000000000000 ) ) ;
#96 = VERTEX_POINT ( 'NONE', #154 ) ;
#97 = EDGE_CURVE ( 'NONE', #327, #96, #310, .T. ) ;
#98 = DIRECTION ( 'NONE',  ( 1.000000000000000000, 0.000000000000000000, -0.000000000000000000 ) ) ;
#99 = PERSON ( 'NEURÈENÝ', 'NEURÈENÝ', 'NEURÈENÝ', ('NEURÈENÝ'), ('NEURÈENÝ'), ('NEURÈENÝ') ) ;
#100 = FACE_OUTER_BOUND ( 'NONE', #333, .T. ) ;
#101 = ORIENTED_EDGE ( 'NONE', *, *, #59, .F. ) ;
#102 = AXIS2_PLACEMENT_3D ( 'NONE', #54, #185, #30 ) ;
#103 = LOCAL_TIME ( 17, 19, 17.00000000000000000, #28 ) ;
#104 = EDGE_CURVE ( 'NONE', #365, #75, #89, .T. ) ;
#105 = DIRECTION ( 'NONE',  ( 0.000000000000000000, 0.000000000000000000, 1.000000000000000000 ) ) ;
#106 = CC_DESIGN_PERSON_AND_ORGANIZATION_ASSIGNMENT ( #14, #137, ( #121 ) ) ;
#107 = PERSON_AND_ORGANIZATION ( #99, #148 ) ;
#108 = EDGE_LOOP ( 'NONE', ( #43, #138 ) ) ;
#109 = APPROVAL_DATE_TIME ( #72, #41 ) ;
#110 = ORIENTED_EDGE ( 'NONE', *, *, #179, .F. ) ;
#111 = PERSON_AND_ORGANIZATION ( #99, #148 ) ;
#112 = CIRCLE ( 'NONE', #52, 0.5000000000000004441 ) ;
#113 = AXIS2_PLACEMENT_3D ( 'NONE', #2, #279, #161 ) ;
#114 = ORIENTED_EDGE ( 'NONE', *, *, #31, .T. ) ;
#115 = ADVANCED_FACE ( 'NONE', ( #123 ), #244, .T. ) ;
#116 = ORIENTED_EDGE ( 'NONE', *, *, #246, .T. ) ;
#117 = COORDINATED_UNIVERSAL_TIME_OFFSET ( 1, 0, .AHEAD. ) ;
#118 = DIRECTION ( 'NONE',  ( 0.000000000000000000, 0.000000000000000000, -1.000000000000000000 ) ) ;
#119 = CARTESIAN_POINT ( 'NONE',  ( 0.000000000000000000, 0.000000000000000000, 5.500000000000005329 ) ) ;
#120 = CIRCLE ( 'NONE', #378, 7.000000000000000000 ) ;
#121 = PRODUCT_DEFINITION ( 'NEZNÁMÝ', '', #204, #304 ) ;
#122 = CARTESIAN_POINT ( 'NONE',  ( 0.000000000000000000, 0.000000000000000000, 5.500000000000005329 ) ) ;
#123 = FACE_OUTER_BOUND ( 'NONE', #16, .T. ) ;
#124 = FACE_OUTER_BOUND ( 'NONE', #224, .T. ) ;
#125 = DIRECTION ( 'NONE',  ( -0.000000000000000000, -0.000000000000000000, -1.000000000000000000 ) ) ;
#126 = FACE_OUTER_BOUND ( 'NONE', #335, .T. ) ;
#127 = CARTESIAN_POINT ( 'NONE',  ( -4.000000000000000000, 0.000000000000000000, 405.0000000000000000 ) ) ;
#128 = ORIENTED_EDGE ( 'NONE', *, *, #322, .T. ) ;
#129 = DIRECTION ( 'NONE',  ( -0.000000000000000000, -0.000000000000000000, -1.000000000000000000 ) ) ;
#130 = ORIENTED_EDGE ( 'NONE', *, *, #97, .T. ) ;
#131 = DIRECTION ( 'NONE',  ( -0.000000000000000000, -0.000000000000000000, -1.000000000000000000 ) ) ;
#132 = FACE_BOUND ( 'NONE', #199, .T. ) ;
#133 = AXIS2_PLACEMENT_3D ( 'NONE', #122, #242, #245 ) ;
#134 = EDGE_CURVE ( 'NONE', #96, #327, #315, .T. ) ;
#135 = ADVANCED_FACE ( 'NONE', ( #124 ), #320, .F. ) ;
#136 = ORIENTED_EDGE ( 'NONE', *, *, #300, .F. ) ;
#137 = PERSON_AND_ORGANIZATION_ROLE ( 'creator' ) ;
#138 = ORIENTED_EDGE ( 'NONE', *, *, #157, .T. ) ;
#139 = EDGE_CURVE ( 'NONE', #312, #166, #294, .T. ) ;
#140 = PERSON_AND_ORGANIZATION ( #99, #148 ) ;
#141 = CIRCLE ( 'NONE', #3, 2.500000000000000000 ) ;
#142 = EDGE_LOOP ( 'NONE', ( #116, #114, #329, #370 ) ) ;
#143 = DATE_AND_TIME ( #290, #210 ) ;
#144 = DIRECTION ( 'NONE',  ( 0.000000000000000000, 0.000000000000000000, -1.000000000000000000 ) ) ;
#145 = DATE_AND_TIME ( #243, #103 ) ;
#146 = ORIENTED_EDGE ( 'NONE', *, *, #80, .F. ) ;
#147 = VECTOR ( 'NONE', #118, 1000.000000000000000 ) ;
#148 = ORGANIZATION ( 'NEURÈENÝ', 'NEURÈENÝ', '' ) ;
#149 = SHAPE_DEFINITION_REPRESENTATION ( #163, #371 ) ;
#150 = CARTESIAN_POINT ( 'NONE',  ( -7.000000000000000000, 0.000000000000000000, 0.000000000000000000 ) ) ;
#151 = DIRECTION ( 'NONE',  ( 1.000000000000000000, 0.000000000000000000, 0.000000000000000000 ) ) ;
#152 = ADVANCED_FACE ( 'NONE', ( #348, #56 ), #27, .T. ) ;
#153 = CALENDAR_DATE ( 2022, 8, 7 ) ;
#154 = CARTESIAN_POINT ( 'NONE',  ( -4.000000000000000000, 0.000000000000000000, 5.500000000000005329 ) ) ;
#155 = CIRCLE ( 'NONE', #208, 7.000000000000000000 ) ;
#156 = CIRCLE ( 'NONE', #20, 4.500000000000000888 ) ;
#157 = EDGE_CURVE ( 'NONE', #166, #312, #58, .T. ) ;
#158 = CARTESIAN_POINT ( 'NONE',  ( 0.000000000000000000, 0.000000000000000000, 405.0000000000000000 ) ) ;
#159 = CC_DESIGN_PERSON_AND_ORGANIZATION_ASSIGNMENT ( #111, #236, ( #188 ) ) ;
#160 = ORIENTED_EDGE ( 'NONE', *, *, #322, .F. ) ;
#161 = DIRECTION ( 'NONE',  ( -1.000000000000000000, 0.000000000000000000, 0.000000000000000000 ) ) ;
#162 = ORIENTED_EDGE ( 'NONE', *, *, #134, .F. ) ;
#163 = PRODUCT_DEFINITION_SHAPE ( 'NONE', 'NONE',  #121 ) ;
#164 = FACE_OUTER_BOUND ( 'NONE', #342, .T. ) ;
#165 = DIRECTION ( 'NONE',  ( -1.000000000000000000, 0.000000000000000000, 0.000000000000000000 ) ) ;
#166 = VERTEX_POINT ( 'NONE', #321 ) ;
#167 = EDGE_CURVE ( 'NONE', #46, #169, #339, .T. ) ;
#168 = CALENDAR_DATE ( 2022, 8, 7 ) ;
#169 = VERTEX_POINT ( 'NONE', #380 ) ;
#170 = MANIFOLD_SOLID_BREP ( 'Odebrat vysunutím3', #83 ) ;
#171 = PERSON_AND_ORGANIZATION ( #99, #148 ) ;
#172 = EDGE_LOOP ( 'NONE', ( #68, #250, #211, #70 ) ) ;
#173 = EDGE_CURVE ( 'NONE', #363, #65, #183, .T. ) ;
#174 = DIRECTION ( 'NONE',  ( 1.000000000000000000, 0.000000000000000000, 0.000000000000000000 ) ) ;
#175 = VERTEX_POINT ( 'NONE', #50 ) ;
#176 = ORIENTED_EDGE ( 'NONE', *, *, #352, .T. ) ;
#177 = AXIS2_PLACEMENT_3D ( 'NONE', #249, #301, #194 ) ;
#178 = COORDINATED_UNIVERSAL_TIME_OFFSET ( 1, 0, .AHEAD. ) ;
#179 = EDGE_CURVE ( 'NONE', #175, #190, #141, .T. ) ;
#180 = DIRECTION ( 'NONE',  ( -1.000000000000000000, 0.000000000000000000, 0.000000000000000000 ) ) ;
#181 = DIRECTION ( 'NONE',  ( 1.000000000000000000, 0.000000000000000000, 0.000000000000000000 ) ) ;
#182 = DIRECTION ( 'NONE',  ( 0.000000000000000000, 0.000000000000000000, 1.000000000000000000 ) ) ;
#183 = CIRCLE ( 'NONE', #351, 4.500000000000000888 ) ;
#184 = DIRECTION ( 'NONE',  ( 0.000000000000000000, 0.000000000000000000, 1.000000000000000000 ) ) ;
#185 = DIRECTION ( 'NONE',  ( 0.000000000000000000, 0.000000000000000000, 1.000000000000000000 ) ) ;
#186 = CARTESIAN_POINT ( 'NONE',  ( 0.000000000000000000, 0.000000000000000000, 5.000000000000000000 ) ) ;
#187 = AXIS2_PLACEMENT_3D ( 'NONE', #186, #92, #377 ) ;
#188 = SECURITY_CLASSIFICATION ( '', '', #262 ) ;
#189 = DIRECTION ( 'NONE',  ( 0.000000000000000000, 0.000000000000000000, -1.000000000000000000 ) ) ;
#190 = VERTEX_POINT ( 'NONE', #32 ) ;
#191 = PRODUCT ( 'c256', 'c256', '', ( #76 ) ) ;
#192 = DIRECTION ( 'NONE',  ( -0.000000000000000000, -0.000000000000000000, -1.000000000000000000 ) ) ;
#193 = ORIENTED_EDGE ( 'NONE', *, *, #280, .F. ) ;
#194 = DIRECTION ( 'NONE',  ( 1.000000000000000000, 0.000000000000000000, 0.000000000000000000 ) ) ;
#195 = AXIS2_PLACEMENT_3D ( 'NONE', #158, #4, #98 ) ;
#196 = CIRCLE ( 'NONE', #42, 2.500000000000000000 ) ;
#197 = CC_DESIGN_APPROVAL ( #13, ( #188 ) ) ;
#198 = CARTESIAN_POINT ( 'NONE',  ( -4.500000000000000888, 5.510910596163088569E-16, 5.000000000000002665 ) ) ;
#199 = EDGE_LOOP ( 'NONE', ( #24, #227 ) ) ;
#200 = UNCERTAINTY_MEASURE_WITH_UNIT (LENGTH_MEASURE( 1.000000000000000082E-05 ), #237, 'distance_accuracy_value', 'NONE');
#201 = CARTESIAN_POINT ( 'NONE',  ( 0.000000000000000000, 0.000000000000000000, 405.0000000000000000 ) ) ;
#202 = ORIENTED_EDGE ( 'NONE', *, *, #157, .F. ) ;
#203 = AXIS2_PLACEMENT_3D ( 'NONE', #275, #349, #214 ) ;
#204 = PRODUCT_DEFINITION_FORMATION_WITH_SPECIFIED_SOURCE ( 'LIBOVOLNÝ', '', #191, .NOT_KNOWN. ) ;
#205 = PERSON_AND_ORGANIZATION_ROLE ( 'creator' ) ;
#206 = ORIENTED_EDGE ( 'NONE', *, *, #300, .T. ) ;
#207 =( NAMED_UNIT ( * ) SI_UNIT ( $, .STERADIAN. ) SOLID_ANGLE_UNIT ( ) );
#208 = AXIS2_PLACEMENT_3D ( 'NONE', #362, #105, #226 ) ;
#209 =( NAMED_UNIT ( * ) PLANE_ANGLE_UNIT ( ) SI_UNIT ( $, .RADIAN. ) );
#210 = LOCAL_TIME ( 17, 19, 17.00000000000000000, #178 ) ;
#211 = ORIENTED_EDGE ( 'NONE', *, *, #19, .T. ) ;
#212 = CARTESIAN_POINT ( 'NONE',  ( -7.000000000000000000, 0.000000000000000000, 5.000000000000000000 ) ) ;
#213 = DIRECTION ( 'NONE',  ( 0.000000000000000000, 0.000000000000000000, 1.000000000000000000 ) ) ;
#214 = DIRECTION ( 'NONE',  ( 1.000000000000000000, 0.000000000000000000, 0.000000000000000000 ) ) ;
#215 = CARTESIAN_POINT ( 'NONE',  ( 7.000000000000000000, 8.572527594031473190E-16, 5.000000000000000000 ) ) ;
#216 = CARTESIAN_POINT ( 'NONE',  ( 0.000000000000000000, 0.000000000000000000, 0.000000000000000000 ) ) ;
#217 = EDGE_CURVE ( 'NONE', #169, #190, #84, .T. ) ;
#218 = FACE_OUTER_BOUND ( 'NONE', #285, .T. ) ;
#219 = CIRCLE ( 'NONE', #66, 0.5000000000000004441 ) ;
#220 = ORIENTED_EDGE ( 'NONE', *, *, #381, .T. ) ;
#221 = EDGE_CURVE ( 'NONE', #312, #96, #7, .T. ) ;
#222 = DIRECTION ( 'NONE',  ( -1.000000000000000000, 0.000000000000000000, 0.000000000000000000 ) ) ;
#223 = CARTESIAN_POINT ( 'NONE',  ( 0.000000000000000000, 0.000000000000000000, 0.000000000000000000 ) ) ;
#224 = EDGE_LOOP ( 'NONE', ( #162, #278, #291, #361 ) ) ;
#225 = ADVANCED_FACE ( 'NONE', ( #132, #93 ), #307, .T. ) ;
#226 = DIRECTION ( 'NONE',  ( 1.000000000000000000, 0.000000000000000000, 0.000000000000000000 ) ) ;
#227 = ORIENTED_EDGE ( 'NONE', *, *, #167, .F. ) ;
#228 = AXIS2_PLACEMENT_3D ( 'NONE', #283, #1, #305 ) ;
#229 =( GEOMETRIC_REPRESENTATION_CONTEXT ( 3 ) GLOBAL_UNCERTAINTY_ASSIGNED_CONTEXT ( ( #200 ) ) GLOBAL_UNIT_ASSIGNED_CONTEXT ( ( #237, #209, #207 ) ) REPRESENTATION_CONTEXT ( 'NONE', 'WORKASPACE' ) );
#230 = EDGE_LOOP ( 'NONE', ( #309, #110 ) ) ;
#231 = COORDINATED_UNIVERSAL_TIME_OFFSET ( 1, 0, .AHEAD. ) ;
#232 = CARTESIAN_POINT ( 'NONE',  ( 2.500000000000000000, 3.061616997868383141E-16, 405.0000000000000000 ) ) ;
#233 = ADVANCED_FACE ( 'NONE', ( #164 ), #277, .T. ) ;
#234 = DIRECTION ( 'NONE',  ( 1.000000000000000000, 0.000000000000000000, 0.000000000000000000 ) ) ;
#235 = ORIENTED_EDGE ( 'NONE', *, *, #139, .F. ) ;
#236 = PERSON_AND_ORGANIZATION_ROLE ( 'classification_officer' ) ;
#237 =( LENGTH_UNIT ( ) NAMED_UNIT ( * ) SI_UNIT ( .MILLI., .METRE. ) );
#238 = CALENDAR_DATE ( 2022, 8, 7 ) ;
#239 = FACE_OUTER_BOUND ( 'NONE', #61, .T. ) ;
#240 = AXIS2_PLACEMENT_3D ( 'NONE', #119, #184, #317 ) ;
#241 = APPROVAL_DATE_TIME ( #145, #13 ) ;
#242 = DIRECTION ( 'NONE',  ( 0.000000000000000000, 0.000000000000000000, 1.000000000000000000 ) ) ;
#243 = CALENDAR_DATE ( 2022, 8, 7 ) ;
#244 = CYLINDRICAL_SURFACE ( 'NONE', #187, 7.000000000000000000 ) ;
#245 = DIRECTION ( 'NONE',  ( 1.000000000000000000, 0.000000000000000000, 0.000000000000000000 ) ) ;
#246 = EDGE_CURVE ( 'NONE', #169, #46, #289, .T. ) ;
#247 = CARTESIAN_POINT ( 'NONE',  ( 0.000000000000000000, 0.000000000000000000, 5.000000000000000000 ) ) ;
#248 = CARTESIAN_POINT ( 'NONE',  ( 0.000000000000000000, 0.000000000000000000, 5.500000000000005329 ) ) ;
#249 = CARTESIAN_POINT ( 'NONE',  ( 0.000000000000000000, 0.000000000000000000, 405.0000000000000000 ) ) ;
#250 = ORIENTED_EDGE ( 'NONE', *, *, #97, .F. ) ;
#251 = AXIS2_PLACEMENT_3D ( 'NONE', #60, #189, #165 ) ;
#252 = CARTESIAN_POINT ( 'NONE',  ( -4.000000000000000000, 0.000000000000000000, 405.0000000000000000 ) ) ;
#253 = ORIENTED_EDGE ( 'NONE', *, *, #104, .T. ) ;
#254 = PLANE ( 'NONE',  #228 ) ;
#255 = ORIENTED_EDGE ( 'NONE', *, *, #80, .T. ) ;
#256 = LINE ( 'NONE', #63, #257 ) ;
#257 = VECTOR ( 'NONE', #129, 1000.000000000000000 ) ;
#258 = CC_DESIGN_APPROVAL ( #23, ( #121 ) ) ;
#259 = PERSON_AND_ORGANIZATION ( #99, #148 ) ;
#260 = APPLICATION_PROTOCOL_DEFINITION ( 'international standard', 'config_control_design', 1994, #336 ) ;
#261 = ORIENTED_EDGE ( 'NONE', *, *, #59, .T. ) ;
#262 = SECURITY_CLASSIFICATION_LEVEL ( 'unclassified' ) ;
#263 = EDGE_LOOP ( 'NONE', ( #176, #15 ) ) ;
#264 = APPLICATION_PROTOCOL_DEFINITION ( 'international standard', 'config_control_design', 1994, #6 ) ;
#265 = ORIENTED_EDGE ( 'NONE', *, *, #104, .F. ) ;
#266 = LINE ( 'NONE', #372, #147 ) ;
#267 = DIRECTION ( 'NONE',  ( -0.000000000000000000, -0.000000000000000000, -1.000000000000000000 ) ) ;
#268 = AXIS2_PLACEMENT_3D ( 'NONE', #86, #213, #376 ) ;
#269 = LOCAL_TIME ( 17, 19, 17.00000000000000000, #341 ) ;
#270 = CARTESIAN_POINT ( 'NONE',  ( 7.000000000000000000, 8.572527594031473190E-16, 5.000000000000000000 ) ) ;
#271 = PERSON_AND_ORGANIZATION ( #99, #148 ) ;
#272 = DIRECTION ( 'NONE',  ( 1.000000000000000000, 0.000000000000000000, 0.000000000000000000 ) ) ;
#273 = CARTESIAN_POINT ( 'NONE',  ( 4.500000000000000888, 0.000000000000000000, 5.000000000000002665 ) ) ;
#274 = AXIS2_PLACEMENT_3D ( 'NONE', #248, #328, #364 ) ;
#275 = CARTESIAN_POINT ( 'NONE',  ( 0.000000000000000000, 0.000000000000000000, 5.500000000000005329 ) ) ;
#276 = DIRECTION ( 'NONE',  ( 0.000000000000000000, 0.000000000000000000, -1.000000000000000000 ) ) ;
#277 = CYLINDRICAL_SURFACE ( 'NONE', #286, 7.000000000000000000 ) ;
#278 = ORIENTED_EDGE ( 'NONE', *, *, #78, .T. ) ;
#279 = DIRECTION ( 'NONE',  ( -0.000000000000000000, -0.000000000000000000, -1.000000000000000000 ) ) ;
#280 = EDGE_CURVE ( 'NONE', #75, #365, #120, .T. ) ;
#281 = AXIS2_PLACEMENT_3D ( 'NONE', #323, #51, #88 ) ;
#282 = ORIENTED_EDGE ( 'NONE', *, *, #280, .T. ) ;
#283 = CARTESIAN_POINT ( 'NONE',  ( 0.000000000000000000, 0.000000000000000000, 0.000000000000000000 ) ) ;
#284 = CARTESIAN_POINT ( 'NONE',  ( 4.000000000000000000, 4.898587196589412829E-16, 5.500000000000005329 ) ) ;
#285 = EDGE_LOOP ( 'NONE', ( #136, #235, #79, #39 ) ) ;
#286 = AXIS2_PLACEMENT_3D ( 'NONE', #330, #131, #222 ) ;
#287 = APPROVAL_ROLE ( '' ) ;
#288 = APPROVAL_STATUS ( 'not_yet_approved' ) ;
#289 = CIRCLE ( 'NONE', #177, 2.500000000000000000 ) ;
#290 = CALENDAR_DATE ( 2022, 8, 7 ) ;
#291 = ORIENTED_EDGE ( 'NONE', *, *, #352, .F. ) ;
#292 = CC_DESIGN_PERSON_AND_ORGANIZATION_ASSIGNMENT ( #107, #10, ( #204 ) ) ;
#293 = CARTESIAN_POINT ( 'NONE',  ( -4.500000000000000888, 5.510910596163089556E-16, 5.500000000000005329 ) ) ;
#294 = CIRCLE ( 'NONE', #281, 4.000000000000000000 ) ;
#295 = AXIS2_PLACEMENT_3D ( 'NONE', #47, #313, #234 ) ;
#296 = DIRECTION ( 'NONE',  ( -0.000000000000000000, -0.000000000000000000, -1.000000000000000000 ) ) ;
#297 = DIRECTION ( 'NONE',  ( 0.000000000000000000, 0.000000000000000000, 1.000000000000000000 ) ) ;
#298 = DIRECTION ( 'NONE',  ( 1.000000000000000000, 0.000000000000000000, 0.000000000000000000 ) ) ;
#299 = FACE_OUTER_BOUND ( 'NONE', #172, .T. ) ;
#300 = EDGE_CURVE ( 'NONE', #166, #327, #256, .T. ) ;
#301 = DIRECTION ( 'NONE',  ( 0.000000000000000000, 0.000000000000000000, 1.000000000000000000 ) ) ;
#302 = DIRECTION ( 'NONE',  ( -0.000000000000000000, -0.000000000000000000, -1.000000000000000000 ) ) ;
#303 = AXIS2_PLACEMENT_3D ( 'NONE', #350, #182, #272 ) ;
#304 = DESIGN_CONTEXT ( 'detailed design', #6, 'design' ) ;
#305 = DIRECTION ( 'NONE',  ( 1.000000000000000000, 0.000000000000000000, -0.000000000000000000 ) ) ;
#306 = ADVANCED_FACE ( 'NONE', ( #324, #100 ), #254, .F. ) ;
#307 = PLANE ( 'NONE',  #195 ) ;
#308 = PERSON_AND_ORGANIZATION_ROLE ( 'design_owner' ) ;
#309 = ORIENTED_EDGE ( 'NONE', *, *, #381, .F. ) ;
#310 = CIRCLE ( 'NONE', #240, 4.000000000000000000 ) ;
#311 = CARTESIAN_POINT ( 'NONE',  ( 0.000000000000000000, 0.000000000000000000, 0.000000000000000000 ) ) ;
#312 = VERTEX_POINT ( 'NONE', #252 ) ;
#313 = DIRECTION ( 'NONE',  ( 0.000000000000000000, 0.000000000000000000, 1.000000000000000000 ) ) ;
#314 = APPROVAL_ROLE ( '' ) ;
#315 = CIRCLE ( 'NONE', #203, 4.000000000000000000 ) ;
#316 = DIRECTION ( 'NONE',  ( -0.000000000000000000, -0.000000000000000000, -1.000000000000000000 ) ) ;
#317 = DIRECTION ( 'NONE',  ( 1.000000000000000000, 0.000000000000000000, 0.000000000000000000 ) ) ;
#318 = ADVANCED_FACE ( 'NONE', ( #299 ), #48, .F. ) ;
#319 = LINE ( 'NONE', #212, #357 ) ;
#320 = TOROIDAL_SURFACE ( 'NONE', #133, 4.500000000000000888, 0.5000000000000000000 ) ;
#321 = CARTESIAN_POINT ( 'NONE',  ( 4.000000000000000000, 4.898587196589412829E-16, 405.0000000000000000 ) ) ;
#322 = EDGE_CURVE ( 'NONE', #325, #73, #155, .T. ) ;
#323 = CARTESIAN_POINT ( 'NONE',  ( 0.000000000000000000, 0.000000000000000000, 405.0000000000000000 ) ) ;
#324 = FACE_BOUND ( 'NONE', #230, .T. ) ;
#325 = VERTEX_POINT ( 'NONE', #95 ) ;
#326 = PRODUCT_RELATED_PRODUCT_CATEGORY ( 'detail', '', ( #191 ) ) ;
#327 = VERTEX_POINT ( 'NONE', #284 ) ;
#328 = DIRECTION ( 'NONE',  ( 0.000000000000000000, 0.000000000000000000, 1.000000000000000000 ) ) ;
#329 = ORIENTED_EDGE ( 'NONE', *, *, #179, .T. ) ;
#330 = CARTESIAN_POINT ( 'NONE',  ( 0.000000000000000000, 0.000000000000000000, 5.000000000000000000 ) ) ;
#331 = AXIS2_PLACEMENT_3D ( 'NONE', #337, #297, #181 ) ;
#332 = CC_DESIGN_APPROVAL ( #41, ( #204 ) ) ;
#333 = EDGE_LOOP ( 'NONE', ( #193, #265 ) ) ;
#334 = DIRECTION ( 'NONE',  ( 0.000000000000000000, 0.000000000000000000, 1.000000000000000000 ) ) ;
#335 = EDGE_LOOP ( 'NONE', ( #45, #9, #12, #220 ) ) ;
#336 = APPLICATION_CONTEXT ( 'configuration controlled 3d designs of mechanical parts and assemblies' ) ;
#337 = CARTESIAN_POINT ( 'NONE',  ( 0.000000000000000000, 0.000000000000000000, 5.000000000000000000 ) ) ;
#338 = ORIENTED_EDGE ( 'NONE', *, *, #71, .T. ) ;
#339 = CIRCLE ( 'NONE', #102, 2.500000000000000000 ) ;
#340 = ADVANCED_FACE ( 'NONE', ( #218 ), #358, .T. ) ;
#341 = COORDINATED_UNIVERSAL_TIME_OFFSET ( 1, 0, .AHEAD. ) ;
#342 = EDGE_LOOP ( 'NONE', ( #146, #160, #338, #282 ) ) ;
#343 = EDGE_LOOP ( 'NONE', ( #128, #261 ) ) ;
#344 = DATE_AND_TIME ( #238, #18 ) ;
#345 = ADVANCED_FACE ( 'NONE', ( #126 ), #36, .F. ) ;
#346 = CYLINDRICAL_SURFACE ( 'NONE', #35, 4.000000000000000000 ) ;
#347 = VECTOR ( 'NONE', #192, 1000.000000000000000 ) ;
#348 = FACE_BOUND ( 'NONE', #263, .T. ) ;
#349 = DIRECTION ( 'NONE',  ( 0.000000000000000000, 0.000000000000000000, 1.000000000000000000 ) ) ;
#350 = CARTESIAN_POINT ( 'NONE',  ( 0.000000000000000000, 0.000000000000000000, 405.0000000000000000 ) ) ;
#351 = AXIS2_PLACEMENT_3D ( 'NONE', #247, #267, #355 ) ;
#352 = EDGE_CURVE ( 'NONE', #65, #363, #156, .T. ) ;
#353 = VECTOR ( 'NONE', #62, 1000.000000000000000 ) ;
#354 = DIRECTION ( 'NONE',  ( 1.224646799147353207E-16, 1.000000000000000000, -0.000000000000000000 ) ) ;
#355 = DIRECTION ( 'NONE',  ( 1.000000000000000000, 0.000000000000000000, 0.000000000000000000 ) ) ;
#356 = CC_DESIGN_PERSON_AND_ORGANIZATION_ASSIGNMENT ( #74, #205, ( #204 ) ) ;
#357 = VECTOR ( 'NONE', #125, 1000.000000000000000 ) ;
#358 = CYLINDRICAL_SURFACE ( 'NONE', #113, 4.000000000000000000 ) ;
#359 = APPROVAL_PERSON_ORGANIZATION ( #171, #41, #287 ) ;
#360 = DIRECTION ( 'NONE',  ( 1.000000000000000000, 0.000000000000000000, 0.000000000000000000 ) ) ;
#361 = ORIENTED_EDGE ( 'NONE', *, *, #19, .F. ) ;
#362 = CARTESIAN_POINT ( 'NONE',  ( 0.000000000000000000, 0.000000000000000000, 5.000000000000000000 ) ) ;
#363 = VERTEX_POINT ( 'NONE', #198 ) ;
#364 = DIRECTION ( 'NONE',  ( 1.000000000000000000, 0.000000000000000000, 0.000000000000000000 ) ) ;
#365 = VERTEX_POINT ( 'NONE', #38 ) ;
#366 = APPROVAL_DATE_TIME ( #143, #23 ) ;
#367 = DATE_TIME_ROLE ( 'creation_date' ) ;
#368 = DIRECTION ( 'NONE',  ( 0.000000000000000000, -1.000000000000000000, 0.000000000000000000 ) ) ;
#369 = ORIENTED_EDGE ( 'NONE', *, *, #221, .F. ) ;
#370 = ORIENTED_EDGE ( 'NONE', *, *, #217, .F. ) ;
#371 = ADVANCED_BREP_SHAPE_REPRESENTATION ( 'c256', ( #170, #295 ), #229 ) ;
#372 = CARTESIAN_POINT ( 'NONE',  ( 2.500000000000000000, 3.061616997868383141E-16, 405.0000000000000000 ) ) ;
#373 = ADVANCED_FACE ( 'NONE', ( #69 ), #8, .F. ) ;
#374 = APPROVAL_PERSON_ORGANIZATION ( #271, #13, #87 ) ;
#375 = CARTESIAN_POINT ( 'NONE',  ( 0.000000000000000000, 0.000000000000000000, 0.000000000000000000 ) ) ;
#376 = DIRECTION ( 'NONE',  ( 1.000000000000000000, 0.000000000000000000, -0.000000000000000000 ) ) ;
#377 = DIRECTION ( 'NONE',  ( -1.000000000000000000, 0.000000000000000000, 0.000000000000000000 ) ) ;
#378 = AXIS2_PLACEMENT_3D ( 'NONE', #223, #334, #360 ) ;
#379 = AXIS2_PLACEMENT_3D ( 'NONE', #201, #276, #21 ) ;
#380 = CARTESIAN_POINT ( 'NONE',  ( -2.500000000000000000, 0.000000000000000000, 405.0000000000000000 ) ) ;
#381 = EDGE_CURVE ( 'NONE', #190, #175, #196, .T. ) ;
ENDSEC;
END-ISO-10303-21;
