ISO-10303-21;
HEADER;
FILE_DESCRIPTION (( 'STEP AP203' ),
    '1' );
FILE_NAME ('1c4e.STEP',
    '2022-07-08T15:19:00',
    ( '' ),
    ( '' ),
    'SwSTEP 2.0',
    'SolidWorks 2019',
    '' );
FILE_SCHEMA (( 'CONFIG_CONTROL_DESIGN' ));
ENDSEC;

DATA;
#1 = DIRECTION ( 'NONE',  ( 1.000000000000000000, 0.000000000000000000, 0.000000000000000000 ) ) ;
#2 = AXIS2_PLACEMENT_3D ( 'NONE', #70, #190, #219 ) ;
#3 = AXIS2_PLACEMENT_3D ( 'NONE', #266, #355, #217 ) ;
#4 = CALENDAR_DATE ( 2022, 8, 7 ) ;
#5 = ADVANCED_FACE ( 'NONE', ( #189 ), #91, .F. ) ;
#6 = SHAPE_DEFINITION_REPRESENTATION ( #136, #71 ) ;
#7 = CC_DESIGN_PERSON_AND_ORGANIZATION_ASSIGNMENT ( #86, #23, ( #92 ) ) ;
#8 = APPROVAL_DATE_TIME ( #241, #356 ) ;
#9 = CARTESIAN_POINT ( 'NONE',  ( 0.000000000000000000, 0.000000000000000000, 0.000000000000000000 ) ) ;
#10 = CARTESIAN_POINT ( 'NONE',  ( 0.000000000000000000, 0.000000000000000000, 5.000000000000000000 ) ) ;
#11 = CARTESIAN_POINT ( 'NONE',  ( 0.000000000000000000, 0.000000000000000000, 0.000000000000000000 ) ) ;
#12 = EDGE_CURVE ( 'NONE', #172, #198, #131, .T. ) ;
#13 = LOCAL_TIME ( 17, 19, 0.000000000000000000, #330 ) ;
#14 = DIRECTION ( 'NONE',  ( 0.000000000000000000, 0.000000000000000000, 1.000000000000000000 ) ) ;
#15 = CARTESIAN_POINT ( 'NONE',  ( 0.000000000000000000, 0.000000000000000000, 5.000000000000000000 ) ) ;
#16 = EDGE_CURVE ( 'NONE', #234, #177, #125, .T. ) ;
#17 = ORIENTED_EDGE ( 'NONE', *, *, #127, .F. ) ;
#18 = CARTESIAN_POINT ( 'NONE',  ( -2.500000000000000000, 0.000000000000000000, 505.0000000000000000 ) ) ;
#19 = ORIENTED_EDGE ( 'NONE', *, *, #66, .T. ) ;
#20 = DIRECTION ( 'NONE',  ( 1.000000000000000000, 0.000000000000000000, 0.000000000000000000 ) ) ;
#21 = VECTOR ( 'NONE', #58, 1000.000000000000000 ) ;
#22 = VERTEX_POINT ( 'NONE', #350 ) ;
#23 = PERSON_AND_ORGANIZATION_ROLE ( 'creator' ) ;
#24 = ORIENTED_EDGE ( 'NONE', *, *, #16, .T. ) ;
#25 = PERSON_AND_ORGANIZATION_ROLE ( 'design_owner' ) ;
#26 = ORIENTED_EDGE ( 'NONE', *, *, #156, .T. ) ;
#27 = CARTESIAN_POINT ( 'NONE',  ( 2.500000000000000000, 3.061616997868383141E-16, 0.000000000000000000 ) ) ;
#28 = AXIS2_PLACEMENT_3D ( 'NONE', #228, #90, #265 ) ;
#29 = DIRECTION ( 'NONE',  ( 0.000000000000000000, 0.000000000000000000, 1.000000000000000000 ) ) ;
#30 = PERSON_AND_ORGANIZATION ( #52, #220 ) ;
#31 = DIRECTION ( 'NONE',  ( 0.000000000000000000, -1.000000000000000000, 0.000000000000000000 ) ) ;
#32 = AXIS2_PLACEMENT_3D ( 'NONE', #100, #268, #381 ) ;
#33 = CARTESIAN_POINT ( 'NONE',  ( 2.500000000000000000, 3.061616997868383141E-16, 505.0000000000000000 ) ) ;
#34 = EDGE_CURVE ( 'NONE', #22, #172, #298, .T. ) ;
#35 = APPROVAL_DATE_TIME ( #296, #47 ) ;
#36 = CIRCLE ( 'NONE', #135, 4.000000000000000000 ) ;
#37 = LOCAL_TIME ( 17, 19, 0.000000000000000000, #63 ) ;
#38 = DATE_TIME_ROLE ( 'classification_date' ) ;
#39 = LINE ( 'NONE', #161, #68 ) ;
#40 = DIRECTION ( 'NONE',  ( 0.000000000000000000, 0.000000000000000000, 1.000000000000000000 ) ) ;
#41 = EDGE_CURVE ( 'NONE', #177, #234, #223, .T. ) ;
#42 = CARTESIAN_POINT ( 'NONE',  ( -4.500000000000000888, 5.510910596163089556E-16, 5.500000000000005329 ) ) ;
#43 = AXIS2_PLACEMENT_3D ( 'NONE', #305, #80, #365 ) ;
#44 = CARTESIAN_POINT ( 'NONE',  ( -4.000000000000000000, 0.000000000000000000, 505.0000000000000000 ) ) ;
#45 = DIRECTION ( 'NONE',  ( 0.000000000000000000, 0.000000000000000000, 1.000000000000000000 ) ) ;
#46 = TOROIDAL_SURFACE ( 'NONE', #99, 4.500000000000000888, 0.5000000000000000000 ) ;
#47 = APPROVAL ( #121, 'NEURÈENÝ' ) ;
#48 = EDGE_LOOP ( 'NONE', ( #370, #19, #115, #54 ) ) ;
#49 = DIRECTION ( 'NONE',  ( 1.000000000000000000, 0.000000000000000000, 0.000000000000000000 ) ) ;
#50 = ORIENTED_EDGE ( 'NONE', *, *, #222, .F. ) ;
#51 = CALENDAR_DATE ( 2022, 8, 7 ) ;
#52 = PERSON ( 'NEURÈENÝ', 'NEURÈENÝ', 'NEURÈENÝ', ('NEURÈENÝ'), ('NEURÈENÝ'), ('NEURÈENÝ') ) ;
#53 = CIRCLE ( 'NONE', #227, 2.500000000000000000 ) ;
#54 = ORIENTED_EDGE ( 'NONE', *, *, #236, .T. ) ;
#55 = DIRECTION ( 'NONE',  ( 0.000000000000000000, 0.000000000000000000, 1.000000000000000000 ) ) ;
#56 = EDGE_LOOP ( 'NONE', ( #26, #173 ) ) ;
#57 = CC_DESIGN_PERSON_AND_ORGANIZATION_ASSIGNMENT ( #244, #65, ( #182 ) ) ;
#58 = DIRECTION ( 'NONE',  ( 0.000000000000000000, 0.000000000000000000, -1.000000000000000000 ) ) ;
#59 = ORIENTED_EDGE ( 'NONE', *, *, #178, .F. ) ;
#60 = DIRECTION ( 'NONE',  ( -0.000000000000000000, -0.000000000000000000, -1.000000000000000000 ) ) ;
#61 = CIRCLE ( 'NONE', #366, 4.000000000000000000 ) ;
#62 = CARTESIAN_POINT ( 'NONE',  ( 4.000000000000000000, 4.898587196589412829E-16, 505.0000000000000000 ) ) ;
#63 = COORDINATED_UNIVERSAL_TIME_OFFSET ( 1, 0, .AHEAD. ) ;
#64 = CARTESIAN_POINT ( 'NONE',  ( 0.000000000000000000, 0.000000000000000000, 505.0000000000000000 ) ) ;
#65 = PERSON_AND_ORGANIZATION_ROLE ( 'classification_officer' ) ;
#66 = EDGE_CURVE ( 'NONE', #110, #231, #199, .T. ) ;
#67 = APPROVAL_PERSON_ORGANIZATION ( #30, #78, #207 ) ;
#68 = VECTOR ( 'NONE', #155, 1000.000000000000000 ) ;
#69 = EDGE_LOOP ( 'NONE', ( #132, #319 ) ) ;
#70 = CARTESIAN_POINT ( 'NONE',  ( 0.000000000000000000, 0.000000000000000000, 5.000000000000000000 ) ) ;
#71 = ADVANCED_BREP_SHAPE_REPRESENTATION ( '1c4e', ( #108, #212 ), #93 ) ;
#72 = AXIS2_PLACEMENT_3D ( 'NONE', #276, #303, #363 ) ;
#73 = CARTESIAN_POINT ( 'NONE',  ( 0.000000000000000000, 0.000000000000000000, 5.500000000000005329 ) ) ;
#74 = DIRECTION ( 'NONE',  ( 1.224646799147353207E-16, 1.000000000000000000, -0.000000000000000000 ) ) ;
#75 = ADVANCED_FACE ( 'NONE', ( #293, #352 ), #325, .T. ) ;
#76 = AXIS2_PLACEMENT_3D ( 'NONE', #247, #358, #1 ) ;
#77 = CARTESIAN_POINT ( 'NONE',  ( 0.000000000000000000, 0.000000000000000000, 505.0000000000000000 ) ) ;
#78 = APPROVAL ( #321, 'NEURÈENÝ' ) ;
#79 = AXIS2_PLACEMENT_3D ( 'NONE', #193, #304, #20 ) ;
#80 = DIRECTION ( 'NONE',  ( 0.000000000000000000, 0.000000000000000000, 1.000000000000000000 ) ) ;
#81 = EDGE_LOOP ( 'NONE', ( #316, #348, #144, #59 ) ) ;
#82 = CARTESIAN_POINT ( 'NONE',  ( 0.000000000000000000, 0.000000000000000000, 505.0000000000000000 ) ) ;
#83 = CLOSED_SHELL ( 'NONE', ( #5, #124, #174, #187, #148, #368, #215, #104, #75, #267, #275 ) ) ;
#84 = VERTEX_POINT ( 'NONE', #122 ) ;
#85 = ORIENTED_EDGE ( 'NONE', *, *, #12, .F. ) ;
#86 = PERSON_AND_ORGANIZATION ( #52, #220 ) ;
#87 = PRODUCT_RELATED_PRODUCT_CATEGORY ( 'detail', '', ( #96 ) ) ;
#88 = ORIENTED_EDGE ( 'NONE', *, *, #12, .T. ) ;
#89 = EDGE_LOOP ( 'NONE', ( #364, #17, #88, #310 ) ) ;
#90 = DIRECTION ( 'NONE',  ( 0.000000000000000000, 0.000000000000000000, 1.000000000000000000 ) ) ;
#91 = CYLINDRICAL_SURFACE ( 'NONE', #337, 2.500000000000000000 ) ;
#92 = PRODUCT_DEFINITION ( 'NEZNÁMÝ', '', #128, #306 ) ;
#93 =( GEOMETRIC_REPRESENTATION_CONTEXT ( 3 ) GLOBAL_UNCERTAINTY_ASSIGNED_CONTEXT ( ( #281 ) ) GLOBAL_UNIT_ASSIGNED_CONTEXT ( ( #294, #315, #147 ) ) REPRESENTATION_CONTEXT ( 'NONE', 'WORKASPACE' ) );
#94 = FACE_OUTER_BOUND ( 'NONE', #210, .T. ) ;
#95 = APPLICATION_CONTEXT ( 'configuration controlled 3d designs of mechanical parts and assemblies' ) ;
#96 = PRODUCT ( '1c4e', '1c4e', '', ( #113 ) ) ;
#97 = VECTOR ( 'NONE', #200, 1000.000000000000000 ) ;
#98 = ORIENTED_EDGE ( 'NONE', *, *, #34, .F. ) ;
#99 = AXIS2_PLACEMENT_3D ( 'NONE', #130, #126, #357 ) ;
#100 = CARTESIAN_POINT ( 'NONE',  ( 0.000000000000000000, 0.000000000000000000, 505.0000000000000000 ) ) ;
#101 = CARTESIAN_POINT ( 'NONE',  ( 0.000000000000000000, 0.000000000000000000, 505.0000000000000000 ) ) ;
#102 = AXIS2_PLACEMENT_3D ( 'NONE', #42, #74, #169 ) ;
#103 = CYLINDRICAL_SURFACE ( 'NONE', #167, 4.000000000000000000 ) ;
#104 = ADVANCED_FACE ( 'NONE', ( #94 ), #213, .T. ) ;
#105 = DIRECTION ( 'NONE',  ( -0.000000000000000000, -0.000000000000000000, -1.000000000000000000 ) ) ;
#106 = CYLINDRICAL_SURFACE ( 'NONE', #72, 7.000000000000000000 ) ;
#107 = ORIENTED_EDGE ( 'NONE', *, *, #236, .F. ) ;
#108 = MANIFOLD_SOLID_BREP ( 'Odebrat vysunutím3', #83 ) ;
#109 = LINE ( 'NONE', #197, #191 ) ;
#110 = VERTEX_POINT ( 'NONE', #33 ) ;
#111 = PLANE ( 'NONE',  #43 ) ;
#112 = EDGE_LOOP ( 'NONE', ( #118, #146, #149, #229 ) ) ;
#113 = MECHANICAL_CONTEXT ( 'NONE', #95, 'mechanical' ) ;
#114 = EDGE_CURVE ( 'NONE', #253, #226, #39, .T. ) ;
#115 = ORIENTED_EDGE ( 'NONE', *, *, #178, .T. ) ;
#116 = CARTESIAN_POINT ( 'NONE',  ( 2.500000000000000000, 3.061616997868383141E-16, 505.0000000000000000 ) ) ;
#117 = LOCAL_TIME ( 17, 19, 0.000000000000000000, #145 ) ;
#118 = ORIENTED_EDGE ( 'NONE', *, *, #196, .F. ) ;
#119 = DIRECTION ( 'NONE',  ( -0.000000000000000000, -0.000000000000000000, -1.000000000000000000 ) ) ;
#120 = DIRECTION ( 'NONE',  ( 1.000000000000000000, 0.000000000000000000, 0.000000000000000000 ) ) ;
#121 = APPROVAL_STATUS ( 'not_yet_approved' ) ;
#122 = CARTESIAN_POINT ( 'NONE',  ( -7.000000000000000000, 0.000000000000000000, 5.000000000000000000 ) ) ;
#123 = CIRCLE ( 'NONE', #28, 7.000000000000000000 ) ;
#124 = ADVANCED_FACE ( 'NONE', ( #165 ), #46, .F. ) ;
#125 = CIRCLE ( 'NONE', #176, 7.000000000000000000 ) ;
#126 = DIRECTION ( 'NONE',  ( 0.000000000000000000, 0.000000000000000000, 1.000000000000000000 ) ) ;
#127 = EDGE_CURVE ( 'NONE', #172, #226, #309, .T. ) ;
#128 = PRODUCT_DEFINITION_FORMATION_WITH_SPECIFIED_SOURCE ( 'LIBOVOLNÝ', '', #96, .NOT_KNOWN. ) ;
#129 = SECURITY_CLASSIFICATION_LEVEL ( 'unclassified' ) ;
#130 = CARTESIAN_POINT ( 'NONE',  ( 0.000000000000000000, 0.000000000000000000, 5.500000000000005329 ) ) ;
#131 = CIRCLE ( 'NONE', #242, 0.5000000000000004441 ) ;
#132 = ORIENTED_EDGE ( 'NONE', *, *, #239, .F. ) ;
#133 = DIRECTION ( 'NONE',  ( -0.000000000000000000, -0.000000000000000000, -1.000000000000000000 ) ) ;
#134 = LINE ( 'NONE', #18, #97 ) ;
#135 = AXIS2_PLACEMENT_3D ( 'NONE', #101, #180, #152 ) ;
#136 = PRODUCT_DEFINITION_SHAPE ( 'NONE', 'NONE',  #92 ) ;
#137 = CARTESIAN_POINT ( 'NONE',  ( -4.000000000000000000, 0.000000000000000000, 5.500000000000005329 ) ) ;
#138 = DIRECTION ( 'NONE',  ( -1.000000000000000000, 0.000000000000000000, 0.000000000000000000 ) ) ;
#139 = ORIENTED_EDGE ( 'NONE', *, *, #41, .T. ) ;
#140 = FACE_OUTER_BOUND ( 'NONE', #112, .T. ) ;
#141 = ORIENTED_EDGE ( 'NONE', *, *, #372, .F. ) ;
#142 = APPROVAL_PERSON_ORGANIZATION ( #271, #356, #326 ) ;
#143 = DIRECTION ( 'NONE',  ( -1.000000000000000000, 0.000000000000000000, 0.000000000000000000 ) ) ;
#144 = ORIENTED_EDGE ( 'NONE', *, *, #249, .T. ) ;
#145 = COORDINATED_UNIVERSAL_TIME_OFFSET ( 1, 0, .AHEAD. ) ;
#146 = ORIENTED_EDGE ( 'NONE', *, *, #34, .T. ) ;
#147 =( NAMED_UNIT ( * ) SI_UNIT ( $, .STERADIAN. ) SOLID_ANGLE_UNIT ( ) );
#148 = ADVANCED_FACE ( 'NONE', ( #218 ), #333, .T. ) ;
#149 = ORIENTED_EDGE ( 'NONE', *, *, #127, .T. ) ;
#150 = CIRCLE ( 'NONE', #79, 2.500000000000000000 ) ;
#151 = EDGE_CURVE ( 'NONE', #312, #198, #359, .T. ) ;
#152 = DIRECTION ( 'NONE',  ( 1.000000000000000000, 0.000000000000000000, 0.000000000000000000 ) ) ;
#153 = DIRECTION ( 'NONE',  ( -1.000000000000000000, 0.000000000000000000, 0.000000000000000000 ) ) ;
#154 = FACE_BOUND ( 'NONE', #185, .T. ) ;
#155 = DIRECTION ( 'NONE',  ( -0.000000000000000000, -0.000000000000000000, -1.000000000000000000 ) ) ;
#156 = EDGE_CURVE ( 'NONE', #253, #22, #36, .T. ) ;
#157 = PERSON_AND_ORGANIZATION ( #52, #220 ) ;
#158 = CC_DESIGN_APPROVAL ( #47, ( #128 ) ) ;
#159 = CC_DESIGN_SECURITY_CLASSIFICATION ( #182, ( #128 ) ) ;
#160 = CALENDAR_DATE ( 2022, 8, 7 ) ;
#161 = CARTESIAN_POINT ( 'NONE',  ( -4.000000000000000000, 0.000000000000000000, 505.0000000000000000 ) ) ;
#162 = AXIS2_PLACEMENT_3D ( 'NONE', #73, #14, #251 ) ;
#163 = ORIENTED_EDGE ( 'NONE', *, *, #263, .T. ) ;
#164 = COORDINATED_UNIVERSAL_TIME_OFFSET ( 1, 0, .AHEAD. ) ;
#165 = FACE_OUTER_BOUND ( 'NONE', #376, .T. ) ;
#166 = DIRECTION ( 'NONE',  ( 1.000000000000000000, 0.000000000000000000, 0.000000000000000000 ) ) ;
#167 = AXIS2_PLACEMENT_3D ( 'NONE', #82, #194, #143 ) ;
#168 = CARTESIAN_POINT ( 'NONE',  ( -2.500000000000000000, 0.000000000000000000, 505.0000000000000000 ) ) ;
#169 = DIRECTION ( 'NONE',  ( -1.000000000000000000, 1.224646799147351482E-16, 0.000000000000000000 ) ) ;
#170 = EDGE_LOOP ( 'NONE', ( #314, #232 ) ) ;
#171 = CARTESIAN_POINT ( 'NONE',  ( -2.500000000000000000, 0.000000000000000000, 0.000000000000000000 ) ) ;
#172 = VERTEX_POINT ( 'NONE', #378 ) ;
#173 = ORIENTED_EDGE ( 'NONE', *, *, #196, .T. ) ;
#174 = ADVANCED_FACE ( 'NONE', ( #140 ), #103, .T. ) ;
#175 = CARTESIAN_POINT ( 'NONE',  ( 0.000000000000000000, 0.000000000000000000, 5.000000000000000000 ) ) ;
#176 = AXIS2_PLACEMENT_3D ( 'NONE', #9, #322, #120 ) ;
#177 = VERTEX_POINT ( 'NONE', #192 ) ;
#178 = EDGE_CURVE ( 'NONE', #231, #208, #134, .T. ) ;
#179 = DIRECTION ( 'NONE',  ( 1.000000000000000000, 0.000000000000000000, 0.000000000000000000 ) ) ;
#180 = DIRECTION ( 'NONE',  ( 0.000000000000000000, 0.000000000000000000, 1.000000000000000000 ) ) ;
#181 = APPROVAL_DATE_TIME ( #286, #78 ) ;
#182 = SECURITY_CLASSIFICATION ( '', '', #129 ) ;
#183 = CARTESIAN_POINT ( 'NONE',  ( 0.000000000000000000, 0.000000000000000000, 0.000000000000000000 ) ) ;
#184 = VECTOR ( 'NONE', #295, 1000.000000000000000 ) ;
#185 = EDGE_LOOP ( 'NONE', ( #347, #260 ) ) ;
#186 = CALENDAR_DATE ( 2022, 8, 7 ) ;
#187 = ADVANCED_FACE ( 'NONE', ( #257 ), #106, .T. ) ;
#188 = CIRCLE ( 'NONE', #102, 0.5000000000000004441 ) ;
#189 = FACE_OUTER_BOUND ( 'NONE', #81, .T. ) ;
#190 = DIRECTION ( 'NONE',  ( -0.000000000000000000, -0.000000000000000000, -1.000000000000000000 ) ) ;
#191 = VECTOR ( 'NONE', #105, 1000.000000000000000 ) ;
#192 = CARTESIAN_POINT ( 'NONE',  ( 7.000000000000000000, 8.572527594031473190E-16, 0.000000000000000000 ) ) ;
#193 = CARTESIAN_POINT ( 'NONE',  ( 0.000000000000000000, 0.000000000000000000, 0.000000000000000000 ) ) ;
#194 = DIRECTION ( 'NONE',  ( -0.000000000000000000, -0.000000000000000000, -1.000000000000000000 ) ) ;
#195 = APPROVAL_PERSON_ORGANIZATION ( #380, #47, #324 ) ;
#196 = EDGE_CURVE ( 'NONE', #22, #253, #307, .T. ) ;
#197 = CARTESIAN_POINT ( 'NONE',  ( -7.000000000000000000, 0.000000000000000000, 5.000000000000000000 ) ) ;
#198 = VERTEX_POINT ( 'NONE', #250 ) ;
#199 = CIRCLE ( 'NONE', #3, 2.500000000000000000 ) ;
#200 = DIRECTION ( 'NONE',  ( 0.000000000000000000, 0.000000000000000000, -1.000000000000000000 ) ) ;
#201 = ORIENTED_EDGE ( 'NONE', *, *, #372, .T. ) ;
#202 = DIRECTION ( 'NONE',  ( 0.000000000000000000, 0.000000000000000000, 1.000000000000000000 ) ) ;
#203 = ORIENTED_EDGE ( 'NONE', *, *, #243, .T. ) ;
#204 = AXIS2_PLACEMENT_3D ( 'NONE', #10, #133, #248 ) ;
#205 = CARTESIAN_POINT ( 'NONE',  ( 7.000000000000000000, 8.572527594031473190E-16, 5.000000000000000000 ) ) ;
#206 = ORIENTED_EDGE ( 'NONE', *, *, #328, .F. ) ;
#207 = APPROVAL_ROLE ( '' ) ;
#208 = VERTEX_POINT ( 'NONE', #171 ) ;
#209 = APPLICATION_PROTOCOL_DEFINITION ( 'international standard', 'config_control_design', 1994, #299 ) ;
#210 = EDGE_LOOP ( 'NONE', ( #98, #340, #345, #273 ) ) ;
#211 = LINE ( 'NONE', #205, #240 ) ;
#212 = AXIS2_PLACEMENT_3D ( 'NONE', #237, #55, #235 ) ;
#213 = CYLINDRICAL_SURFACE ( 'NONE', #379, 4.000000000000000000 ) ;
#214 = PERSON_AND_ORGANIZATION ( #52, #220 ) ;
#215 = ADVANCED_FACE ( 'NONE', ( #278, #254 ), #111, .F. ) ;
#216 = AXIS2_PLACEMENT_3D ( 'NONE', #225, #230, #283 ) ;
#217 = DIRECTION ( 'NONE',  ( 1.000000000000000000, 0.000000000000000000, 0.000000000000000000 ) ) ;
#218 = FACE_OUTER_BOUND ( 'NONE', #279, .T. ) ;
#219 = DIRECTION ( 'NONE',  ( -1.000000000000000000, 0.000000000000000000, 0.000000000000000000 ) ) ;
#220 = ORGANIZATION ( 'NEURÈENÝ', 'NEURÈENÝ', '' ) ;
#221 = DIRECTION ( 'NONE',  ( 1.000000000000000000, 0.000000000000000000, 0.000000000000000000 ) ) ;
#222 = EDGE_CURVE ( 'NONE', #282, #84, #362, .T. ) ;
#223 = CIRCLE ( 'NONE', #331, 7.000000000000000000 ) ;
#224 = FACE_OUTER_BOUND ( 'NONE', #48, .T. ) ;
#225 = CARTESIAN_POINT ( 'NONE',  ( 0.000000000000000000, 0.000000000000000000, 505.0000000000000000 ) ) ;
#226 = VERTEX_POINT ( 'NONE', #137 ) ;
#227 = AXIS2_PLACEMENT_3D ( 'NONE', #361, #336, #49 ) ;
#228 = CARTESIAN_POINT ( 'NONE',  ( 0.000000000000000000, 0.000000000000000000, 5.000000000000000000 ) ) ;
#229 = ORIENTED_EDGE ( 'NONE', *, *, #114, .F. ) ;
#230 = DIRECTION ( 'NONE',  ( 0.000000000000000000, 0.000000000000000000, 1.000000000000000000 ) ) ;
#231 = VERTEX_POINT ( 'NONE', #168 ) ;
#232 = ORIENTED_EDGE ( 'NONE', *, *, #222, .T. ) ;
#233 = CALENDAR_DATE ( 2022, 8, 7 ) ;
#234 = VERTEX_POINT ( 'NONE', #274 ) ;
#235 = DIRECTION ( 'NONE',  ( 1.000000000000000000, 0.000000000000000000, 0.000000000000000000 ) ) ;
#236 = EDGE_CURVE ( 'NONE', #208, #373, #261, .T. ) ;
#237 = CARTESIAN_POINT ( 'NONE',  ( 0.000000000000000000, 0.000000000000000000, 0.000000000000000000 ) ) ;
#238 = DIRECTION ( 'NONE',  ( 0.000000000000000000, 0.000000000000000000, -1.000000000000000000 ) ) ;
#239 = EDGE_CURVE ( 'NONE', #231, #110, #53, .T. ) ;
#240 = VECTOR ( 'NONE', #60, 1000.000000000000000 ) ;
#241 = DATE_AND_TIME ( #4, #13 ) ;
#242 = AXIS2_PLACEMENT_3D ( 'NONE', #264, #31, #238 ) ;
#243 = EDGE_CURVE ( 'NONE', #226, #312, #188, .T. ) ;
#244 = PERSON_AND_ORGANIZATION ( #52, #220 ) ;
#245 = ORIENTED_EDGE ( 'NONE', *, *, #249, .F. ) ;
#246 = CC_DESIGN_APPROVAL ( #78, ( #92 ) ) ;
#247 = CARTESIAN_POINT ( 'NONE',  ( 0.000000000000000000, 0.000000000000000000, 5.500000000000005329 ) ) ;
#248 = DIRECTION ( 'NONE',  ( 1.000000000000000000, 0.000000000000000000, 0.000000000000000000 ) ) ;
#249 = EDGE_CURVE ( 'NONE', #373, #208, #150, .T. ) ;
#250 = CARTESIAN_POINT ( 'NONE',  ( 4.500000000000000888, 0.000000000000000000, 5.000000000000002665 ) ) ;
#251 = DIRECTION ( 'NONE',  ( 1.000000000000000000, 0.000000000000000000, 0.000000000000000000 ) ) ;
#252 = CARTESIAN_POINT ( 'NONE',  ( -4.500000000000000888, 5.510910596163088569E-16, 5.000000000000002665 ) ) ;
#253 = VERTEX_POINT ( 'NONE', #44 ) ;
#254 = FACE_OUTER_BOUND ( 'NONE', #255, .T. ) ;
#255 = EDGE_LOOP ( 'NONE', ( #284, #287 ) ) ;
#256 = AXIS2_PLACEMENT_3D ( 'NONE', #15, #40, #166 ) ;
#257 = FACE_OUTER_BOUND ( 'NONE', #367, .T. ) ;
#258 = EDGE_LOOP ( 'NONE', ( #107, #245 ) ) ;
#259 = ORIENTED_EDGE ( 'NONE', *, *, #346, .F. ) ;
#260 = ORIENTED_EDGE ( 'NONE', *, *, #151, .T. ) ;
#261 = CIRCLE ( 'NONE', #277, 2.500000000000000000 ) ;
#262 = DIRECTION ( 'NONE',  ( 1.000000000000000000, 0.000000000000000000, -0.000000000000000000 ) ) ;
#263 = EDGE_CURVE ( 'NONE', #84, #234, #109, .T. ) ;
#264 = CARTESIAN_POINT ( 'NONE',  ( 4.500000000000000888, 0.000000000000000000, 5.500000000000005329 ) ) ;
#265 = DIRECTION ( 'NONE',  ( 1.000000000000000000, 0.000000000000000000, 0.000000000000000000 ) ) ;
#266 = CARTESIAN_POINT ( 'NONE',  ( 0.000000000000000000, 0.000000000000000000, 505.0000000000000000 ) ) ;
#267 = ADVANCED_FACE ( 'NONE', ( #369 ), #354, .F. ) ;
#268 = DIRECTION ( 'NONE',  ( 0.000000000000000000, 0.000000000000000000, 1.000000000000000000 ) ) ;
#269 = APPROVAL_STATUS ( 'not_yet_approved' ) ;
#270 = PERSON_AND_ORGANIZATION_ROLE ( 'design_supplier' ) ;
#271 = PERSON_AND_ORGANIZATION ( #52, #220 ) ;
#272 = CARTESIAN_POINT ( 'NONE',  ( 0.000000000000000000, 0.000000000000000000, 505.0000000000000000 ) ) ;
#273 = ORIENTED_EDGE ( 'NONE', *, *, #317, .T. ) ;
#274 = CARTESIAN_POINT ( 'NONE',  ( -7.000000000000000000, 0.000000000000000000, 0.000000000000000000 ) ) ;
#275 = ADVANCED_FACE ( 'NONE', ( #224 ), #338, .F. ) ;
#276 = CARTESIAN_POINT ( 'NONE',  ( 0.000000000000000000, 0.000000000000000000, 5.000000000000000000 ) ) ;
#277 = AXIS2_PLACEMENT_3D ( 'NONE', #11, #339, #221 ) ;
#278 = FACE_BOUND ( 'NONE', #258, .T. ) ;
#279 = EDGE_LOOP ( 'NONE', ( #141, #206, #163, #24 ) ) ;
#280 = DIRECTION ( 'NONE',  ( 1.000000000000000000, 0.000000000000000000, 0.000000000000000000 ) ) ;
#281 = UNCERTAINTY_MEASURE_WITH_UNIT (LENGTH_MEASURE( 1.000000000000000082E-05 ), #294, 'distance_accuracy_value', 'NONE');
#282 = VERTEX_POINT ( 'NONE', #341 ) ;
#283 = DIRECTION ( 'NONE',  ( 1.000000000000000000, 0.000000000000000000, 0.000000000000000000 ) ) ;
#284 = ORIENTED_EDGE ( 'NONE', *, *, #16, .F. ) ;
#285 = AXIS2_PLACEMENT_3D ( 'NONE', #175, #202, #262 ) ;
#286 = DATE_AND_TIME ( #51, #117 ) ;
#287 = ORIENTED_EDGE ( 'NONE', *, *, #41, .F. ) ;
#288 = CC_DESIGN_PERSON_AND_ORGANIZATION_ASSIGNMENT ( #349, #25, ( #96 ) ) ;
#289 = ORIENTED_EDGE ( 'NONE', *, *, #317, .F. ) ;
#290 = DIRECTION ( 'NONE',  ( -1.000000000000000000, 0.000000000000000000, 0.000000000000000000 ) ) ;
#291 = LOCAL_TIME ( 17, 19, 0.000000000000000000, #374 ) ;
#292 = DATE_TIME_ROLE ( 'creation_date' ) ;
#293 = FACE_BOUND ( 'NONE', #69, .T. ) ;
#294 =( LENGTH_UNIT ( ) NAMED_UNIT ( * ) SI_UNIT ( .MILLI., .METRE. ) );
#295 = DIRECTION ( 'NONE',  ( -0.000000000000000000, -0.000000000000000000, -1.000000000000000000 ) ) ;
#296 = DATE_AND_TIME ( #186, #37 ) ;
#297 = PERSON_AND_ORGANIZATION_ROLE ( 'creator' ) ;
#298 = LINE ( 'NONE', #62, #184 ) ;
#299 = APPLICATION_CONTEXT ( 'configuration controlled 3d designs of mechanical parts and assemblies' ) ;
#300 = DIRECTION ( 'NONE',  ( -0.000000000000000000, -0.000000000000000000, -1.000000000000000000 ) ) ;
#301 = AXIS2_PLACEMENT_3D ( 'NONE', #77, #311, #138 ) ;
#302 = CC_DESIGN_DATE_AND_TIME_ASSIGNMENT ( #318, #292, ( #92 ) ) ;
#303 = DIRECTION ( 'NONE',  ( -0.000000000000000000, -0.000000000000000000, -1.000000000000000000 ) ) ;
#304 = DIRECTION ( 'NONE',  ( -0.000000000000000000, -0.000000000000000000, -1.000000000000000000 ) ) ;
#305 = CARTESIAN_POINT ( 'NONE',  ( 0.000000000000000000, 0.000000000000000000, 0.000000000000000000 ) ) ;
#306 = DESIGN_CONTEXT ( 'detailed design', #299, 'design' ) ;
#307 = CIRCLE ( 'NONE', #216, 4.000000000000000000 ) ;
#308 = CARTESIAN_POINT ( 'NONE',  ( 0.000000000000000000, 0.000000000000000000, 5.500000000000005329 ) ) ;
#309 = CIRCLE ( 'NONE', #76, 4.000000000000000000 ) ;
#310 = ORIENTED_EDGE ( 'NONE', *, *, #151, .F. ) ;
#311 = DIRECTION ( 'NONE',  ( 0.000000000000000000, 0.000000000000000000, -1.000000000000000000 ) ) ;
#312 = VERTEX_POINT ( 'NONE', #252 ) ;
#313 = CARTESIAN_POINT ( 'NONE',  ( 0.000000000000000000, 0.000000000000000000, 5.000000000000000000 ) ) ;
#314 = ORIENTED_EDGE ( 'NONE', *, *, #328, .T. ) ;
#315 =( NAMED_UNIT ( * ) PLANE_ANGLE_UNIT ( ) SI_UNIT ( $, .RADIAN. ) );
#316 = ORIENTED_EDGE ( 'NONE', *, *, #239, .T. ) ;
#317 = EDGE_CURVE ( 'NONE', #226, #172, #61, .T. ) ;
#318 = DATE_AND_TIME ( #233, #291 ) ;
#319 = ORIENTED_EDGE ( 'NONE', *, *, #66, .F. ) ;
#320 = CC_DESIGN_PERSON_AND_ORGANIZATION_ASSIGNMENT ( #157, #270, ( #128 ) ) ;
#321 = APPROVAL_STATUS ( 'not_yet_approved' ) ;
#322 = DIRECTION ( 'NONE',  ( 0.000000000000000000, 0.000000000000000000, 1.000000000000000000 ) ) ;
#323 = LOCAL_TIME ( 17, 19, 0.000000000000000000, #164 ) ;
#324 = APPROVAL_ROLE ( '' ) ;
#325 = PLANE ( 'NONE',  #32 ) ;
#326 = APPROVAL_ROLE ( '' ) ;
#327 = DATE_AND_TIME ( #160, #323 ) ;
#328 = EDGE_CURVE ( 'NONE', #84, #282, #123, .T. ) ;
#329 = EDGE_CURVE ( 'NONE', #110, #373, #371, .T. ) ;
#330 = COORDINATED_UNIVERSAL_TIME_OFFSET ( 1, 0, .AHEAD. ) ;
#331 = AXIS2_PLACEMENT_3D ( 'NONE', #183, #29, #332 ) ;
#332 = DIRECTION ( 'NONE',  ( 1.000000000000000000, 0.000000000000000000, 0.000000000000000000 ) ) ;
#333 = CYLINDRICAL_SURFACE ( 'NONE', #2, 7.000000000000000000 ) ;
#334 = DIRECTION ( 'NONE',  ( 0.000000000000000000, 0.000000000000000000, -1.000000000000000000 ) ) ;
#335 = CC_DESIGN_APPROVAL ( #356, ( #182 ) ) ;
#336 = DIRECTION ( 'NONE',  ( 0.000000000000000000, 0.000000000000000000, 1.000000000000000000 ) ) ;
#337 = AXIS2_PLACEMENT_3D ( 'NONE', #272, #334, #153 ) ;
#338 = CYLINDRICAL_SURFACE ( 'NONE', #301, 2.500000000000000000 ) ;
#339 = DIRECTION ( 'NONE',  ( -0.000000000000000000, -0.000000000000000000, -1.000000000000000000 ) ) ;
#340 = ORIENTED_EDGE ( 'NONE', *, *, #156, .F. ) ;
#341 = CARTESIAN_POINT ( 'NONE',  ( 7.000000000000000000, 8.572527594031473190E-16, 5.000000000000000000 ) ) ;
#342 = ORIENTED_EDGE ( 'NONE', *, *, #263, .F. ) ;
#343 = APPLICATION_PROTOCOL_DEFINITION ( 'international standard', 'config_control_design', 1994, #95 ) ;
#344 = CC_DESIGN_PERSON_AND_ORGANIZATION_ASSIGNMENT ( #214, #297, ( #128 ) ) ;
#345 = ORIENTED_EDGE ( 'NONE', *, *, #114, .T. ) ;
#346 = EDGE_CURVE ( 'NONE', #198, #312, #360, .T. ) ;
#347 = ORIENTED_EDGE ( 'NONE', *, *, #346, .T. ) ;
#348 = ORIENTED_EDGE ( 'NONE', *, *, #329, .T. ) ;
#349 = PERSON_AND_ORGANIZATION ( #52, #220 ) ;
#350 = CARTESIAN_POINT ( 'NONE',  ( 4.000000000000000000, 4.898587196589412829E-16, 505.0000000000000000 ) ) ;
#351 = FACE_OUTER_BOUND ( 'NONE', #170, .T. ) ;
#352 = FACE_OUTER_BOUND ( 'NONE', #56, .T. ) ;
#353 = AXIS2_PLACEMENT_3D ( 'NONE', #313, #119, #179 ) ;
#354 = TOROIDAL_SURFACE ( 'NONE', #162, 4.500000000000000888, 0.5000000000000000000 ) ;
#355 = DIRECTION ( 'NONE',  ( 0.000000000000000000, 0.000000000000000000, 1.000000000000000000 ) ) ;
#356 = APPROVAL ( #269, 'NEURÈENÝ' ) ;
#357 = DIRECTION ( 'NONE',  ( 1.000000000000000000, 0.000000000000000000, 0.000000000000000000 ) ) ;
#358 = DIRECTION ( 'NONE',  ( 0.000000000000000000, 0.000000000000000000, 1.000000000000000000 ) ) ;
#359 = CIRCLE ( 'NONE', #204, 4.500000000000000888 ) ;
#360 = CIRCLE ( 'NONE', #353, 4.500000000000000888 ) ;
#361 = CARTESIAN_POINT ( 'NONE',  ( 0.000000000000000000, 0.000000000000000000, 505.0000000000000000 ) ) ;
#362 = CIRCLE ( 'NONE', #256, 7.000000000000000000 ) ;
#363 = DIRECTION ( 'NONE',  ( -1.000000000000000000, 0.000000000000000000, 0.000000000000000000 ) ) ;
#364 = ORIENTED_EDGE ( 'NONE', *, *, #243, .F. ) ;
#365 = DIRECTION ( 'NONE',  ( 1.000000000000000000, 0.000000000000000000, -0.000000000000000000 ) ) ;
#366 = AXIS2_PLACEMENT_3D ( 'NONE', #308, #45, #280 ) ;
#367 = EDGE_LOOP ( 'NONE', ( #50, #201, #139, #342 ) ) ;
#368 = ADVANCED_FACE ( 'NONE', ( #154, #351 ), #377, .T. ) ;
#369 = FACE_OUTER_BOUND ( 'NONE', #89, .T. ) ;
#370 = ORIENTED_EDGE ( 'NONE', *, *, #329, .F. ) ;
#371 = LINE ( 'NONE', #116, #21 ) ;
#372 = EDGE_CURVE ( 'NONE', #282, #177, #211, .T. ) ;
#373 = VERTEX_POINT ( 'NONE', #27 ) ;
#374 = COORDINATED_UNIVERSAL_TIME_OFFSET ( 1, 0, .AHEAD. ) ;
#375 = CC_DESIGN_DATE_AND_TIME_ASSIGNMENT ( #327, #38, ( #182 ) ) ;
#376 = EDGE_LOOP ( 'NONE', ( #289, #203, #259, #85 ) ) ;
#377 = PLANE ( 'NONE',  #285 ) ;
#378 = CARTESIAN_POINT ( 'NONE',  ( 4.000000000000000000, 4.898587196589412829E-16, 5.500000000000005329 ) ) ;
#379 = AXIS2_PLACEMENT_3D ( 'NONE', #64, #300, #290 ) ;
#380 = PERSON_AND_ORGANIZATION ( #52, #220 ) ;
#381 = DIRECTION ( 'NONE',  ( 1.000000000000000000, 0.000000000000000000, -0.000000000000000000 ) ) ;
ENDSEC;
END-ISO-10303-21;
