ISO-10303-21;
HEADER;
FILE_DESCRIPTION (( 'STEP AP203' ),
    '1' );
FILE_NAME ('0b26.STEP',
    '2022-07-08T15:21:10',
    ( '' ),
    ( '' ),
    'SwSTEP 2.0',
    'SolidWorks 2019',
    '' );
FILE_SCHEMA (( 'CONFIG_CONTROL_DESIGN' ));
ENDSEC;

DATA;
#1 = ORIENTED_EDGE ( 'NONE', *, *, #270, .T. ) ;
#2 = LINE ( 'NONE', #124, #76 ) ;
#3 = ADVANCED_FACE ( 'NONE', ( #315 ), #92, .F. ) ;
#4 = TOROIDAL_SURFACE ( 'NONE', #47, 4.500000000000000888, 0.5000000000000000000 ) ;
#5 = CARTESIAN_POINT ( 'NONE',  ( 0.000000000000000000, 0.000000000000000000, 5.500000000000005329 ) ) ;
#6 = PERSON_AND_ORGANIZATION ( #336, #79 ) ;
#7 = ORIENTED_EDGE ( 'NONE', *, *, #112, .T. ) ;
#8 = EDGE_LOOP ( 'NONE', ( #359, #1, #352, #220 ) ) ;
#9 = DATE_TIME_ROLE ( 'classification_date' ) ;
#10 = DIRECTION ( 'NONE',  ( 1.000000000000000000, 0.000000000000000000, 0.000000000000000000 ) ) ;
#11 = ADVANCED_FACE ( 'NONE', ( #192, #183 ), #284, .F. ) ;
#12 = DIRECTION ( 'NONE',  ( -0.000000000000000000, -0.000000000000000000, -1.000000000000000000 ) ) ;
#13 = DATE_AND_TIME ( #290, #185 ) ;
#14 = DIRECTION ( 'NONE',  ( 0.000000000000000000, 0.000000000000000000, 1.000000000000000000 ) ) ;
#15 = APPROVAL_ROLE ( '' ) ;
#16 = AXIS2_PLACEMENT_3D ( 'NONE', #97, #310, #26 ) ;
#17 = CARTESIAN_POINT ( 'NONE',  ( 0.000000000000000000, 0.000000000000000000, 5.000000000000000000 ) ) ;
#18 = CIRCLE ( 'NONE', #64, 2.500000000000000000 ) ;
#19 = DIRECTION ( 'NONE',  ( 0.000000000000000000, -1.000000000000000000, 0.000000000000000000 ) ) ;
#20 = ADVANCED_FACE ( 'NONE', ( #127 ), #219, .T. ) ;
#21 = ORIENTED_EDGE ( 'NONE', *, *, #67, .F. ) ;
#22 = DIRECTION ( 'NONE',  ( -0.000000000000000000, -0.000000000000000000, -1.000000000000000000 ) ) ;
#23 = CARTESIAN_POINT ( 'NONE',  ( -2.500000000000000000, 0.000000000000000000, 105.0000000000000142 ) ) ;
#24 = CARTESIAN_POINT ( 'NONE',  ( 0.000000000000000000, 0.000000000000000000, 5.000000000000000000 ) ) ;
#25 = VERTEX_POINT ( 'NONE', #279 ) ;
#26 = DIRECTION ( 'NONE',  ( -1.000000000000000000, 0.000000000000000000, 0.000000000000000000 ) ) ;
#27 = EDGE_CURVE ( 'NONE', #344, #281, #2, .T. ) ;
#28 =( LENGTH_UNIT ( ) NAMED_UNIT ( * ) SI_UNIT ( .MILLI., .METRE. ) );
#29 = DIRECTION ( 'NONE',  ( 0.000000000000000000, 0.000000000000000000, 1.000000000000000000 ) ) ;
#30 = VERTEX_POINT ( 'NONE', #252 ) ;
#31 = CIRCLE ( 'NONE', #152, 2.500000000000000000 ) ;
#32 = DATE_AND_TIME ( #189, #135 ) ;
#33 = EDGE_LOOP ( 'NONE', ( #243, #340, #266, #329 ) ) ;
#34 = CARTESIAN_POINT ( 'NONE',  ( 0.000000000000000000, 0.000000000000000000, 105.0000000000000142 ) ) ;
#35 = CARTESIAN_POINT ( 'NONE',  ( 0.000000000000000000, 0.000000000000000000, 0.000000000000000000 ) ) ;
#36 = LINE ( 'NONE', #166, #282 ) ;
#37 = CC_DESIGN_PERSON_AND_ORGANIZATION_ASSIGNMENT ( #157, #155, ( #300 ) ) ;
#38 = ADVANCED_FACE ( 'NONE', ( #366 ), #4, .F. ) ;
#39 = DIRECTION ( 'NONE',  ( -0.000000000000000000, -0.000000000000000000, -1.000000000000000000 ) ) ;
#40 = CARTESIAN_POINT ( 'NONE',  ( 7.000000000000000000, 8.572527594031473190E-16, 0.000000000000000000 ) ) ;
#41 = CARTESIAN_POINT ( 'NONE',  ( 0.000000000000000000, 0.000000000000000000, 0.000000000000000000 ) ) ;
#42 = CIRCLE ( 'NONE', #319, 4.500000000000000888 ) ;
#43 = VECTOR ( 'NONE', #365, 1000.000000000000000 ) ;
#44 = CC_DESIGN_APPROVAL ( #244, ( #313 ) ) ;
#45 = VERTEX_POINT ( 'NONE', #93 ) ;
#46 = CARTESIAN_POINT ( 'NONE',  ( 0.000000000000000000, 0.000000000000000000, 0.000000000000000000 ) ) ;
#47 = AXIS2_PLACEMENT_3D ( 'NONE', #343, #29, #63 ) ;
#48 = DIRECTION ( 'NONE',  ( 1.000000000000000000, 0.000000000000000000, 0.000000000000000000 ) ) ;
#49 = EDGE_LOOP ( 'NONE', ( #245, #276, #308, #234 ) ) ;
#50 = AXIS2_PLACEMENT_3D ( 'NONE', #35, #295, #203 ) ;
#51 = ADVANCED_FACE ( 'NONE', ( #316 ), #73, .F. ) ;
#52 = DIRECTION ( 'NONE',  ( 0.000000000000000000, 0.000000000000000000, 1.000000000000000000 ) ) ;
#53 = ORIENTED_EDGE ( 'NONE', *, *, #278, .T. ) ;
#54 = CARTESIAN_POINT ( 'NONE',  ( 4.000000000000000000, 4.898587196589412829E-16, 105.0000000000000142 ) ) ;
#55 = PRODUCT_DEFINITION ( 'NEZNÁMÝ', '', #313, #235 ) ;
#56 = ADVANCED_FACE ( 'NONE', ( #171 ), #321, .F. ) ;
#57 = DIRECTION ( 'NONE',  ( 0.000000000000000000, 0.000000000000000000, 1.000000000000000000 ) ) ;
#58 = AXIS2_PLACEMENT_3D ( 'NONE', #206, #52, #175 ) ;
#59 = EDGE_LOOP ( 'NONE', ( #303, #337, #207, #21 ) ) ;
#60 = CALENDAR_DATE ( 2022, 8, 7 ) ;
#61 = EDGE_LOOP ( 'NONE', ( #209, #120 ) ) ;
#62 = COORDINATED_UNIVERSAL_TIME_OFFSET ( 1, 0, .AHEAD. ) ;
#63 = DIRECTION ( 'NONE',  ( 1.000000000000000000, 0.000000000000000000, 0.000000000000000000 ) ) ;
#64 = AXIS2_PLACEMENT_3D ( 'NONE', #144, #208, #268 ) ;
#65 = EDGE_LOOP ( 'NONE', ( #151, #118, #7, #364 ) ) ;
#66 = DIRECTION ( 'NONE',  ( 1.000000000000000000, 0.000000000000000000, 0.000000000000000000 ) ) ;
#67 = EDGE_CURVE ( 'NONE', #98, #129, #36, .T. ) ;
#68 = CARTESIAN_POINT ( 'NONE',  ( 0.000000000000000000, 0.000000000000000000, 5.000000000000000000 ) ) ;
#69 = APPLICATION_CONTEXT ( 'configuration controlled 3d designs of mechanical parts and assemblies' ) ;
#70 = SHAPE_DEFINITION_REPRESENTATION ( #167, #265 ) ;
#71 = CARTESIAN_POINT ( 'NONE',  ( -2.500000000000000000, 0.000000000000000000, 105.0000000000000142 ) ) ;
#72 = EDGE_CURVE ( 'NONE', #98, #211, #356, .T. ) ;
#73 = CYLINDRICAL_SURFACE ( 'NONE', #327, 2.500000000000000000 ) ;
#74 = APPROVAL ( #138, 'NEURÈENÝ' ) ;
#75 = DIRECTION ( 'NONE',  ( 0.000000000000000000, 0.000000000000000000, 1.000000000000000000 ) ) ;
#76 = VECTOR ( 'NONE', #361, 1000.000000000000000 ) ;
#77 = CARTESIAN_POINT ( 'NONE',  ( -4.000000000000000000, 0.000000000000000000, 105.0000000000000142 ) ) ;
#78 = CIRCLE ( 'NONE', #99, 0.5000000000000004441 ) ;
#79 = ORGANIZATION ( 'NEURÈENÝ', 'NEURÈENÝ', '' ) ;
#80 = ADVANCED_FACE ( 'NONE', ( #106, #351 ), #228, .T. ) ;
#81 = VERTEX_POINT ( 'NONE', #40 ) ;
#82 = DIRECTION ( 'NONE',  ( 0.000000000000000000, 0.000000000000000000, 1.000000000000000000 ) ) ;
#83 = CLOSED_SHELL ( 'NONE', ( #56, #38, #346, #273, #169, #80, #11, #20, #258, #3, #51 ) ) ;
#84 = CARTESIAN_POINT ( 'NONE',  ( 0.000000000000000000, 0.000000000000000000, 5.500000000000005329 ) ) ;
#85 = VERTEX_POINT ( 'NONE', #262 ) ;
#86 = CIRCLE ( 'NONE', #58, 7.000000000000000000 ) ;
#87 = DIRECTION ( 'NONE',  ( -0.000000000000000000, -0.000000000000000000, -1.000000000000000000 ) ) ;
#88 = ORIENTED_EDGE ( 'NONE', *, *, #133, .F. ) ;
#89 = CC_DESIGN_PERSON_AND_ORGANIZATION_ASSIGNMENT ( #96, #342, ( #55 ) ) ;
#90 = APPLICATION_PROTOCOL_DEFINITION ( 'international standard', 'config_control_design', 1994, #69 ) ;
#91 = ORIENTED_EDGE ( 'NONE', *, *, #104, .F. ) ;
#92 = TOROIDAL_SURFACE ( 'NONE', #275, 4.500000000000000888, 0.5000000000000000000 ) ;
#93 = CARTESIAN_POINT ( 'NONE',  ( -4.000000000000000000, 0.000000000000000000, 5.500000000000005329 ) ) ;
#94 = CIRCLE ( 'NONE', #114, 4.000000000000000000 ) ;
#95 = ORIENTED_EDGE ( 'NONE', *, *, #341, .T. ) ;
#96 = PERSON_AND_ORGANIZATION ( #336, #79 ) ;
#97 = CARTESIAN_POINT ( 'NONE',  ( 0.000000000000000000, 0.000000000000000000, 105.0000000000000142 ) ) ;
#98 = VERTEX_POINT ( 'NONE', #348 ) ;
#99 = AXIS2_PLACEMENT_3D ( 'NONE', #271, #19, #143 ) ;
#100 = APPROVAL_PERSON_ORGANIZATION ( #105, #244, #15 ) ;
#101 = LOCAL_TIME ( 17, 21, 10.00000000000000000, #248 ) ;
#102 = DIRECTION ( 'NONE',  ( 1.000000000000000000, 0.000000000000000000, -0.000000000000000000 ) ) ;
#103 = DIRECTION ( 'NONE',  ( 1.000000000000000000, 0.000000000000000000, 0.000000000000000000 ) ) ;
#104 = EDGE_CURVE ( 'NONE', #156, #45, #202, .T. ) ;
#105 = PERSON_AND_ORGANIZATION ( #336, #79 ) ;
#106 = FACE_BOUND ( 'NONE', #123, .T. ) ;
#107 = PERSON_AND_ORGANIZATION_ROLE ( 'classification_officer' ) ;
#108 = CIRCLE ( 'NONE', #331, 7.000000000000000000 ) ;
#109 = CC_DESIGN_SECURITY_CLASSIFICATION ( #205, ( #313 ) ) ;
#110 = LINE ( 'NONE', #71, #285 ) ;
#111 = CARTESIAN_POINT ( 'NONE',  ( 2.500000000000000000, 3.061616997868383141E-16, 0.000000000000000000 ) ) ;
#112 = EDGE_CURVE ( 'NONE', #281, #30, #130, .T. ) ;
#113 = FACE_OUTER_BOUND ( 'NONE', #190, .T. ) ;
#114 = AXIS2_PLACEMENT_3D ( 'NONE', #139, #291, #10 ) ;
#115 = ORIENTED_EDGE ( 'NONE', *, *, #278, .F. ) ;
#116 = AXIS2_PLACEMENT_3D ( 'NONE', #335, #309, #160 ) ;
#117 = DIRECTION ( 'NONE',  ( 1.000000000000000000, 0.000000000000000000, 0.000000000000000000 ) ) ;
#118 = ORIENTED_EDGE ( 'NONE', *, *, #27, .T. ) ;
#119 = DIRECTION ( 'NONE',  ( 1.000000000000000000, 0.000000000000000000, 0.000000000000000000 ) ) ;
#120 = ORIENTED_EDGE ( 'NONE', *, *, #154, .T. ) ;
#121 = AXIS2_PLACEMENT_3D ( 'NONE', #378, #22, #147 ) ;
#122 = APPROVAL_STATUS ( 'not_yet_approved' ) ;
#123 = EDGE_LOOP ( 'NONE', ( #215, #253 ) ) ;
#124 = CARTESIAN_POINT ( 'NONE',  ( 2.500000000000000000, 3.061616997868383141E-16, 105.0000000000000142 ) ) ;
#125 = DIRECTION ( 'NONE',  ( 1.000000000000000000, 0.000000000000000000, 0.000000000000000000 ) ) ;
#126 = APPROVAL_DATE_TIME ( #283, #367 ) ;
#127 = FACE_OUTER_BOUND ( 'NONE', #238, .T. ) ;
#128 = EDGE_CURVE ( 'NONE', #286, #30, #110, .T. ) ;
#129 = VERTEX_POINT ( 'NONE', #259 ) ;
#130 = CIRCLE ( 'NONE', #50, 2.500000000000000000 ) ;
#131 = COORDINATED_UNIVERSAL_TIME_OFFSET ( 1, 0, .AHEAD. ) ;
#132 = FACE_OUTER_BOUND ( 'NONE', #49, .T. ) ;
#133 = EDGE_CURVE ( 'NONE', #269, #25, #94, .T. ) ;
#134 = CIRCLE ( 'NONE', #184, 4.500000000000000888 ) ;
#135 = LOCAL_TIME ( 17, 21, 10.00000000000000000, #62 ) ;
#136 = PERSON_AND_ORGANIZATION_ROLE ( 'design_supplier' ) ;
#137 = DIRECTION ( 'NONE',  ( -1.000000000000000000, 1.224646799147351482E-16, 0.000000000000000000 ) ) ;
#138 = APPROVAL_STATUS ( 'not_yet_approved' ) ;
#139 = CARTESIAN_POINT ( 'NONE',  ( 0.000000000000000000, 0.000000000000000000, 105.0000000000000142 ) ) ;
#140 = CC_DESIGN_PERSON_AND_ORGANIZATION_ASSIGNMENT ( #200, #136, ( #313 ) ) ;
#141 = DIRECTION ( 'NONE',  ( -0.000000000000000000, -0.000000000000000000, -1.000000000000000000 ) ) ;
#142 = DIRECTION ( 'NONE',  ( -1.000000000000000000, 0.000000000000000000, 0.000000000000000000 ) ) ;
#143 = DIRECTION ( 'NONE',  ( 0.000000000000000000, 0.000000000000000000, -1.000000000000000000 ) ) ;
#144 = CARTESIAN_POINT ( 'NONE',  ( 0.000000000000000000, 0.000000000000000000, 105.0000000000000142 ) ) ;
#145 = CC_DESIGN_DATE_AND_TIME_ASSIGNMENT ( #287, #9, ( #205 ) ) ;
#146 = EDGE_CURVE ( 'NONE', #211, #81, #257, .T. ) ;
#147 = DIRECTION ( 'NONE',  ( -1.000000000000000000, 0.000000000000000000, 0.000000000000000000 ) ) ;
#148 = DIRECTION ( 'NONE',  ( 0.000000000000000000, 0.000000000000000000, 1.000000000000000000 ) ) ;
#149 = DIRECTION ( 'NONE',  ( -0.000000000000000000, -0.000000000000000000, -1.000000000000000000 ) ) ;
#150 =( NAMED_UNIT ( * ) PLANE_ANGLE_UNIT ( ) SI_UNIT ( $, .RADIAN. ) );
#151 = ORIENTED_EDGE ( 'NONE', *, *, #260, .T. ) ;
#152 = AXIS2_PLACEMENT_3D ( 'NONE', #41, #323, #119 ) ;
#153 = ORIENTED_EDGE ( 'NONE', *, *, #379, .F. ) ;
#154 = EDGE_CURVE ( 'NONE', #211, #98, #108, .T. ) ;
#155 = PERSON_AND_ORGANIZATION_ROLE ( 'design_owner' ) ;
#156 = VERTEX_POINT ( 'NONE', #347 ) ;
#157 = PERSON_AND_ORGANIZATION ( #336, #79 ) ;
#158 = ORIENTED_EDGE ( 'NONE', *, *, #224, .F. ) ;
#159 = AXIS2_PLACEMENT_3D ( 'NONE', #288, #195, #137 ) ;
#160 = DIRECTION ( 'NONE',  ( 1.000000000000000000, 0.000000000000000000, 0.000000000000000000 ) ) ;
#161 = ORIENTED_EDGE ( 'NONE', *, *, #182, .F. ) ;
#162 = CYLINDRICAL_SURFACE ( 'NONE', #373, 7.000000000000000000 ) ;
#163 = APPROVAL_ROLE ( '' ) ;
#164 = DIRECTION ( 'NONE',  ( -1.000000000000000000, 0.000000000000000000, 0.000000000000000000 ) ) ;
#165 = AXIS2_PLACEMENT_3D ( 'NONE', #46, #324, #48 ) ;
#166 = CARTESIAN_POINT ( 'NONE',  ( -7.000000000000000000, 0.000000000000000000, 5.000000000000000000 ) ) ;
#167 = PRODUCT_DEFINITION_SHAPE ( 'NONE', 'NONE',  #55 ) ;
#168 = CARTESIAN_POINT ( 'NONE',  ( 0.000000000000000000, 0.000000000000000000, 5.000000000000000000 ) ) ;
#169 = ADVANCED_FACE ( 'NONE', ( #132 ), #162, .T. ) ;
#170 = CALENDAR_DATE ( 2022, 8, 7 ) ;
#171 = FACE_OUTER_BOUND ( 'NONE', #65, .T. ) ;
#172 = CIRCLE ( 'NONE', #221, 4.000000000000000000 ) ;
#173 = DIRECTION ( 'NONE',  ( 1.000000000000000000, 0.000000000000000000, -0.000000000000000000 ) ) ;
#174 = PRODUCT_RELATED_PRODUCT_CATEGORY ( 'detail', '', ( #300 ) ) ;
#175 = DIRECTION ( 'NONE',  ( 1.000000000000000000, 0.000000000000000000, 0.000000000000000000 ) ) ;
#176 = ORIENTED_EDGE ( 'NONE', *, *, #260, .F. ) ;
#177 = UNCERTAINTY_MEASURE_WITH_UNIT (LENGTH_MEASURE( 1.000000000000000082E-05 ), #28, 'distance_accuracy_value', 'NONE');
#178 = ORIENTED_EDGE ( 'NONE', *, *, #360, .F. ) ;
#179 = FACE_OUTER_BOUND ( 'NONE', #33, .T. ) ;
#180 = ORIENTED_EDGE ( 'NONE', *, *, #204, .F. ) ;
#181 = VERTEX_POINT ( 'NONE', #318 ) ;
#182 = EDGE_CURVE ( 'NONE', #181, #85, #42, .T. ) ;
#183 = FACE_OUTER_BOUND ( 'NONE', #216, .T. ) ;
#184 = AXIS2_PLACEMENT_3D ( 'NONE', #24, #149, #274 ) ;
#185 = LOCAL_TIME ( 17, 21, 10.00000000000000000, #317 ) ;
#186 = ORIENTED_EDGE ( 'NONE', *, *, #204, .T. ) ;
#187 = ORIENTED_EDGE ( 'NONE', *, *, #112, .F. ) ;
#188 = AXIS2_PLACEMENT_3D ( 'NONE', #350, #368, #103 ) ;
#189 = CALENDAR_DATE ( 2022, 8, 7 ) ;
#190 = EDGE_LOOP ( 'NONE', ( #312, #95 ) ) ;
#191 = AXIS2_PLACEMENT_3D ( 'NONE', #297, #375, #328 ) ;
#192 = FACE_BOUND ( 'NONE', #299, .T. ) ;
#193 = DIRECTION ( 'NONE',  ( 0.000000000000000000, 0.000000000000000000, -1.000000000000000000 ) ) ;
#194 = APPROVAL_STATUS ( 'not_yet_approved' ) ;
#195 = DIRECTION ( 'NONE',  ( 1.224646799147353207E-16, 1.000000000000000000, -0.000000000000000000 ) ) ;
#196 = CIRCLE ( 'NONE', #159, 0.5000000000000004441 ) ;
#197 = APPROVAL_PERSON_ORGANIZATION ( #294, #74, #163 ) ;
#198 = DATE_TIME_ROLE ( 'creation_date' ) ;
#199 = CARTESIAN_POINT ( 'NONE',  ( 7.000000000000000000, 8.572527594031473190E-16, 5.000000000000000000 ) ) ;
#200 = PERSON_AND_ORGANIZATION ( #336, #79 ) ;
#201 = DIRECTION ( 'NONE',  ( 0.000000000000000000, 0.000000000000000000, -1.000000000000000000 ) ) ;
#202 = CIRCLE ( 'NONE', #254, 4.000000000000000000 ) ;
#203 = DIRECTION ( 'NONE',  ( 1.000000000000000000, 0.000000000000000000, 0.000000000000000000 ) ) ;
#204 = EDGE_CURVE ( 'NONE', #45, #181, #196, .T. ) ;
#205 = SECURITY_CLASSIFICATION ( '', '', #369 ) ;
#206 = CARTESIAN_POINT ( 'NONE',  ( 0.000000000000000000, 0.000000000000000000, 0.000000000000000000 ) ) ;
#207 = ORIENTED_EDGE ( 'NONE', *, *, #224, .T. ) ;
#208 = DIRECTION ( 'NONE',  ( 0.000000000000000000, 0.000000000000000000, 1.000000000000000000 ) ) ;
#209 = ORIENTED_EDGE ( 'NONE', *, *, #72, .T. ) ;
#210 = CC_DESIGN_PERSON_AND_ORGANIZATION_ASSIGNMENT ( #314, #227, ( #313 ) ) ;
#211 = VERTEX_POINT ( 'NONE', #370 ) ;
#212 = DIRECTION ( 'NONE',  ( -0.000000000000000000, -0.000000000000000000, -1.000000000000000000 ) ) ;
#213 = VECTOR ( 'NONE', #87, 1000.000000000000000 ) ;
#214 = ORIENTED_EDGE ( 'NONE', *, *, #338, .F. ) ;
#215 = ORIENTED_EDGE ( 'NONE', *, *, #360, .T. ) ;
#216 = EDGE_LOOP ( 'NONE', ( #377, #158 ) ) ;
#217 = CIRCLE ( 'NONE', #165, 7.000000000000000000 ) ;
#218 = LINE ( 'NONE', #54, #43 ) ;
#219 = CYLINDRICAL_SURFACE ( 'NONE', #16, 4.000000000000000000 ) ;
#220 = ORIENTED_EDGE ( 'NONE', *, *, #247, .T. ) ;
#221 = AXIS2_PLACEMENT_3D ( 'NONE', #272, #376, #117 ) ;
#222 = EDGE_CURVE ( 'NONE', #269, #45, #226, .T. ) ;
#223 = DIRECTION ( 'NONE',  ( 1.000000000000000000, 0.000000000000000000, 0.000000000000000000 ) ) ;
#224 = EDGE_CURVE ( 'NONE', #81, #129, #217, .T. ) ;
#225 = APPROVAL_DATE_TIME ( #349, #74 ) ;
#226 = LINE ( 'NONE', #77, #213 ) ;
#227 = PERSON_AND_ORGANIZATION_ROLE ( 'creator' ) ;
#228 = PLANE ( 'NONE',  #293 ) ;
#229 = LOCAL_TIME ( 17, 21, 10.00000000000000000, #320 ) ;
#230 = DIRECTION ( 'NONE',  ( 1.000000000000000000, 0.000000000000000000, 0.000000000000000000 ) ) ;
#231 = CARTESIAN_POINT ( 'NONE',  ( 0.000000000000000000, 0.000000000000000000, 5.000000000000000000 ) ) ;
#232 = CC_DESIGN_PERSON_AND_ORGANIZATION_ASSIGNMENT ( #261, #107, ( #205 ) ) ;
#233 = CARTESIAN_POINT ( 'NONE',  ( 0.000000000000000000, 0.000000000000000000, 105.0000000000000142 ) ) ;
#234 = ORIENTED_EDGE ( 'NONE', *, *, #267, .T. ) ;
#235 = DESIGN_CONTEXT ( 'detailed design', #334, 'design' ) ;
#236 = LOCAL_TIME ( 17, 21, 10.00000000000000000, #131 ) ;
#237 = PLANE ( 'NONE',  #296 ) ;
#238 = EDGE_LOOP ( 'NONE', ( #153, #88, #241, #354 ) ) ;
#239 = FACE_BOUND ( 'NONE', #333, .T. ) ;
#240 = CARTESIAN_POINT ( 'NONE',  ( 2.500000000000000000, 3.061616997868383141E-16, 105.0000000000000142 ) ) ;
#241 = ORIENTED_EDGE ( 'NONE', *, *, #222, .T. ) ;
#242 = EDGE_LOOP ( 'NONE', ( #214, #186, #178, #115 ) ) ;
#243 = ORIENTED_EDGE ( 'NONE', *, *, #341, .F. ) ;
#244 = APPROVAL ( #194, 'NEURÈENÝ' ) ;
#245 = ORIENTED_EDGE ( 'NONE', *, *, #146, .F. ) ;
#246 = AXIS2_PLACEMENT_3D ( 'NONE', #277, #306, #249 ) ;
#247 = EDGE_CURVE ( 'NONE', #30, #281, #31, .T. ) ;
#248 = COORDINATED_UNIVERSAL_TIME_OFFSET ( 1, 0, .AHEAD. ) ;
#249 = DIRECTION ( 'NONE',  ( 1.000000000000000000, 0.000000000000000000, -0.000000000000000000 ) ) ;
#250 = APPROVAL_PERSON_ORGANIZATION ( #6, #367, #280 ) ;
#251 = CC_DESIGN_DATE_AND_TIME_ASSIGNMENT ( #32, #198, ( #55 ) ) ;
#252 = CARTESIAN_POINT ( 'NONE',  ( -2.500000000000000000, 0.000000000000000000, 0.000000000000000000 ) ) ;
#253 = ORIENTED_EDGE ( 'NONE', *, *, #182, .T. ) ;
#254 = AXIS2_PLACEMENT_3D ( 'NONE', #372, #75, #223 ) ;
#255 = CALENDAR_DATE ( 2022, 8, 7 ) ;
#256 = DIRECTION ( 'NONE',  ( 0.000000000000000000, 0.000000000000000000, -1.000000000000000000 ) ) ;
#257 = LINE ( 'NONE', #199, #362 ) ;
#258 = ADVANCED_FACE ( 'NONE', ( #239, #113 ), #237, .T. ) ;
#259 = CARTESIAN_POINT ( 'NONE',  ( -7.000000000000000000, 0.000000000000000000, 0.000000000000000000 ) ) ;
#260 = EDGE_CURVE ( 'NONE', #286, #344, #263, .T. ) ;
#261 = PERSON_AND_ORGANIZATION ( #336, #79 ) ;
#262 = CARTESIAN_POINT ( 'NONE',  ( 4.500000000000000888, 0.000000000000000000, 5.000000000000002665 ) ) ;
#263 = CIRCLE ( 'NONE', #191, 2.500000000000000000 ) ;
#264 = APPROVAL_DATE_TIME ( #13, #244 ) ;
#265 = ADVANCED_BREP_SHAPE_REPRESENTATION ( '0b26', ( #330, #116 ), #289 ) ;
#266 = ORIENTED_EDGE ( 'NONE', *, *, #104, .T. ) ;
#267 = EDGE_CURVE ( 'NONE', #129, #81, #86, .T. ) ;
#268 = DIRECTION ( 'NONE',  ( 1.000000000000000000, 0.000000000000000000, 0.000000000000000000 ) ) ;
#269 = VERTEX_POINT ( 'NONE', #298 ) ;
#270 = EDGE_CURVE ( 'NONE', #344, #286, #18, .T. ) ;
#271 = CARTESIAN_POINT ( 'NONE',  ( 4.500000000000000888, 0.000000000000000000, 5.500000000000005329 ) ) ;
#272 = CARTESIAN_POINT ( 'NONE',  ( 0.000000000000000000, 0.000000000000000000, 105.0000000000000142 ) ) ;
#273 = ADVANCED_FACE ( 'NONE', ( #353 ), #326, .T. ) ;
#274 = DIRECTION ( 'NONE',  ( 1.000000000000000000, 0.000000000000000000, 0.000000000000000000 ) ) ;
#275 = AXIS2_PLACEMENT_3D ( 'NONE', #5, #57, #125 ) ;
#276 = ORIENTED_EDGE ( 'NONE', *, *, #72, .F. ) ;
#277 = CARTESIAN_POINT ( 'NONE',  ( 0.000000000000000000, 0.000000000000000000, 0.000000000000000000 ) ) ;
#278 = EDGE_CURVE ( 'NONE', #156, #85, #78, .T. ) ;
#279 = CARTESIAN_POINT ( 'NONE',  ( 4.000000000000000000, 4.898587196589412829E-16, 105.0000000000000142 ) ) ;
#280 = APPROVAL_ROLE ( '' ) ;
#281 = VERTEX_POINT ( 'NONE', #111 ) ;
#282 = VECTOR ( 'NONE', #141, 1000.000000000000000 ) ;
#283 = DATE_AND_TIME ( #60, #101 ) ;
#284 = PLANE ( 'NONE',  #246 ) ;
#285 = VECTOR ( 'NONE', #201, 1000.000000000000000 ) ;
#286 = VERTEX_POINT ( 'NONE', #23 ) ;
#287 = DATE_AND_TIME ( #170, #229 ) ;
#288 = CARTESIAN_POINT ( 'NONE',  ( -4.500000000000000888, 5.510910596163089556E-16, 5.500000000000005329 ) ) ;
#289 =( GEOMETRIC_REPRESENTATION_CONTEXT ( 3 ) GLOBAL_UNCERTAINTY_ASSIGNED_CONTEXT ( ( #177 ) ) GLOBAL_UNIT_ASSIGNED_CONTEXT ( ( #28, #150, #311 ) ) REPRESENTATION_CONTEXT ( 'NONE', 'WORKASPACE' ) );
#290 = CALENDAR_DATE ( 2022, 8, 7 ) ;
#291 = DIRECTION ( 'NONE',  ( 0.000000000000000000, 0.000000000000000000, 1.000000000000000000 ) ) ;
#292 = DIRECTION ( 'NONE',  ( 0.000000000000000000, 0.000000000000000000, 1.000000000000000000 ) ) ;
#293 = AXIS2_PLACEMENT_3D ( 'NONE', #231, #292, #102 ) ;
#294 = PERSON_AND_ORGANIZATION ( #336, #79 ) ;
#295 = DIRECTION ( 'NONE',  ( -0.000000000000000000, -0.000000000000000000, -1.000000000000000000 ) ) ;
#296 = AXIS2_PLACEMENT_3D ( 'NONE', #355, #82, #173 ) ;
#297 = CARTESIAN_POINT ( 'NONE',  ( 0.000000000000000000, 0.000000000000000000, 105.0000000000000142 ) ) ;
#298 = CARTESIAN_POINT ( 'NONE',  ( -4.000000000000000000, 0.000000000000000000, 105.0000000000000142 ) ) ;
#299 = EDGE_LOOP ( 'NONE', ( #302, #187 ) ) ;
#300 = PRODUCT ( '0b26', '0b26', '', ( #307 ) ) ;
#301 = DIRECTION ( 'NONE',  ( 1.000000000000000000, 0.000000000000000000, 0.000000000000000000 ) ) ;
#302 = ORIENTED_EDGE ( 'NONE', *, *, #247, .F. ) ;
#303 = ORIENTED_EDGE ( 'NONE', *, *, #154, .F. ) ;
#304 = AXIS2_PLACEMENT_3D ( 'NONE', #233, #212, #332 ) ;
#305 = CC_DESIGN_APPROVAL ( #367, ( #55 ) ) ;
#306 = DIRECTION ( 'NONE',  ( 0.000000000000000000, 0.000000000000000000, 1.000000000000000000 ) ) ;
#307 = MECHANICAL_CONTEXT ( 'NONE', #69, 'mechanical' ) ;
#308 = ORIENTED_EDGE ( 'NONE', *, *, #67, .T. ) ;
#309 = DIRECTION ( 'NONE',  ( 0.000000000000000000, 0.000000000000000000, 1.000000000000000000 ) ) ;
#310 = DIRECTION ( 'NONE',  ( -0.000000000000000000, -0.000000000000000000, -1.000000000000000000 ) ) ;
#311 =( NAMED_UNIT ( * ) SI_UNIT ( $, .STERADIAN. ) SOLID_ANGLE_UNIT ( ) );
#312 = ORIENTED_EDGE ( 'NONE', *, *, #133, .T. ) ;
#313 = PRODUCT_DEFINITION_FORMATION_WITH_SPECIFIED_SOURCE ( 'LIBOVOLNÝ', '', #300, .NOT_KNOWN. ) ;
#314 = PERSON_AND_ORGANIZATION ( #336, #79 ) ;
#315 = FACE_OUTER_BOUND ( 'NONE', #380, .T. ) ;
#316 = FACE_OUTER_BOUND ( 'NONE', #8, .T. ) ;
#317 = COORDINATED_UNIVERSAL_TIME_OFFSET ( 1, 0, .AHEAD. ) ;
#318 = CARTESIAN_POINT ( 'NONE',  ( -4.500000000000000888, 5.510910596163088569E-16, 5.000000000000002665 ) ) ;
#319 = AXIS2_PLACEMENT_3D ( 'NONE', #17, #12, #66 ) ;
#320 = COORDINATED_UNIVERSAL_TIME_OFFSET ( 1, 0, .AHEAD. ) ;
#321 = CYLINDRICAL_SURFACE ( 'NONE', #357, 2.500000000000000000 ) ;
#322 = DIRECTION ( 'NONE',  ( -0.000000000000000000, -0.000000000000000000, -1.000000000000000000 ) ) ;
#323 = DIRECTION ( 'NONE',  ( -0.000000000000000000, -0.000000000000000000, -1.000000000000000000 ) ) ;
#324 = DIRECTION ( 'NONE',  ( 0.000000000000000000, 0.000000000000000000, 1.000000000000000000 ) ) ;
#325 = ORIENTED_EDGE ( 'NONE', *, *, #270, .F. ) ;
#326 = CYLINDRICAL_SURFACE ( 'NONE', #121, 7.000000000000000000 ) ;
#327 = AXIS2_PLACEMENT_3D ( 'NONE', #374, #256, #142 ) ;
#328 = DIRECTION ( 'NONE',  ( 1.000000000000000000, 0.000000000000000000, 0.000000000000000000 ) ) ;
#329 = ORIENTED_EDGE ( 'NONE', *, *, #222, .F. ) ;
#330 = MANIFOLD_SOLID_BREP ( 'Odebrat vysunutím3', #83 ) ;
#331 = AXIS2_PLACEMENT_3D ( 'NONE', #168, #14, #230 ) ;
#332 = DIRECTION ( 'NONE',  ( -1.000000000000000000, 0.000000000000000000, 0.000000000000000000 ) ) ;
#333 = EDGE_LOOP ( 'NONE', ( #176, #325 ) ) ;
#334 = APPLICATION_CONTEXT ( 'configuration controlled 3d designs of mechanical parts and assemblies' ) ;
#335 = CARTESIAN_POINT ( 'NONE',  ( 0.000000000000000000, 0.000000000000000000, 0.000000000000000000 ) ) ;
#336 = PERSON ( 'NEURÈENÝ', 'NEURÈENÝ', 'NEURÈENÝ', ('NEURÈENÝ'), ('NEURÈENÝ'), ('NEURÈENÝ') ) ;
#337 = ORIENTED_EDGE ( 'NONE', *, *, #146, .T. ) ;
#338 = EDGE_CURVE ( 'NONE', #45, #156, #339, .T. ) ;
#339 = CIRCLE ( 'NONE', #345, 4.000000000000000000 ) ;
#340 = ORIENTED_EDGE ( 'NONE', *, *, #379, .T. ) ;
#341 = EDGE_CURVE ( 'NONE', #25, #269, #172, .T. ) ;
#342 = PERSON_AND_ORGANIZATION_ROLE ( 'creator' ) ;
#343 = CARTESIAN_POINT ( 'NONE',  ( 0.000000000000000000, 0.000000000000000000, 5.500000000000005329 ) ) ;
#344 = VERTEX_POINT ( 'NONE', #240 ) ;
#345 = AXIS2_PLACEMENT_3D ( 'NONE', #84, #148, #301 ) ;
#346 = ADVANCED_FACE ( 'NONE', ( #179 ), #358, .T. ) ;
#347 = CARTESIAN_POINT ( 'NONE',  ( 4.000000000000000000, 4.898587196589412829E-16, 5.500000000000005329 ) ) ;
#348 = CARTESIAN_POINT ( 'NONE',  ( -7.000000000000000000, 0.000000000000000000, 5.000000000000000000 ) ) ;
#349 = DATE_AND_TIME ( #255, #236 ) ;
#350 = CARTESIAN_POINT ( 'NONE',  ( 0.000000000000000000, 0.000000000000000000, 5.000000000000000000 ) ) ;
#351 = FACE_OUTER_BOUND ( 'NONE', #61, .T. ) ;
#352 = ORIENTED_EDGE ( 'NONE', *, *, #128, .T. ) ;
#353 = FACE_OUTER_BOUND ( 'NONE', #59, .T. ) ;
#354 = ORIENTED_EDGE ( 'NONE', *, *, #338, .T. ) ;
#355 = CARTESIAN_POINT ( 'NONE',  ( 0.000000000000000000, 0.000000000000000000, 105.0000000000000142 ) ) ;
#356 = CIRCLE ( 'NONE', #188, 7.000000000000000000 ) ;
#357 = AXIS2_PLACEMENT_3D ( 'NONE', #34, #193, #371 ) ;
#358 = CYLINDRICAL_SURFACE ( 'NONE', #304, 4.000000000000000000 ) ;
#359 = ORIENTED_EDGE ( 'NONE', *, *, #27, .F. ) ;
#360 = EDGE_CURVE ( 'NONE', #85, #181, #134, .T. ) ;
#361 = DIRECTION ( 'NONE',  ( 0.000000000000000000, 0.000000000000000000, -1.000000000000000000 ) ) ;
#362 = VECTOR ( 'NONE', #39, 1000.000000000000000 ) ;
#363 = APPLICATION_PROTOCOL_DEFINITION ( 'international standard', 'config_control_design', 1994, #334 ) ;
#364 = ORIENTED_EDGE ( 'NONE', *, *, #128, .F. ) ;
#365 = DIRECTION ( 'NONE',  ( -0.000000000000000000, -0.000000000000000000, -1.000000000000000000 ) ) ;
#366 = FACE_OUTER_BOUND ( 'NONE', #242, .T. ) ;
#367 = APPROVAL ( #122, 'NEURÈENÝ' ) ;
#368 = DIRECTION ( 'NONE',  ( 0.000000000000000000, 0.000000000000000000, 1.000000000000000000 ) ) ;
#369 = SECURITY_CLASSIFICATION_LEVEL ( 'unclassified' ) ;
#370 = CARTESIAN_POINT ( 'NONE',  ( 7.000000000000000000, 8.572527594031473190E-16, 5.000000000000000000 ) ) ;
#371 = DIRECTION ( 'NONE',  ( -1.000000000000000000, 0.000000000000000000, 0.000000000000000000 ) ) ;
#372 = CARTESIAN_POINT ( 'NONE',  ( 0.000000000000000000, 0.000000000000000000, 5.500000000000005329 ) ) ;
#373 = AXIS2_PLACEMENT_3D ( 'NONE', #68, #322, #164 ) ;
#374 = CARTESIAN_POINT ( 'NONE',  ( 0.000000000000000000, 0.000000000000000000, 105.0000000000000142 ) ) ;
#375 = DIRECTION ( 'NONE',  ( 0.000000000000000000, 0.000000000000000000, 1.000000000000000000 ) ) ;
#376 = DIRECTION ( 'NONE',  ( 0.000000000000000000, 0.000000000000000000, 1.000000000000000000 ) ) ;
#377 = ORIENTED_EDGE ( 'NONE', *, *, #267, .F. ) ;
#378 = CARTESIAN_POINT ( 'NONE',  ( 0.000000000000000000, 0.000000000000000000, 5.000000000000000000 ) ) ;
#379 = EDGE_CURVE ( 'NONE', #25, #156, #218, .T. ) ;
#380 = EDGE_LOOP ( 'NONE', ( #180, #91, #53, #161 ) ) ;
#381 = CC_DESIGN_APPROVAL ( #74, ( #205 ) ) ;
ENDSEC;
END-ISO-10303-21;
