ISO-10303-21;
HEADER;
FILE_DESCRIPTION (( 'STEP AP203' ),
    '1' );
FILE_NAME ('bd07.STEP',
    '2022-07-08T15:25:32',
    ( '' ),
    ( '' ),
    'SwSTEP 2.0',
    'SolidWorks 2019',
    '' );
FILE_SCHEMA (( 'CONFIG_CONTROL_DESIGN' ));
ENDSEC;

DATA;
#1 = DIRECTION ( 'NONE',  ( 1.000000000000000000, 0.000000000000000000, -0.000000000000000000 ) ) ;
#2 = VERTEX_POINT ( 'NONE', #287 ) ;
#3 = ORGANIZATION ( 'NEURÈENÝ', 'NEURÈENÝ', '' ) ;
#4 = DIRECTION ( 'NONE',  ( 0.000000000000000000, 0.000000000000000000, -1.000000000000000000 ) ) ;
#5 = EDGE_LOOP ( 'NONE', ( #320, #303, #336, #108 ) ) ;
#6 = DIRECTION ( 'NONE',  ( 1.000000000000000000, 0.000000000000000000, 0.000000000000000000 ) ) ;
#7 = EDGE_CURVE ( 'NONE', #218, #145, #56, .T. ) ;
#8 = DIRECTION ( 'NONE',  ( -1.000000000000000000, 0.000000000000000000, 0.000000000000000000 ) ) ;
#9 = AXIS2_PLACEMENT_3D ( 'NONE', #184, #324, #1 ) ;
#10 = LINE ( 'NONE', #295, #67 ) ;
#11 = CC_DESIGN_SECURITY_CLASSIFICATION ( #97, ( #340 ) ) ;
#12 = ADVANCED_FACE ( 'NONE', ( #143 ), #312, .T. ) ;
#13 = DIRECTION ( 'NONE',  ( 1.000000000000000000, 0.000000000000000000, 0.000000000000000000 ) ) ;
#14 = ORIENTED_EDGE ( 'NONE', *, *, #187, .T. ) ;
#15 = DIRECTION ( 'NONE',  ( 0.000000000000000000, 0.000000000000000000, 1.000000000000000000 ) ) ;
#16 = CYLINDRICAL_SURFACE ( 'NONE', #126, 7.000000000000000000 ) ;
#17 = ADVANCED_FACE ( 'NONE', ( #86, #199 ), #55, .T. ) ;
#18 = CIRCLE ( 'NONE', #261, 7.000000000000000000 ) ;
#19 = ORIENTED_EDGE ( 'NONE', *, *, #46, .T. ) ;
#20 = CARTESIAN_POINT ( 'NONE',  ( 0.000000000000000000, 0.000000000000000000, 805.0000000000000000 ) ) ;
#21 = ORIENTED_EDGE ( 'NONE', *, *, #46, .F. ) ;
#22 = PRODUCT_DEFINITION_SHAPE ( 'NONE', 'NONE',  #272 ) ;
#23 = APPLICATION_CONTEXT ( 'configuration controlled 3d designs of mechanical parts and assemblies' ) ;
#24 = VERTEX_POINT ( 'NONE', #376 ) ;
#25 = ORIENTED_EDGE ( 'NONE', *, *, #136, .T. ) ;
#26 = AXIS2_PLACEMENT_3D ( 'NONE', #48, #106, #277 ) ;
#27 = EDGE_CURVE ( 'NONE', #133, #282, #309, .T. ) ;
#28 = APPROVAL_STATUS ( 'not_yet_approved' ) ;
#29 = CARTESIAN_POINT ( 'NONE',  ( 0.000000000000000000, 0.000000000000000000, 5.000000000000000000 ) ) ;
#30 = PERSON_AND_ORGANIZATION_ROLE ( 'design_owner' ) ;
#31 = DIRECTION ( 'NONE',  ( -1.000000000000000000, 1.224646799147351482E-16, 0.000000000000000000 ) ) ;
#32 = DATE_AND_TIME ( #111, #157 ) ;
#33 = CARTESIAN_POINT ( 'NONE',  ( 0.000000000000000000, 0.000000000000000000, 5.000000000000000000 ) ) ;
#34 = DIRECTION ( 'NONE',  ( 0.000000000000000000, 0.000000000000000000, 1.000000000000000000 ) ) ;
#35 = CARTESIAN_POINT ( 'NONE',  ( 0.000000000000000000, 0.000000000000000000, 5.000000000000000000 ) ) ;
#36 = EDGE_LOOP ( 'NONE', ( #64, #329 ) ) ;
#37 = CIRCLE ( 'NONE', #101, 4.000000000000000000 ) ;
#38 = EDGE_CURVE ( 'NONE', #152, #290, #82, .T. ) ;
#39 = CARTESIAN_POINT ( 'NONE',  ( 0.000000000000000000, 0.000000000000000000, 5.499999999999949374 ) ) ;
#40 = CARTESIAN_POINT ( 'NONE',  ( 7.000000000000000000, 8.572527594031473190E-16, 0.000000000000000000 ) ) ;
#41 = CARTESIAN_POINT ( 'NONE',  ( 2.100000000000000089, 2.571758278209441957E-16, 0.000000000000000000 ) ) ;
#42 = AXIS2_PLACEMENT_3D ( 'NONE', #186, #306, #223 ) ;
#43 = CARTESIAN_POINT ( 'NONE',  ( 0.000000000000000000, 0.000000000000000000, 805.0000000000000000 ) ) ;
#44 = DIRECTION ( 'NONE',  ( -0.000000000000000000, -0.000000000000000000, -1.000000000000000000 ) ) ;
#45 = ORIENTED_EDGE ( 'NONE', *, *, #381, .T. ) ;
#46 = EDGE_CURVE ( 'NONE', #224, #334, #89, .T. ) ;
#47 = CARTESIAN_POINT ( 'NONE',  ( 2.100000000000000089, 2.571758278209441957E-16, 805.0000000000000000 ) ) ;
#48 = CARTESIAN_POINT ( 'NONE',  ( 0.000000000000000000, 0.000000000000000000, 805.0000000000000000 ) ) ;
#49 = AXIS2_PLACEMENT_3D ( 'NONE', #43, #164, #158 ) ;
#50 = CARTESIAN_POINT ( 'NONE',  ( -7.000000000000000000, 0.000000000000000000, 5.000000000000000000 ) ) ;
#51 = ORIENTED_EDGE ( 'NONE', *, *, #361, .F. ) ;
#52 = CARTESIAN_POINT ( 'NONE',  ( 0.000000000000000000, 0.000000000000000000, 0.000000000000000000 ) ) ;
#53 = CC_DESIGN_PERSON_AND_ORGANIZATION_ASSIGNMENT ( #313, #87, ( #340 ) ) ;
#54 = APPROVAL_ROLE ( '' ) ;
#55 = PLANE ( 'NONE',  #345 ) ;
#56 = CIRCLE ( 'NONE', #365, 0.5000000000000004441 ) ;
#57 = COORDINATED_UNIVERSAL_TIME_OFFSET ( 1, 0, .AHEAD. ) ;
#58 = SECURITY_CLASSIFICATION_LEVEL ( 'unclassified' ) ;
#59 = LINE ( 'NONE', #148, #369 ) ;
#60 = AXIS2_PLACEMENT_3D ( 'NONE', #344, #85, #374 ) ;
#61 = CLOSED_SHELL ( 'NONE', ( #142, #211, #175, #12, #253, #17, #153, #296, #193, #367, #350 ) ) ;
#62 = DIRECTION ( 'NONE',  ( -0.000000000000000000, -0.000000000000000000, -1.000000000000000000 ) ) ;
#63 = DIRECTION ( 'NONE',  ( 1.000000000000000000, 0.000000000000000000, 0.000000000000000000 ) ) ;
#64 = ORIENTED_EDGE ( 'NONE', *, *, #84, .F. ) ;
#65 = EDGE_CURVE ( 'NONE', #248, #152, #59, .T. ) ;
#66 = FACE_OUTER_BOUND ( 'NONE', #36, .T. ) ;
#67 = VECTOR ( 'NONE', #4, 1000.000000000000000 ) ;
#68 = DIRECTION ( 'NONE',  ( 1.000000000000000000, 0.000000000000000000, 0.000000000000000000 ) ) ;
#69 = ORIENTED_EDGE ( 'NONE', *, *, #311, .T. ) ;
#70 = FACE_BOUND ( 'NONE', #197, .T. ) ;
#71 = EDGE_LOOP ( 'NONE', ( #359, #338 ) ) ;
#72 = AXIS2_PLACEMENT_3D ( 'NONE', #219, #44, #226 ) ;
#73 = FACE_OUTER_BOUND ( 'NONE', #172, .T. ) ;
#74 = APPROVAL_PERSON_ORGANIZATION ( #168, #200, #54 ) ;
#75 = ORIENTED_EDGE ( 'NONE', *, *, #65, .T. ) ;
#76 = DIRECTION ( 'NONE',  ( -1.000000000000000000, 0.000000000000000000, 0.000000000000000000 ) ) ;
#77 = EDGE_LOOP ( 'NONE', ( #69, #371 ) ) ;
#78 = APPROVAL ( #204, 'NEURÈENÝ' ) ;
#79 = ORIENTED_EDGE ( 'NONE', *, *, #337, .F. ) ;
#80 = PRODUCT ( 'bd07', 'bd07', '', ( #286 ) ) ;
#81 =( LENGTH_UNIT ( ) NAMED_UNIT ( * ) SI_UNIT ( .MILLI., .METRE. ) );
#82 = CIRCLE ( 'NONE', #131, 2.100000000000000089 ) ;
#83 = EDGE_LOOP ( 'NONE', ( #299, #276, #209, #79 ) ) ;
#84 = EDGE_CURVE ( 'NONE', #282, #133, #377, .T. ) ;
#85 = DIRECTION ( 'NONE',  ( 0.000000000000000000, 0.000000000000000000, 1.000000000000000000 ) ) ;
#86 = FACE_BOUND ( 'NONE', #71, .T. ) ;
#87 = PERSON_AND_ORGANIZATION_ROLE ( 'design_supplier' ) ;
#88 = DIRECTION ( 'NONE',  ( 1.000000000000000000, 0.000000000000000000, 0.000000000000000000 ) ) ;
#89 = CIRCLE ( 'NONE', #96, 7.000000000000000000 ) ;
#90 = EDGE_CURVE ( 'NONE', #135, #218, #301, .T. ) ;
#91 = PERSON_AND_ORGANIZATION ( #241, #3 ) ;
#92 = DIRECTION ( 'NONE',  ( 0.000000000000000000, 0.000000000000000000, 1.000000000000000000 ) ) ;
#93 = DATE_TIME_ROLE ( 'creation_date' ) ;
#94 = DIRECTION ( 'NONE',  ( 1.224646799147353207E-16, 1.000000000000000000, -0.000000000000000000 ) ) ;
#95 = DIRECTION ( 'NONE',  ( 1.000000000000000000, 0.000000000000000000, 0.000000000000000000 ) ) ;
#96 = AXIS2_PLACEMENT_3D ( 'NONE', #29, #92, #205 ) ;
#97 = SECURITY_CLASSIFICATION ( '', '', #58 ) ;
#98 = DIRECTION ( 'NONE',  ( 0.000000000000000000, 0.000000000000000000, 1.000000000000000000 ) ) ;
#99 = CARTESIAN_POINT ( 'NONE',  ( 4.500000000000000888, 0.000000000000000000, 5.499999999999949374 ) ) ;
#100 = FACE_BOUND ( 'NONE', #307, .T. ) ;
#101 = AXIS2_PLACEMENT_3D ( 'NONE', #39, #297, #6 ) ;
#102 = AXIS2_PLACEMENT_3D ( 'NONE', #341, #318, #257 ) ;
#103 =( NAMED_UNIT ( * ) SI_UNIT ( $, .STERADIAN. ) SOLID_ANGLE_UNIT ( ) );
#104 = CYLINDRICAL_SURFACE ( 'NONE', #42, 4.000000000000000000 ) ;
#105 = LOCAL_TIME ( 17, 25, 32.00000000000000000, #137 ) ;
#106 = DIRECTION ( 'NONE',  ( 0.000000000000000000, 0.000000000000000000, 1.000000000000000000 ) ) ;
#107 = APPROVAL ( #28, 'NEURÈENÝ' ) ;
#108 = ORIENTED_EDGE ( 'NONE', *, *, #121, .T. ) ;
#109 = CARTESIAN_POINT ( 'NONE',  ( 0.000000000000000000, 0.000000000000000000, 5.499999999999949374 ) ) ;
#110 = LOCAL_TIME ( 17, 25, 32.00000000000000000, #289 ) ;
#111 = CALENDAR_DATE ( 2022, 8, 7 ) ;
#112 = ORIENTED_EDGE ( 'NONE', *, *, #361, .T. ) ;
#113 = APPLICATION_PROTOCOL_DEFINITION ( 'international standard', 'config_control_design', 1994, #23 ) ;
#114 = CARTESIAN_POINT ( 'NONE',  ( 0.000000000000000000, 0.000000000000000000, 5.499999999999949374 ) ) ;
#115 = EDGE_CURVE ( 'NONE', #334, #224, #18, .T. ) ;
#116 = CALENDAR_DATE ( 2022, 8, 7 ) ;
#117 = CARTESIAN_POINT ( 'NONE',  ( 0.000000000000000000, 0.000000000000000000, 0.000000000000000000 ) ) ;
#118 = AXIS2_PLACEMENT_3D ( 'NONE', #215, #62, #8 ) ;
#119 = APPROVAL_DATE_TIME ( #232, #107 ) ;
#120 = DESIGN_CONTEXT ( 'detailed design', #23, 'design' ) ;
#121 = EDGE_CURVE ( 'NONE', #218, #135, #37, .T. ) ;
#122 = CARTESIAN_POINT ( 'NONE',  ( 0.000000000000000000, 0.000000000000000000, 805.0000000000000000 ) ) ;
#123 = DIRECTION ( 'NONE',  ( 1.000000000000000000, 0.000000000000000000, 0.000000000000000000 ) ) ;
#124 = ORIENTED_EDGE ( 'NONE', *, *, #304, .F. ) ;
#125 = CARTESIAN_POINT ( 'NONE',  ( 0.000000000000000000, 0.000000000000000000, 0.000000000000000000 ) ) ;
#126 = AXIS2_PLACEMENT_3D ( 'NONE', #335, #310, #76 ) ;
#127 = CARTESIAN_POINT ( 'NONE',  ( -4.000000000000000000, 0.000000000000000000, 805.0000000000000000 ) ) ;
#128 = FACE_OUTER_BOUND ( 'NONE', #165, .T. ) ;
#129 = PRODUCT_RELATED_PRODUCT_CATEGORY ( 'detail', '', ( #80 ) ) ;
#130 = DIRECTION ( 'NONE',  ( -0.000000000000000000, -0.000000000000000000, -1.000000000000000000 ) ) ;
#131 = AXIS2_PLACEMENT_3D ( 'NONE', #117, #347, #349 ) ;
#132 = CARTESIAN_POINT ( 'NONE',  ( -7.000000000000000000, 0.000000000000000000, 5.000000000000000000 ) ) ;
#133 = VERTEX_POINT ( 'NONE', #40 ) ;
#134 = DIRECTION ( 'NONE',  ( -1.000000000000000000, 0.000000000000000000, 0.000000000000000000 ) ) ;
#135 = VERTEX_POINT ( 'NONE', #182 ) ;
#136 = EDGE_CURVE ( 'NONE', #2, #290, #10, .T. ) ;
#137 = COORDINATED_UNIVERSAL_TIME_OFFSET ( 1, 0, .AHEAD. ) ;
#138 = AXIS2_PLACEMENT_3D ( 'NONE', #125, #98, #212 ) ;
#139 = DIRECTION ( 'NONE',  ( 0.000000000000000000, 0.000000000000000000, 1.000000000000000000 ) ) ;
#140 = CALENDAR_DATE ( 2022, 8, 7 ) ;
#141 = COORDINATED_UNIVERSAL_TIME_OFFSET ( 1, 0, .AHEAD. ) ;
#142 = ADVANCED_FACE ( 'NONE', ( #325 ), #210, .F. ) ;
#143 = FACE_OUTER_BOUND ( 'NONE', #183, .T. ) ;
#144 = PERSON_AND_ORGANIZATION ( #241, #3 ) ;
#145 = VERTEX_POINT ( 'NONE', #266 ) ;
#146 = CIRCLE ( 'NONE', #49, 4.000000000000000000 ) ;
#147 = AXIS2_PLACEMENT_3D ( 'NONE', #179, #155, #208 ) ;
#148 = CARTESIAN_POINT ( 'NONE',  ( 2.100000000000000089, 2.571758278209441957E-16, 805.0000000000000000 ) ) ;
#149 = EDGE_CURVE ( 'NONE', #145, #24, #357, .T. ) ;
#150 = CARTESIAN_POINT ( 'NONE',  ( 7.000000000000000000, 8.572527594031473190E-16, 5.000000000000000000 ) ) ;
#151 = DIRECTION ( 'NONE',  ( -0.000000000000000000, -0.000000000000000000, -1.000000000000000000 ) ) ;
#152 = VERTEX_POINT ( 'NONE', #41 ) ;
#153 = ADVANCED_FACE ( 'NONE', ( #100, #66 ), #358, .F. ) ;
#154 = CYLINDRICAL_SURFACE ( 'NONE', #118, 4.000000000000000000 ) ;
#155 = DIRECTION ( 'NONE',  ( 0.000000000000000000, 0.000000000000000000, -1.000000000000000000 ) ) ;
#156 = AXIS2_PLACEMENT_3D ( 'NONE', #33, #230, #167 ) ;
#157 = LOCAL_TIME ( 17, 25, 32.00000000000000000, #291 ) ;
#158 = DIRECTION ( 'NONE',  ( 1.000000000000000000, 0.000000000000000000, 0.000000000000000000 ) ) ;
#159 = ORIENTED_EDGE ( 'NONE', *, *, #7, .F. ) ;
#160 = DIRECTION ( 'NONE',  ( 1.000000000000000000, 0.000000000000000000, 0.000000000000000000 ) ) ;
#161 = DIRECTION ( 'NONE',  ( 0.000000000000000000, 0.000000000000000000, -1.000000000000000000 ) ) ;
#162 = TOROIDAL_SURFACE ( 'NONE', #351, 4.500000000000000888, 0.5000000000000000000 ) ;
#163 = LINE ( 'NONE', #190, #298 ) ;
#164 = DIRECTION ( 'NONE',  ( 0.000000000000000000, 0.000000000000000000, 1.000000000000000000 ) ) ;
#165 = EDGE_LOOP ( 'NONE', ( #246, #314, #25, #45 ) ) ;
#166 = DIRECTION ( 'NONE',  ( 1.000000000000000000, 0.000000000000000000, 0.000000000000000000 ) ) ;
#167 = DIRECTION ( 'NONE',  ( -1.000000000000000000, 0.000000000000000000, 0.000000000000000000 ) ) ;
#168 = PERSON_AND_ORGANIZATION ( #241, #3 ) ;
#169 = AXIS2_PLACEMENT_3D ( 'NONE', #52, #203, #166 ) ;
#170 = DIRECTION ( 'NONE',  ( 0.000000000000000000, 0.000000000000000000, 1.000000000000000000 ) ) ;
#171 = PERSON_AND_ORGANIZATION ( #241, #3 ) ;
#172 = EDGE_LOOP ( 'NONE', ( #159, #355, #14, #363 ) ) ;
#173 = PERSON_AND_ORGANIZATION_ROLE ( 'classification_officer' ) ;
#174 = PERSON_AND_ORGANIZATION ( #241, #3 ) ;
#175 = ADVANCED_FACE ( 'NONE', ( #268 ), #154, .T. ) ;
#176 = APPROVAL_PERSON_ORGANIZATION ( #91, #78, #201 ) ;
#177 = ORIENTED_EDGE ( 'NONE', *, *, #115, .F. ) ;
#178 = CARTESIAN_POINT ( 'NONE',  ( 0.000000000000000000, 0.000000000000000000, 5.499999999999949374 ) ) ;
#179 = CARTESIAN_POINT ( 'NONE',  ( 0.000000000000000000, 0.000000000000000000, 805.0000000000000000 ) ) ;
#180 = ORIENTED_EDGE ( 'NONE', *, *, #84, .T. ) ;
#181 = AXIS2_PLACEMENT_3D ( 'NONE', #114, #139, #88 ) ;
#182 = CARTESIAN_POINT ( 'NONE',  ( 4.000000000000000000, 4.898587196589412829E-16, 5.499999999999949374 ) ) ;
#183 = EDGE_LOOP ( 'NONE', ( #21, #112, #342, #124 ) ) ;
#184 = CARTESIAN_POINT ( 'NONE',  ( 0.000000000000000000, 0.000000000000000000, 805.0000000000000000 ) ) ;
#185 = ORIENTED_EDGE ( 'NONE', *, *, #239, .F. ) ;
#186 = CARTESIAN_POINT ( 'NONE',  ( 0.000000000000000000, 0.000000000000000000, 805.0000000000000000 ) ) ;
#187 = EDGE_CURVE ( 'NONE', #135, #24, #249, .T. ) ;
#188 = ORIENTED_EDGE ( 'NONE', *, *, #304, .T. ) ;
#189 = CIRCLE ( 'NONE', #195, 4.000000000000000000 ) ;
#190 = CARTESIAN_POINT ( 'NONE',  ( 7.000000000000000000, 8.572527594031473190E-16, 5.000000000000000000 ) ) ;
#191 = DIRECTION ( 'NONE',  ( -0.000000000000000000, -0.000000000000000000, -1.000000000000000000 ) ) ;
#192 = EDGE_LOOP ( 'NONE', ( #228, #250, #185, #213 ) ) ;
#193 = ADVANCED_FACE ( 'NONE', ( #70, #236 ), #273, .T. ) ;
#194 = CARTESIAN_POINT ( 'NONE',  ( 0.000000000000000000, 0.000000000000000000, 805.0000000000000000 ) ) ;
#195 = AXIS2_PLACEMENT_3D ( 'NONE', #194, #333, #13 ) ;
#196 = VECTOR ( 'NONE', #366, 1000.000000000000000 ) ;
#197 = EDGE_LOOP ( 'NONE', ( #263, #292 ) ) ;
#198 = PERSON_AND_ORGANIZATION ( #241, #3 ) ;
#199 = FACE_OUTER_BOUND ( 'NONE', #252, .T. ) ;
#200 = APPROVAL ( #229, 'NEURÈENÝ' ) ;
#201 = APPROVAL_ROLE ( '' ) ;
#202 = LOCAL_TIME ( 17, 25, 32.00000000000000000, #141 ) ;
#203 = DIRECTION ( 'NONE',  ( 0.000000000000000000, 0.000000000000000000, 1.000000000000000000 ) ) ;
#204 = APPROVAL_STATUS ( 'not_yet_approved' ) ;
#205 = DIRECTION ( 'NONE',  ( 1.000000000000000000, 0.000000000000000000, 0.000000000000000000 ) ) ;
#206 = CARTESIAN_POINT ( 'NONE',  ( -4.000000000000000000, 0.000000000000000000, 5.499999999999949374 ) ) ;
#207 = AXIS2_PLACEMENT_3D ( 'NONE', #122, #34, #95 ) ;
#208 = DIRECTION ( 'NONE',  ( -1.000000000000000000, 0.000000000000000000, 0.000000000000000000 ) ) ;
#209 = ORIENTED_EDGE ( 'NONE', *, *, #90, .T. ) ;
#210 = CYLINDRICAL_SURFACE ( 'NONE', #147, 2.100000000000000089 ) ;
#211 = ADVANCED_FACE ( 'NONE', ( #300 ), #162, .F. ) ;
#212 = DIRECTION ( 'NONE',  ( 1.000000000000000000, 0.000000000000000000, -0.000000000000000000 ) ) ;
#213 = ORIENTED_EDGE ( 'NONE', *, *, #187, .F. ) ;
#214 = CIRCLE ( 'NONE', #207, 2.100000000000000089 ) ;
#215 = CARTESIAN_POINT ( 'NONE',  ( 0.000000000000000000, 0.000000000000000000, 805.0000000000000000 ) ) ;
#216 = EDGE_CURVE ( 'NONE', #248, #2, #214, .T. ) ;
#217 = CARTESIAN_POINT ( 'NONE',  ( 4.000000000000000000, 4.898587196589412829E-16, 805.0000000000000000 ) ) ;
#218 = VERTEX_POINT ( 'NONE', #206 ) ;
#219 = CARTESIAN_POINT ( 'NONE',  ( 0.000000000000000000, 0.000000000000000000, 0.000000000000000000 ) ) ;
#220 = VERTEX_POINT ( 'NONE', #322 ) ;
#221 = APPROVAL_PERSON_ORGANIZATION ( #171, #107, #316 ) ;
#222 = ADVANCED_BREP_SHAPE_REPRESENTATION ( 'bd07', ( #317, #169 ), #288 ) ;
#223 = DIRECTION ( 'NONE',  ( -1.000000000000000000, 0.000000000000000000, 0.000000000000000000 ) ) ;
#224 = VERTEX_POINT ( 'NONE', #150 ) ;
#225 = FACE_OUTER_BOUND ( 'NONE', #328, .T. ) ;
#226 = DIRECTION ( 'NONE',  ( 1.000000000000000000, 0.000000000000000000, 0.000000000000000000 ) ) ;
#227 = ORIENTED_EDGE ( 'NONE', *, *, #115, .T. ) ;
#228 = ORIENTED_EDGE ( 'NONE', *, *, #121, .F. ) ;
#229 = APPROVAL_STATUS ( 'not_yet_approved' ) ;
#230 = DIRECTION ( 'NONE',  ( -0.000000000000000000, -0.000000000000000000, -1.000000000000000000 ) ) ;
#231 = CALENDAR_DATE ( 2022, 8, 7 ) ;
#232 = DATE_AND_TIME ( #116, #105 ) ;
#233 = CC_DESIGN_PERSON_AND_ORGANIZATION_ASSIGNMENT ( #198, #30, ( #80 ) ) ;
#234 = SHAPE_DEFINITION_REPRESENTATION ( #22, #222 ) ;
#235 = DIRECTION ( 'NONE',  ( 1.000000000000000000, 0.000000000000000000, -0.000000000000000000 ) ) ;
#236 = FACE_OUTER_BOUND ( 'NONE', #77, .T. ) ;
#237 = AXIS2_PLACEMENT_3D ( 'NONE', #109, #15, #160 ) ;
#238 = DIRECTION ( 'NONE',  ( 0.000000000000000000, 0.000000000000000000, 1.000000000000000000 ) ) ;
#239 = EDGE_CURVE ( 'NONE', #24, #145, #308, .T. ) ;
#240 = CARTESIAN_POINT ( 'NONE',  ( 0.000000000000000000, 0.000000000000000000, 5.000000000000000000 ) ) ;
#241 = PERSON ( 'NEURÈENÝ', 'NEURÈENÝ', 'NEURÈENÝ', ('NEURÈENÝ'), ('NEURÈENÝ'), ('NEURÈENÝ') ) ;
#242 = DIRECTION ( 'NONE',  ( 0.000000000000000000, -1.000000000000000000, 0.000000000000000000 ) ) ;
#243 = AXIS2_PLACEMENT_3D ( 'NONE', #35, #151, #123 ) ;
#244 = CARTESIAN_POINT ( 'NONE',  ( -4.000000000000000000, 0.000000000000000000, 805.0000000000000000 ) ) ;
#245 = CYLINDRICAL_SURFACE ( 'NONE', #321, 2.100000000000000089 ) ;
#246 = ORIENTED_EDGE ( 'NONE', *, *, #65, .F. ) ;
#247 = CARTESIAN_POINT ( 'NONE',  ( -7.000000000000000000, 0.000000000000000000, 0.000000000000000000 ) ) ;
#248 = VERTEX_POINT ( 'NONE', #47 ) ;
#249 = CIRCLE ( 'NONE', #293, 0.5000000000000004441 ) ;
#250 = ORIENTED_EDGE ( 'NONE', *, *, #7, .T. ) ;
#251 = LINE ( 'NONE', #50, #254 ) ;
#252 = EDGE_LOOP ( 'NONE', ( #227, #19 ) ) ;
#253 = ADVANCED_FACE ( 'NONE', ( #225 ), #16, .T. ) ;
#254 = VECTOR ( 'NONE', #281, 1000.000000000000000 ) ;
#255 = PERSON_AND_ORGANIZATION_ROLE ( 'creator' ) ;
#256 = PERSON_AND_ORGANIZATION ( #241, #3 ) ;
#257 = DIRECTION ( 'NONE',  ( 1.000000000000000000, 0.000000000000000000, 0.000000000000000000 ) ) ;
#258 = CALENDAR_DATE ( 2022, 8, 7 ) ;
#259 = CARTESIAN_POINT ( 'NONE',  ( 0.000000000000000000, 0.000000000000000000, 5.000000000000000000 ) ) ;
#260 = CC_DESIGN_DATE_AND_TIME_ASSIGNMENT ( #348, #93, ( #272 ) ) ;
#261 = AXIS2_PLACEMENT_3D ( 'NONE', #240, #271, #63 ) ;
#262 = APPROVAL_DATE_TIME ( #370, #78 ) ;
#263 = ORIENTED_EDGE ( 'NONE', *, *, #279, .F. ) ;
#264 = DIRECTION ( 'NONE',  ( 0.000000000000000000, 0.000000000000000000, -1.000000000000000000 ) ) ;
#265 = UNCERTAINTY_MEASURE_WITH_UNIT (LENGTH_MEASURE( 1.000000000000000082E-05 ), #81, 'distance_accuracy_value', 'NONE');
#266 = CARTESIAN_POINT ( 'NONE',  ( -4.500000000000000888, 5.510910596163088569E-16, 4.999999999999975131 ) ) ;
#267 = CC_DESIGN_DATE_AND_TIME_ASSIGNMENT ( #32, #379, ( #97 ) ) ;
#268 = FACE_OUTER_BOUND ( 'NONE', #83, .T. ) ;
#269 = TOROIDAL_SURFACE ( 'NONE', #237, 4.500000000000000888, 0.5000000000000000000 ) ;
#270 = ORIENTED_EDGE ( 'NONE', *, *, #136, .F. ) ;
#271 = DIRECTION ( 'NONE',  ( 0.000000000000000000, 0.000000000000000000, 1.000000000000000000 ) ) ;
#272 = PRODUCT_DEFINITION ( 'NEZNÁMÝ', '', #340, #120 ) ;
#273 = PLANE ( 'NONE',  #9 ) ;
#274 = VECTOR ( 'NONE', #191, 1000.000000000000000 ) ;
#275 = FACE_OUTER_BOUND ( 'NONE', #5, .T. ) ;
#276 = ORIENTED_EDGE ( 'NONE', *, *, #331, .T. ) ;
#277 = DIRECTION ( 'NONE',  ( 1.000000000000000000, 0.000000000000000000, 0.000000000000000000 ) ) ;
#278 = ORIENTED_EDGE ( 'NONE', *, *, #279, .T. ) ;
#279 = EDGE_CURVE ( 'NONE', #2, #248, #339, .T. ) ;
#280 = CIRCLE ( 'NONE', #72, 2.100000000000000089 ) ;
#281 = DIRECTION ( 'NONE',  ( -0.000000000000000000, -0.000000000000000000, -1.000000000000000000 ) ) ;
#282 = VERTEX_POINT ( 'NONE', #247 ) ;
#283 = LINE ( 'NONE', #127, #196 ) ;
#284 = ORIENTED_EDGE ( 'NONE', *, *, #381, .F. ) ;
#285 = EDGE_CURVE ( 'NONE', #220, #364, #146, .T. ) ;
#286 = MECHANICAL_CONTEXT ( 'NONE', #360, 'mechanical' ) ;
#287 = CARTESIAN_POINT ( 'NONE',  ( -2.100000000000000089, 0.000000000000000000, 805.0000000000000000 ) ) ;
#288 =( GEOMETRIC_REPRESENTATION_CONTEXT ( 3 ) GLOBAL_UNCERTAINTY_ASSIGNED_CONTEXT ( ( #265 ) ) GLOBAL_UNIT_ASSIGNED_CONTEXT ( ( #81, #330, #103 ) ) REPRESENTATION_CONTEXT ( 'NONE', 'WORKASPACE' ) );
#289 = COORDINATED_UNIVERSAL_TIME_OFFSET ( 1, 0, .AHEAD. ) ;
#290 = VERTEX_POINT ( 'NONE', #362 ) ;
#291 = COORDINATED_UNIVERSAL_TIME_OFFSET ( 1, 0, .AHEAD. ) ;
#292 = ORIENTED_EDGE ( 'NONE', *, *, #216, .F. ) ;
#293 = AXIS2_PLACEMENT_3D ( 'NONE', #99, #242, #327 ) ;
#294 = ORIENTED_EDGE ( 'NONE', *, *, #38, .T. ) ;
#295 = CARTESIAN_POINT ( 'NONE',  ( -2.100000000000000089, 0.000000000000000000, 805.0000000000000000 ) ) ;
#296 = ADVANCED_FACE ( 'NONE', ( #275 ), #104, .T. ) ;
#297 = DIRECTION ( 'NONE',  ( 0.000000000000000000, 0.000000000000000000, 1.000000000000000000 ) ) ;
#298 = VECTOR ( 'NONE', #130, 1000.000000000000000 ) ;
#299 = ORIENTED_EDGE ( 'NONE', *, *, #285, .F. ) ;
#300 = FACE_OUTER_BOUND ( 'NONE', #192, .T. ) ;
#301 = CIRCLE ( 'NONE', #181, 4.000000000000000000 ) ;
#302 = LINE ( 'NONE', #217, #274 ) ;
#303 = ORIENTED_EDGE ( 'NONE', *, *, #311, .F. ) ;
#304 = EDGE_CURVE ( 'NONE', #334, #282, #251, .T. ) ;
#305 = EDGE_LOOP ( 'NONE', ( #278, #75, #294, #270 ) ) ;
#306 = DIRECTION ( 'NONE',  ( -0.000000000000000000, -0.000000000000000000, -1.000000000000000000 ) ) ;
#307 = EDGE_LOOP ( 'NONE', ( #284, #368 ) ) ;
#308 = CIRCLE ( 'NONE', #243, 4.500000000000000888 ) ;
#309 = CIRCLE ( 'NONE', #102, 7.000000000000000000 ) ;
#310 = DIRECTION ( 'NONE',  ( -0.000000000000000000, -0.000000000000000000, -1.000000000000000000 ) ) ;
#311 = EDGE_CURVE ( 'NONE', #364, #220, #189, .T. ) ;
#312 = CYLINDRICAL_SURFACE ( 'NONE', #156, 7.000000000000000000 ) ;
#313 = PERSON_AND_ORGANIZATION ( #241, #3 ) ;
#314 = ORIENTED_EDGE ( 'NONE', *, *, #216, .T. ) ;
#315 = CC_DESIGN_APPROVAL ( #107, ( #272 ) ) ;
#316 = APPROVAL_ROLE ( '' ) ;
#317 = MANIFOLD_SOLID_BREP ( 'Odebrat vysunutím3', #61 ) ;
#318 = DIRECTION ( 'NONE',  ( 0.000000000000000000, 0.000000000000000000, 1.000000000000000000 ) ) ;
#319 = DATE_AND_TIME ( #140, #110 ) ;
#320 = ORIENTED_EDGE ( 'NONE', *, *, #331, .F. ) ;
#321 = AXIS2_PLACEMENT_3D ( 'NONE', #20, #161, #134 ) ;
#322 = CARTESIAN_POINT ( 'NONE',  ( 4.000000000000000000, 4.898587196589412829E-16, 805.0000000000000000 ) ) ;
#323 = CC_DESIGN_PERSON_AND_ORGANIZATION_ASSIGNMENT ( #174, #255, ( #272 ) ) ;
#324 = DIRECTION ( 'NONE',  ( 0.000000000000000000, 0.000000000000000000, 1.000000000000000000 ) ) ;
#325 = FACE_OUTER_BOUND ( 'NONE', #305, .T. ) ;
#326 = CC_DESIGN_PERSON_AND_ORGANIZATION_ASSIGNMENT ( #256, #375, ( #340 ) ) ;
#327 = DIRECTION ( 'NONE',  ( 0.000000000000000000, 0.000000000000000000, -1.000000000000000000 ) ) ;
#328 = EDGE_LOOP ( 'NONE', ( #51, #177, #188, #180 ) ) ;
#329 = ORIENTED_EDGE ( 'NONE', *, *, #27, .F. ) ;
#330 =( NAMED_UNIT ( * ) PLANE_ANGLE_UNIT ( ) SI_UNIT ( $, .RADIAN. ) );
#331 = EDGE_CURVE ( 'NONE', #220, #135, #302, .T. ) ;
#332 = AXIS2_PLACEMENT_3D ( 'NONE', #356, #353, #68 ) ;
#333 = DIRECTION ( 'NONE',  ( 0.000000000000000000, 0.000000000000000000, 1.000000000000000000 ) ) ;
#334 = VERTEX_POINT ( 'NONE', #132 ) ;
#335 = CARTESIAN_POINT ( 'NONE',  ( 0.000000000000000000, 0.000000000000000000, 5.000000000000000000 ) ) ;
#336 = ORIENTED_EDGE ( 'NONE', *, *, #337, .T. ) ;
#337 = EDGE_CURVE ( 'NONE', #364, #218, #283, .T. ) ;
#338 = ORIENTED_EDGE ( 'NONE', *, *, #149, .T. ) ;
#339 = CIRCLE ( 'NONE', #26, 2.100000000000000089 ) ;
#340 = PRODUCT_DEFINITION_FORMATION_WITH_SPECIFIED_SOURCE ( 'LIBOVOLNÝ', '', #80, .NOT_KNOWN. ) ;
#341 = CARTESIAN_POINT ( 'NONE',  ( 0.000000000000000000, 0.000000000000000000, 0.000000000000000000 ) ) ;
#342 = ORIENTED_EDGE ( 'NONE', *, *, #27, .T. ) ;
#343 = APPLICATION_PROTOCOL_DEFINITION ( 'international standard', 'config_control_design', 1994, #360 ) ;
#344 = CARTESIAN_POINT ( 'NONE',  ( 0.000000000000000000, 0.000000000000000000, 0.000000000000000000 ) ) ;
#345 = AXIS2_PLACEMENT_3D ( 'NONE', #259, #170, #235 ) ;
#346 = CC_DESIGN_APPROVAL ( #200, ( #97 ) ) ;
#347 = DIRECTION ( 'NONE',  ( -0.000000000000000000, -0.000000000000000000, -1.000000000000000000 ) ) ;
#348 = DATE_AND_TIME ( #258, #202 ) ;
#349 = DIRECTION ( 'NONE',  ( 1.000000000000000000, 0.000000000000000000, 0.000000000000000000 ) ) ;
#350 = ADVANCED_FACE ( 'NONE', ( #128 ), #245, .F. ) ;
#351 = AXIS2_PLACEMENT_3D ( 'NONE', #178, #238, #354 ) ;
#352 = CC_DESIGN_APPROVAL ( #78, ( #340 ) ) ;
#353 = DIRECTION ( 'NONE',  ( -0.000000000000000000, -0.000000000000000000, -1.000000000000000000 ) ) ;
#354 = DIRECTION ( 'NONE',  ( 1.000000000000000000, 0.000000000000000000, 0.000000000000000000 ) ) ;
#355 = ORIENTED_EDGE ( 'NONE', *, *, #90, .F. ) ;
#356 = CARTESIAN_POINT ( 'NONE',  ( 0.000000000000000000, 0.000000000000000000, 5.000000000000000000 ) ) ;
#357 = CIRCLE ( 'NONE', #332, 4.500000000000000888 ) ;
#358 = PLANE ( 'NONE',  #138 ) ;
#359 = ORIENTED_EDGE ( 'NONE', *, *, #239, .T. ) ;
#360 = APPLICATION_CONTEXT ( 'configuration controlled 3d designs of mechanical parts and assemblies' ) ;
#361 = EDGE_CURVE ( 'NONE', #224, #133, #163, .T. ) ;
#362 = CARTESIAN_POINT ( 'NONE',  ( -2.100000000000000089, 0.000000000000000000, 0.000000000000000000 ) ) ;
#363 = ORIENTED_EDGE ( 'NONE', *, *, #149, .F. ) ;
#364 = VERTEX_POINT ( 'NONE', #244 ) ;
#365 = AXIS2_PLACEMENT_3D ( 'NONE', #380, #94, #31 ) ;
#366 = DIRECTION ( 'NONE',  ( -0.000000000000000000, -0.000000000000000000, -1.000000000000000000 ) ) ;
#367 = ADVANCED_FACE ( 'NONE', ( #73 ), #269, .F. ) ;
#368 = ORIENTED_EDGE ( 'NONE', *, *, #38, .F. ) ;
#369 = VECTOR ( 'NONE', #264, 1000.000000000000000 ) ;
#370 = DATE_AND_TIME ( #231, #378 ) ;
#371 = ORIENTED_EDGE ( 'NONE', *, *, #285, .T. ) ;
#372 = APPROVAL_DATE_TIME ( #319, #200 ) ;
#373 = CC_DESIGN_PERSON_AND_ORGANIZATION_ASSIGNMENT ( #144, #173, ( #97 ) ) ;
#374 = DIRECTION ( 'NONE',  ( 1.000000000000000000, 0.000000000000000000, 0.000000000000000000 ) ) ;
#375 = PERSON_AND_ORGANIZATION_ROLE ( 'creator' ) ;
#376 = CARTESIAN_POINT ( 'NONE',  ( 4.500000000000000888, 0.000000000000000000, 4.999999999999975131 ) ) ;
#377 = CIRCLE ( 'NONE', #60, 7.000000000000000000 ) ;
#378 = LOCAL_TIME ( 17, 25, 32.00000000000000000, #57 ) ;
#379 = DATE_TIME_ROLE ( 'classification_date' ) ;
#380 = CARTESIAN_POINT ( 'NONE',  ( -4.500000000000000888, 5.510910596163089556E-16, 5.499999999999949374 ) ) ;
#381 = EDGE_CURVE ( 'NONE', #290, #152, #280, .T. ) ;
ENDSEC;
END-ISO-10303-21;
