ISO-10303-21;
HEADER;
FILE_DESCRIPTION (( 'STEP AP203' ),
    '1' );
FILE_NAME ('ba5a.STEP',
    '2022-07-08T15:42:57',
    ( '' ),
    ( '' ),
    'SwSTEP 2.0',
    'SolidWorks 2019',
    '' );
FILE_SCHEMA (( 'CONFIG_CONTROL_DESIGN' ));
ENDSEC;

DATA;
#1 = ADVANCED_FACE ( 'NONE', ( #161 ), #83, .T. ) ;
#2 = LOCAL_TIME ( 17, 42, 57.00000000000000000, #205 ) ;
#3 = APPLICATION_CONTEXT ( 'configuration controlled 3d designs of mechanical parts and assemblies' ) ;
#4 = ORIENTED_EDGE ( 'NONE', *, *, #126, .F. ) ;
#5 = LINE ( 'NONE', #355, #171 ) ;
#6 = EDGE_LOOP ( 'NONE', ( #102, #16, #107, #158 ) ) ;
#7 = CIRCLE ( 'NONE', #278, 0.2999999999999999334 ) ;
#8 = ADVANCED_BREP_SHAPE_REPRESENTATION ( 'ba5a', ( #221, #156 ), #43 ) ;
#9 = CARTESIAN_POINT ( 'NONE',  ( 0.000000000000000000, 0.000000000000000000, 3.000000000000000000 ) ) ;
#10 = AXIS2_PLACEMENT_3D ( 'NONE', #9, #123, #218 ) ;
#11 = EDGE_LOOP ( 'NONE', ( #22, #146, #213, #98 ) ) ;
#12 = CC_DESIGN_APPROVAL ( #341, ( #99 ) ) ;
#13 = ADVANCED_FACE ( 'NONE', ( #274, #191 ), #167, .T. ) ;
#14 = CARTESIAN_POINT ( 'NONE',  ( -5.000000000000000000, 0.000000000000000000, 0.000000000000000000 ) ) ;
#15 = ORIENTED_EDGE ( 'NONE', *, *, #235, .F. ) ;
#16 = ORIENTED_EDGE ( 'NONE', *, *, #303, .F. ) ;
#17 = CIRCLE ( 'NONE', #273, 2.799999999999999822 ) ;
#18 = ORIENTED_EDGE ( 'NONE', *, *, #260, .T. ) ;
#19 = CC_DESIGN_SECURITY_CLASSIFICATION ( #130, ( #183 ) ) ;
#20 = VERTEX_POINT ( 'NONE', #170 ) ;
#21 = AXIS2_PLACEMENT_3D ( 'NONE', #224, #371, #78 ) ;
#22 = ORIENTED_EDGE ( 'NONE', *, *, #73, .F. ) ;
#23 = AXIS2_PLACEMENT_3D ( 'NONE', #97, #37, #214 ) ;
#24 = PERSON_AND_ORGANIZATION_ROLE ( 'creator' ) ;
#25 = DIRECTION ( 'NONE',  ( 1.000000000000000000, 0.000000000000000000, 0.000000000000000000 ) ) ;
#26 = CARTESIAN_POINT ( 'NONE',  ( -2.500000000000000000, 0.000000000000000000, 3.299999999999997158 ) ) ;
#27 = DATE_AND_TIME ( #212, #223 ) ;
#28 = CYLINDRICAL_SURFACE ( 'NONE', #111, 5.000000000000000000 ) ;
#29 = ORIENTED_EDGE ( 'NONE', *, *, #305, .T. ) ;
#30 = CC_DESIGN_PERSON_AND_ORGANIZATION_ASSIGNMENT ( #337, #133, ( #352 ) ) ;
#31 = COORDINATED_UNIVERSAL_TIME_OFFSET ( 1, 0, .AHEAD. ) ;
#32 = CARTESIAN_POINT ( 'NONE',  ( 2.799999999999999822, 0.000000000000000000, 3.299999999999997158 ) ) ;
#33 = DIRECTION ( 'NONE',  ( -0.000000000000000000, -0.000000000000000000, -1.000000000000000000 ) ) ;
#34 = EDGE_LOOP ( 'NONE', ( #66, #118 ) ) ;
#35 = EDGE_CURVE ( 'NONE', #239, #189, #82, .T. ) ;
#36 = VERTEX_POINT ( 'NONE', #338 ) ;
#37 = DIRECTION ( 'NONE',  ( -0.000000000000000000, -0.000000000000000000, -1.000000000000000000 ) ) ;
#38 = ORIENTED_EDGE ( 'NONE', *, *, #312, .T. ) ;
#39 = EDGE_LOOP ( 'NONE', ( #325, #150 ) ) ;
#40 = DIRECTION ( 'NONE',  ( 1.000000000000000000, 0.000000000000000000, 0.000000000000000000 ) ) ;
#41 = AXIS2_PLACEMENT_3D ( 'NONE', #262, #315, #152 ) ;
#42 = ORIENTED_EDGE ( 'NONE', *, *, #204, .F. ) ;
#43 =( GEOMETRIC_REPRESENTATION_CONTEXT ( 3 ) GLOBAL_UNCERTAINTY_ASSIGNED_CONTEXT ( ( #306 ) ) GLOBAL_UNIT_ASSIGNED_CONTEXT ( ( #272, #250, #47 ) ) REPRESENTATION_CONTEXT ( 'NONE', 'WORKASPACE' ) );
#44 = EDGE_CURVE ( 'NONE', #345, #239, #331, .T. ) ;
#45 = CYLINDRICAL_SURFACE ( 'NONE', #307, 5.000000000000000000 ) ;
#46 = ORIENTED_EDGE ( 'NONE', *, *, #116, .F. ) ;
#47 =( NAMED_UNIT ( * ) SI_UNIT ( $, .STERADIAN. ) SOLID_ANGLE_UNIT ( ) );
#48 = CC_DESIGN_PERSON_AND_ORGANIZATION_ASSIGNMENT ( #232, #24, ( #183 ) ) ;
#49 = EDGE_LOOP ( 'NONE', ( #42, #70 ) ) ;
#50 = LOCAL_TIME ( 17, 42, 57.00000000000000000, #259 ) ;
#51 = APPROVAL_PERSON_ORGANIZATION ( #369, #341, #89 ) ;
#52 = CARTESIAN_POINT ( 'NONE',  ( 0.000000000000000000, 0.000000000000000000, 3.299999999999997158 ) ) ;
#53 = CARTESIAN_POINT ( 'NONE',  ( 0.000000000000000000, 0.000000000000000000, 153.0000000000000000 ) ) ;
#54 = DIRECTION ( 'NONE',  ( -0.000000000000000000, -0.000000000000000000, -1.000000000000000000 ) ) ;
#55 = AXIS2_PLACEMENT_3D ( 'NONE', #74, #119, #181 ) ;
#56 = ADVANCED_FACE ( 'NONE', ( #252 ), #198, .T. ) ;
#57 = CARTESIAN_POINT ( 'NONE',  ( 5.000000000000000000, 6.123233995736766282E-16, 0.000000000000000000 ) ) ;
#58 = CALENDAR_DATE ( 2022, 8, 7 ) ;
#59 = DIRECTION ( 'NONE',  ( 1.000000000000000000, 0.000000000000000000, 0.000000000000000000 ) ) ;
#60 = LINE ( 'NONE', #148, #144 ) ;
#61 = VERTEX_POINT ( 'NONE', #230 ) ;
#62 = AXIS2_PLACEMENT_3D ( 'NONE', #329, #219, #187 ) ;
#63 = DIRECTION ( 'NONE',  ( 1.000000000000000000, 0.000000000000000000, 0.000000000000000000 ) ) ;
#64 = EDGE_CURVE ( 'NONE', #188, #271, #370, .T. ) ;
#65 = CARTESIAN_POINT ( 'NONE',  ( 0.000000000000000000, 0.000000000000000000, 3.000000000000000000 ) ) ;
#66 = ORIENTED_EDGE ( 'NONE', *, *, #207, .F. ) ;
#67 = DIRECTION ( 'NONE',  ( -1.000000000000000000, 0.000000000000000000, 0.000000000000000000 ) ) ;
#68 = CC_DESIGN_APPROVAL ( #349, ( #183 ) ) ;
#69 = EDGE_LOOP ( 'NONE', ( #367, #220 ) ) ;
#70 = ORIENTED_EDGE ( 'NONE', *, *, #64, .F. ) ;
#71 = CARTESIAN_POINT ( 'NONE',  ( 0.000000000000000000, 0.000000000000000000, 153.0000000000000000 ) ) ;
#72 = EDGE_LOOP ( 'NONE', ( #106, #374, #295, #363 ) ) ;
#73 = EDGE_CURVE ( 'NONE', #189, #297, #7, .T. ) ;
#74 = CARTESIAN_POINT ( 'NONE',  ( 0.000000000000000000, 0.000000000000000000, 153.0000000000000000 ) ) ;
#75 = EDGE_CURVE ( 'NONE', #323, #94, #291, .T. ) ;
#76 = MECHANICAL_CONTEXT ( 'NONE', #193, 'mechanical' ) ;
#77 = PRODUCT_DEFINITION_SHAPE ( 'NONE', 'NONE',  #99 ) ;
#78 = DIRECTION ( 'NONE',  ( -1.000000000000000000, 0.000000000000000000, 0.000000000000000000 ) ) ;
#79 = CARTESIAN_POINT ( 'NONE',  ( 0.000000000000000000, 0.000000000000000000, 3.000000000000000000 ) ) ;
#80 = DESIGN_CONTEXT ( 'detailed design', #3, 'design' ) ;
#81 = CIRCLE ( 'NONE', #138, 1.600000000000000089 ) ;
#82 = LINE ( 'NONE', #132, #103 ) ;
#83 = CYLINDRICAL_SURFACE ( 'NONE', #121, 2.500000000000000000 ) ;
#84 = EDGE_CURVE ( 'NONE', #359, #188, #343, .T. ) ;
#85 = DIRECTION ( 'NONE',  ( 1.000000000000000000, 0.000000000000000000, 0.000000000000000000 ) ) ;
#86 = EDGE_CURVE ( 'NONE', #297, #125, #17, .T. ) ;
#87 = PERSON_AND_ORGANIZATION ( #263, #216 ) ;
#88 = CARTESIAN_POINT ( 'NONE',  ( 0.000000000000000000, 0.000000000000000000, 3.299999999999997158 ) ) ;
#89 = APPROVAL_ROLE ( '' ) ;
#90 = DATE_AND_TIME ( #147, #50 ) ;
#91 = AXIS2_PLACEMENT_3D ( 'NONE', #88, #206, #59 ) ;
#92 = APPROVAL_PERSON_ORGANIZATION ( #314, #349, #180 ) ;
#93 = CARTESIAN_POINT ( 'NONE',  ( 0.000000000000000000, 0.000000000000000000, 3.000000000000000000 ) ) ;
#94 = VERTEX_POINT ( 'NONE', #344 ) ;
#95 = CARTESIAN_POINT ( 'NONE',  ( -2.500000000000000000, 0.000000000000000000, 153.0000000000000000 ) ) ;
#96 = ORIENTED_EDGE ( 'NONE', *, *, #75, .F. ) ;
#97 = CARTESIAN_POINT ( 'NONE',  ( 0.000000000000000000, 0.000000000000000000, 0.000000000000000000 ) ) ;
#98 = ORIENTED_EDGE ( 'NONE', *, *, #86, .F. ) ;
#99 = PRODUCT_DEFINITION ( 'NEZNÁMÝ', '', #183, #80 ) ;
#100 = DIRECTION ( 'NONE',  ( -0.000000000000000000, -0.000000000000000000, -1.000000000000000000 ) ) ;
#101 = FACE_OUTER_BOUND ( 'NONE', #182, .T. ) ;
#102 = ORIENTED_EDGE ( 'NONE', *, *, #84, .F. ) ;
#103 = VECTOR ( 'NONE', #304, 1000.000000000000000 ) ;
#104 = DIRECTION ( 'NONE',  ( 0.000000000000000000, 0.000000000000000000, 1.000000000000000000 ) ) ;
#105 = ADVANCED_FACE ( 'NONE', ( #380, #258 ), #145, .F. ) ;
#106 = ORIENTED_EDGE ( 'NONE', *, *, #44, .F. ) ;
#107 = ORIENTED_EDGE ( 'NONE', *, *, #116, .T. ) ;
#108 = DATE_AND_TIME ( #373, #308 ) ;
#109 = CARTESIAN_POINT ( 'NONE',  ( 2.799999999999999822, 0.000000000000000000, 2.999999999999998668 ) ) ;
#110 = PERSON_AND_ORGANIZATION ( #263, #216 ) ;
#111 = AXIS2_PLACEMENT_3D ( 'NONE', #93, #261, #173 ) ;
#112 = APPROVAL_STATUS ( 'not_yet_approved' ) ;
#113 = CARTESIAN_POINT ( 'NONE',  ( -1.600000000000000089, 0.000000000000000000, 153.0000000000000000 ) ) ;
#114 = SECURITY_CLASSIFICATION_LEVEL ( 'unclassified' ) ;
#115 = CARTESIAN_POINT ( 'NONE',  ( 0.000000000000000000, 0.000000000000000000, 3.299999999999997158 ) ) ;
#116 = EDGE_CURVE ( 'NONE', #20, #271, #60, .T. ) ;
#117 = LINE ( 'NONE', #268, #163 ) ;
#118 = ORIENTED_EDGE ( 'NONE', *, *, #305, .F. ) ;
#119 = DIRECTION ( 'NONE',  ( 0.000000000000000000, 0.000000000000000000, -1.000000000000000000 ) ) ;
#120 = EDGE_LOOP ( 'NONE', ( #15, #361, #247, #246 ) ) ;
#121 = AXIS2_PLACEMENT_3D ( 'NONE', #53, #128, #336 ) ;
#122 = CIRCLE ( 'NONE', #41, 5.000000000000000000 ) ;
#123 = DIRECTION ( 'NONE',  ( 0.000000000000000000, 0.000000000000000000, 1.000000000000000000 ) ) ;
#124 = FACE_OUTER_BOUND ( 'NONE', #282, .T. ) ;
#125 = VERTEX_POINT ( 'NONE', #109 ) ;
#126 = EDGE_CURVE ( 'NONE', #61, #323, #283, .T. ) ;
#127 = AXIS2_PLACEMENT_3D ( 'NONE', #231, #54, #25 ) ;
#128 = DIRECTION ( 'NONE',  ( -0.000000000000000000, -0.000000000000000000, -1.000000000000000000 ) ) ;
#129 = ADVANCED_FACE ( 'NONE', ( #202 ), #28, .T. ) ;
#130 = SECURITY_CLASSIFICATION ( '', '', #114 ) ;
#131 = CARTESIAN_POINT ( 'NONE',  ( 2.500000000000000000, 3.061616997868383141E-16, 153.0000000000000000 ) ) ;
#132 = CARTESIAN_POINT ( 'NONE',  ( -2.500000000000000000, 0.000000000000000000, 153.0000000000000000 ) ) ;
#133 = PERSON_AND_ORGANIZATION_ROLE ( 'design_owner' ) ;
#134 = CARTESIAN_POINT ( 'NONE',  ( 0.000000000000000000, 0.000000000000000000, 153.0000000000000000 ) ) ;
#135 = APPROVAL ( #112, 'NEURÈENÝ' ) ;
#136 = DIRECTION ( 'NONE',  ( 1.000000000000000000, 0.000000000000000000, 0.000000000000000000 ) ) ;
#137 = CARTESIAN_POINT ( 'NONE',  ( -2.799999999999999822, 3.429011037612588783E-16, 3.299999999999997158 ) ) ;
#138 = AXIS2_PLACEMENT_3D ( 'NONE', #244, #265, #40 ) ;
#139 = DIRECTION ( 'NONE',  ( 1.000000000000000000, 0.000000000000000000, 0.000000000000000000 ) ) ;
#140 = APPROVAL_STATUS ( 'not_yet_approved' ) ;
#141 = DIRECTION ( 'NONE',  ( 0.000000000000000000, 0.000000000000000000, -1.000000000000000000 ) ) ;
#142 = ORIENTED_EDGE ( 'NONE', *, *, #126, .T. ) ;
#143 = DATE_TIME_ROLE ( 'classification_date' ) ;
#144 = VECTOR ( 'NONE', #33, 1000.000000000000000 ) ;
#145 = PLANE ( 'NONE',  #324 ) ;
#146 = ORIENTED_EDGE ( 'NONE', *, *, #168, .F. ) ;
#147 = CALENDAR_DATE ( 2022, 8, 7 ) ;
#148 = CARTESIAN_POINT ( 'NONE',  ( -5.000000000000000000, 0.000000000000000000, 3.000000000000000000 ) ) ;
#149 = FACE_OUTER_BOUND ( 'NONE', #351, .T. ) ;
#150 = ORIENTED_EDGE ( 'NONE', *, *, #354, .T. ) ;
#151 = AXIS2_PLACEMENT_3D ( 'NONE', #332, #276, #225 ) ;
#152 = DIRECTION ( 'NONE',  ( 1.000000000000000000, 0.000000000000000000, 0.000000000000000000 ) ) ;
#153 = ORIENTED_EDGE ( 'NONE', *, *, #354, .F. ) ;
#154 = ORIENTED_EDGE ( 'NONE', *, *, #233, .F. ) ;
#155 = VECTOR ( 'NONE', #287, 1000.000000000000000 ) ;
#156 = AXIS2_PLACEMENT_3D ( 'NONE', #166, #104, #275 ) ;
#157 = CARTESIAN_POINT ( 'NONE',  ( 2.500000000000000000, 3.061616997868383141E-16, 3.299999999999997158 ) ) ;
#158 = ORIENTED_EDGE ( 'NONE', *, *, #204, .T. ) ;
#159 = CC_DESIGN_PERSON_AND_ORGANIZATION_ASSIGNMENT ( #286, #257, ( #183 ) ) ;
#160 = CARTESIAN_POINT ( 'NONE',  ( 5.000000000000000000, 6.123233995736766282E-16, 3.000000000000000000 ) ) ;
#161 = FACE_OUTER_BOUND ( 'NONE', #120, .T. ) ;
#162 = AXIS2_PLACEMENT_3D ( 'NONE', #32, #322, #141 ) ;
#163 = VECTOR ( 'NONE', #270, 1000.000000000000000 ) ;
#164 = ADVANCED_FACE ( 'NONE', ( #379 ), #326, .F. ) ;
#165 = LOCAL_TIME ( 17, 42, 57.00000000000000000, #237 ) ;
#166 = CARTESIAN_POINT ( 'NONE',  ( 0.000000000000000000, 0.000000000000000000, 0.000000000000000000 ) ) ;
#167 = PLANE ( 'NONE',  #298 ) ;
#168 = EDGE_CURVE ( 'NONE', #309, #189, #245, .T. ) ;
#169 = CARTESIAN_POINT ( 'NONE',  ( 0.000000000000000000, 0.000000000000000000, 0.000000000000000000 ) ) ;
#170 = CARTESIAN_POINT ( 'NONE',  ( -5.000000000000000000, 0.000000000000000000, 3.000000000000000000 ) ) ;
#171 = VECTOR ( 'NONE', #381, 1000.000000000000000 ) ;
#172 = APPROVAL_DATE_TIME ( #256, #341 ) ;
#173 = DIRECTION ( 'NONE',  ( -1.000000000000000000, 0.000000000000000000, 0.000000000000000000 ) ) ;
#174 = ORIENTED_EDGE ( 'NONE', *, *, #320, .F. ) ;
#175 = APPROVAL_DATE_TIME ( #108, #349 ) ;
#176 = DIRECTION ( 'NONE',  ( -0.000000000000000000, -0.000000000000000000, -1.000000000000000000 ) ) ;
#177 = PERSON_AND_ORGANIZATION_ROLE ( 'classification_officer' ) ;
#178 = DIRECTION ( 'NONE',  ( 0.000000000000000000, 0.000000000000000000, -1.000000000000000000 ) ) ;
#179 = CIRCLE ( 'NONE', #10, 5.000000000000000000 ) ;
#180 = APPROVAL_ROLE ( '' ) ;
#181 = DIRECTION ( 'NONE',  ( -1.000000000000000000, 0.000000000000000000, 0.000000000000000000 ) ) ;
#182 = EDGE_LOOP ( 'NONE', ( #153, #227, #185, #46 ) ) ;
#183 = PRODUCT_DEFINITION_FORMATION_WITH_SPECIFIED_SOURCE ( 'LIBOVOLNÝ', '', #352, .NOT_KNOWN. ) ;
#184 = DIRECTION ( 'NONE',  ( 0.000000000000000000, 0.000000000000000000, -1.000000000000000000 ) ) ;
#185 = ORIENTED_EDGE ( 'NONE', *, *, #64, .T. ) ;
#186 = FACE_OUTER_BOUND ( 'NONE', #39, .T. ) ;
#187 = DIRECTION ( 'NONE',  ( 1.000000000000000000, 0.000000000000000000, 0.000000000000000000 ) ) ;
#188 = VERTEX_POINT ( 'NONE', #57 ) ;
#189 = VERTEX_POINT ( 'NONE', #26 ) ;
#190 = DIRECTION ( 'NONE',  ( 1.000000000000000000, 0.000000000000000000, -0.000000000000000000 ) ) ;
#191 = FACE_OUTER_BOUND ( 'NONE', #302, .T. ) ;
#192 = CLOSED_SHELL ( 'NONE', ( #288, #200, #56, #290, #129, #243, #105, #1, #13, #164, #253 ) ) ;
#193 = APPLICATION_CONTEXT ( 'configuration controlled 3d designs of mechanical parts and assemblies' ) ;
#194 = VECTOR ( 'NONE', #178, 1000.000000000000000 ) ;
#195 = EDGE_CURVE ( 'NONE', #309, #125, #318, .T. ) ;
#196 = CARTESIAN_POINT ( 'NONE',  ( 0.000000000000000000, 0.000000000000000000, 153.0000000000000000 ) ) ;
#197 = DIRECTION ( 'NONE',  ( 0.000000000000000000, 0.000000000000000000, 1.000000000000000000 ) ) ;
#198 = CYLINDRICAL_SURFACE ( 'NONE', #21, 2.500000000000000000 ) ;
#199 = DIRECTION ( 'NONE',  ( 0.000000000000000000, 0.000000000000000000, 1.000000000000000000 ) ) ;
#200 = ADVANCED_FACE ( 'NONE', ( #149 ), #279, .F. ) ;
#201 = APPROVAL_STATUS ( 'not_yet_approved' ) ;
#202 = FACE_OUTER_BOUND ( 'NONE', #6, .T. ) ;
#203 = AXIS2_PLACEMENT_3D ( 'NONE', #340, #366, #136 ) ;
#204 = EDGE_CURVE ( 'NONE', #271, #188, #122, .T. ) ;
#205 = COORDINATED_UNIVERSAL_TIME_OFFSET ( 1, 0, .AHEAD. ) ;
#206 = DIRECTION ( 'NONE',  ( 0.000000000000000000, 0.000000000000000000, 1.000000000000000000 ) ) ;
#207 = EDGE_CURVE ( 'NONE', #61, #36, #81, .T. ) ;
#208 = PERSON_AND_ORGANIZATION ( #263, #216 ) ;
#209 = DIRECTION ( 'NONE',  ( 0.000000000000000000, 0.000000000000000000, 1.000000000000000000 ) ) ;
#210 = CC_DESIGN_DATE_AND_TIME_ASSIGNMENT ( #27, #143, ( #130 ) ) ;
#211 = AXIS2_PLACEMENT_3D ( 'NONE', #236, #319, #63 ) ;
#212 = CALENDAR_DATE ( 2022, 8, 7 ) ;
#213 = ORIENTED_EDGE ( 'NONE', *, *, #195, .T. ) ;
#214 = DIRECTION ( 'NONE',  ( 1.000000000000000000, 0.000000000000000000, 0.000000000000000000 ) ) ;
#215 = PLANE ( 'NONE',  #339 ) ;
#216 = ORGANIZATION ( 'NEURÈENÝ', 'NEURÈENÝ', '' ) ;
#217 = DIRECTION ( 'NONE',  ( 0.000000000000000000, 0.000000000000000000, 1.000000000000000000 ) ) ;
#218 = DIRECTION ( 'NONE',  ( 1.000000000000000000, 0.000000000000000000, 0.000000000000000000 ) ) ;
#219 = DIRECTION ( 'NONE',  ( 0.000000000000000000, 0.000000000000000000, 1.000000000000000000 ) ) ;
#220 = ORIENTED_EDGE ( 'NONE', *, *, #86, .T. ) ;
#221 = MANIFOLD_SOLID_BREP ( 'Odebrat vysunutím3', #192 ) ;
#222 = CIRCLE ( 'NONE', #23, 1.600000000000000089 ) ;
#223 = LOCAL_TIME ( 17, 42, 57.00000000000000000, #31 ) ;
#224 = CARTESIAN_POINT ( 'NONE',  ( 0.000000000000000000, 0.000000000000000000, 153.0000000000000000 ) ) ;
#225 = DIRECTION ( 'NONE',  ( 1.000000000000000000, 0.000000000000000000, 0.000000000000000000 ) ) ;
#226 = PRODUCT_RELATED_PRODUCT_CATEGORY ( 'detail', '', ( #352 ) ) ;
#227 = ORIENTED_EDGE ( 'NONE', *, *, #84, .T. ) ;
#228 = CARTESIAN_POINT ( 'NONE',  ( -1.600000000000000089, 0.000000000000000000, 0.000000000000000000 ) ) ;
#229 = CIRCLE ( 'NONE', #62, 1.600000000000000089 ) ;
#230 = CARTESIAN_POINT ( 'NONE',  ( -1.600000000000000089, 0.000000000000000000, 153.0000000000000000 ) ) ;
#231 = CARTESIAN_POINT ( 'NONE',  ( 0.000000000000000000, 0.000000000000000000, 0.000000000000000000 ) ) ;
#232 = PERSON_AND_ORGANIZATION ( #263, #216 ) ;
#233 = EDGE_CURVE ( 'NONE', #36, #94, #117, .T. ) ;
#234 = APPROVAL_ROLE ( '' ) ;
#235 = EDGE_CURVE ( 'NONE', #345, #309, #5, .T. ) ;
#236 = CARTESIAN_POINT ( 'NONE',  ( 0.000000000000000000, 0.000000000000000000, 3.299999999999997158 ) ) ;
#237 = COORDINATED_UNIVERSAL_TIME_OFFSET ( 1, 0, .AHEAD. ) ;
#238 = DIRECTION ( 'NONE',  ( 1.000000000000000000, 0.000000000000000000, 0.000000000000000000 ) ) ;
#239 = VERTEX_POINT ( 'NONE', #95 ) ;
#240 = CIRCLE ( 'NONE', #151, 2.500000000000000000 ) ;
#241 = DIRECTION ( 'NONE',  ( -1.000000000000000000, 0.000000000000000000, 0.000000000000000000 ) ) ;
#242 = EDGE_LOOP ( 'NONE', ( #154, #29, #142, #289 ) ) ;
#243 = ADVANCED_FACE ( 'NONE', ( #299, #186 ), #215, .T. ) ;
#244 = CARTESIAN_POINT ( 'NONE',  ( 0.000000000000000000, 0.000000000000000000, 153.0000000000000000 ) ) ;
#245 = CIRCLE ( 'NONE', #211, 2.500000000000000000 ) ;
#246 = ORIENTED_EDGE ( 'NONE', *, *, #365, .T. ) ;
#247 = ORIENTED_EDGE ( 'NONE', *, *, #35, .T. ) ;
#248 = AXIS2_PLACEMENT_3D ( 'NONE', #169, #280, #277 ) ;
#249 = CIRCLE ( 'NONE', #254, 2.500000000000000000 ) ;
#250 =( NAMED_UNIT ( * ) PLANE_ANGLE_UNIT ( ) SI_UNIT ( $, .RADIAN. ) );
#251 = APPLICATION_PROTOCOL_DEFINITION ( 'international standard', 'config_control_design', 1994, #3 ) ;
#252 = FACE_OUTER_BOUND ( 'NONE', #72, .T. ) ;
#253 = ADVANCED_FACE ( 'NONE', ( #296 ), #294, .F. ) ;
#254 = AXIS2_PLACEMENT_3D ( 'NONE', #52, #197, #335 ) ;
#255 = DIRECTION ( 'NONE',  ( 1.224646799147353207E-16, 1.000000000000000000, -0.000000000000000000 ) ) ;
#256 = DATE_AND_TIME ( #58, #2 ) ;
#257 = PERSON_AND_ORGANIZATION_ROLE ( 'design_supplier' ) ;
#258 = FACE_OUTER_BOUND ( 'NONE', #49, .T. ) ;
#259 = COORDINATED_UNIVERSAL_TIME_OFFSET ( 1, 0, .AHEAD. ) ;
#260 = EDGE_CURVE ( 'NONE', #94, #323, #222, .T. ) ;
#261 = DIRECTION ( 'NONE',  ( -0.000000000000000000, -0.000000000000000000, -1.000000000000000000 ) ) ;
#262 = CARTESIAN_POINT ( 'NONE',  ( 0.000000000000000000, 0.000000000000000000, 0.000000000000000000 ) ) ;
#263 = PERSON ( 'NEURÈENÝ', 'NEURÈENÝ', 'NEURÈENÝ', ('NEURÈENÝ'), ('NEURÈENÝ'), ('NEURÈENÝ') ) ;
#264 = CIRCLE ( 'NONE', #313, 2.799999999999999822 ) ;
#265 = DIRECTION ( 'NONE',  ( 0.000000000000000000, 0.000000000000000000, 1.000000000000000000 ) ) ;
#266 = ORIENTED_EDGE ( 'NONE', *, *, #260, .F. ) ;
#267 = ORIENTED_EDGE ( 'NONE', *, *, #44, .T. ) ;
#268 = CARTESIAN_POINT ( 'NONE',  ( 1.600000000000000089, 1.959434878635765230E-16, 153.0000000000000000 ) ) ;
#269 = CC_DESIGN_DATE_AND_TIME_ASSIGNMENT ( #90, #316, ( #99 ) ) ;
#270 = DIRECTION ( 'NONE',  ( 0.000000000000000000, 0.000000000000000000, -1.000000000000000000 ) ) ;
#271 = VERTEX_POINT ( 'NONE', #14 ) ;
#272 =( LENGTH_UNIT ( ) NAMED_UNIT ( * ) SI_UNIT ( .MILLI., .METRE. ) );
#273 = AXIS2_PLACEMENT_3D ( 'NONE', #378, #176, #238 ) ;
#274 = FACE_BOUND ( 'NONE', #34, .T. ) ;
#275 = DIRECTION ( 'NONE',  ( 1.000000000000000000, 0.000000000000000000, 0.000000000000000000 ) ) ;
#276 = DIRECTION ( 'NONE',  ( 0.000000000000000000, 0.000000000000000000, 1.000000000000000000 ) ) ;
#277 = DIRECTION ( 'NONE',  ( 1.000000000000000000, 0.000000000000000000, 0.000000000000000000 ) ) ;
#278 = AXIS2_PLACEMENT_3D ( 'NONE', #137, #255, #372 ) ;
#279 = TOROIDAL_SURFACE ( 'NONE', #91, 2.799999999999999822, 0.2999999999999999889 ) ;
#280 = DIRECTION ( 'NONE',  ( 0.000000000000000000, 0.000000000000000000, 1.000000000000000000 ) ) ;
#281 = COORDINATED_UNIVERSAL_TIME_OFFSET ( 1, 0, .AHEAD. ) ;
#282 = EDGE_LOOP ( 'NONE', ( #333, #356, #18, #4 ) ) ;
#283 = LINE ( 'NONE', #113, #194 ) ;
#284 = CC_DESIGN_PERSON_AND_ORGANIZATION_ASSIGNMENT ( #110, #177, ( #130 ) ) ;
#285 = DATE_AND_TIME ( #346, #165 ) ;
#286 = PERSON_AND_ORGANIZATION ( #263, #216 ) ;
#287 = DIRECTION ( 'NONE',  ( -0.000000000000000000, -0.000000000000000000, -1.000000000000000000 ) ) ;
#288 = ADVANCED_FACE ( 'NONE', ( #124 ), #358, .F. ) ;
#289 = ORIENTED_EDGE ( 'NONE', *, *, #75, .T. ) ;
#290 = ADVANCED_FACE ( 'NONE', ( #101 ), #45, .T. ) ;
#291 = CIRCLE ( 'NONE', #127, 1.600000000000000089 ) ;
#292 = EDGE_LOOP ( 'NONE', ( #96, #266 ) ) ;
#293 = AXIS2_PLACEMENT_3D ( 'NONE', #115, #209, #85 ) ;
#294 = CYLINDRICAL_SURFACE ( 'NONE', #377, 1.600000000000000089 ) ;
#295 = ORIENTED_EDGE ( 'NONE', *, *, #168, .T. ) ;
#296 = FACE_OUTER_BOUND ( 'NONE', #242, .T. ) ;
#297 = VERTEX_POINT ( 'NONE', #353 ) ;
#298 = AXIS2_PLACEMENT_3D ( 'NONE', #134, #199, #190 ) ;
#299 = FACE_BOUND ( 'NONE', #69, .T. ) ;
#300 = ORIENTED_EDGE ( 'NONE', *, *, #73, .T. ) ;
#301 = APPROVAL_PERSON_ORGANIZATION ( #208, #135, #234 ) ;
#302 = EDGE_LOOP ( 'NONE', ( #38, #267 ) ) ;
#303 = EDGE_CURVE ( 'NONE', #20, #359, #179, .T. ) ;
#304 = DIRECTION ( 'NONE',  ( -0.000000000000000000, -0.000000000000000000, -1.000000000000000000 ) ) ;
#305 = EDGE_CURVE ( 'NONE', #36, #61, #229, .T. ) ;
#306 = UNCERTAINTY_MEASURE_WITH_UNIT (LENGTH_MEASURE( 1.000000000000000082E-05 ), #272, 'distance_accuracy_value', 'NONE');
#307 = AXIS2_PLACEMENT_3D ( 'NONE', #327, #100, #241 ) ;
#308 = LOCAL_TIME ( 17, 42, 57.00000000000000000, #281 ) ;
#309 = VERTEX_POINT ( 'NONE', #157 ) ;
#310 = DIRECTION ( 'NONE',  ( -0.000000000000000000, -0.000000000000000000, -1.000000000000000000 ) ) ;
#311 = DIRECTION ( 'NONE',  ( 0.000000000000000000, 0.000000000000000000, 1.000000000000000000 ) ) ;
#312 = EDGE_CURVE ( 'NONE', #239, #345, #240, .T. ) ;
#313 = AXIS2_PLACEMENT_3D ( 'NONE', #79, #310, #362 ) ;
#314 = PERSON_AND_ORGANIZATION ( #263, #216 ) ;
#315 = DIRECTION ( 'NONE',  ( 0.000000000000000000, 0.000000000000000000, 1.000000000000000000 ) ) ;
#316 = DATE_TIME_ROLE ( 'creation_date' ) ;
#317 = CARTESIAN_POINT ( 'NONE',  ( 5.000000000000000000, 6.123233995736766282E-16, 3.000000000000000000 ) ) ;
#318 = CIRCLE ( 'NONE', #162, 0.2999999999999999334 ) ;
#319 = DIRECTION ( 'NONE',  ( 0.000000000000000000, 0.000000000000000000, 1.000000000000000000 ) ) ;
#320 = EDGE_CURVE ( 'NONE', #125, #297, #264, .T. ) ;
#321 = SHAPE_DEFINITION_REPRESENTATION ( #77, #8 ) ;
#322 = DIRECTION ( 'NONE',  ( 0.000000000000000000, -1.000000000000000000, 0.000000000000000000 ) ) ;
#323 = VERTEX_POINT ( 'NONE', #228 ) ;
#324 = AXIS2_PLACEMENT_3D ( 'NONE', #347, #376, #348 ) ;
#325 = ORIENTED_EDGE ( 'NONE', *, *, #303, .T. ) ;
#326 = TOROIDAL_SURFACE ( 'NONE', #293, 2.799999999999999822, 0.2999999999999999889 ) ;
#327 = CARTESIAN_POINT ( 'NONE',  ( 0.000000000000000000, 0.000000000000000000, 3.000000000000000000 ) ) ;
#328 = ORIENTED_EDGE ( 'NONE', *, *, #365, .F. ) ;
#329 = CARTESIAN_POINT ( 'NONE',  ( 0.000000000000000000, 0.000000000000000000, 153.0000000000000000 ) ) ;
#330 = ORIENTED_EDGE ( 'NONE', *, *, #195, .F. ) ;
#331 = CIRCLE ( 'NONE', #357, 2.500000000000000000 ) ;
#332 = CARTESIAN_POINT ( 'NONE',  ( 0.000000000000000000, 0.000000000000000000, 153.0000000000000000 ) ) ;
#333 = ORIENTED_EDGE ( 'NONE', *, *, #207, .T. ) ;
#334 = APPLICATION_PROTOCOL_DEFINITION ( 'international standard', 'config_control_design', 1994, #193 ) ;
#335 = DIRECTION ( 'NONE',  ( 1.000000000000000000, 0.000000000000000000, 0.000000000000000000 ) ) ;
#336 = DIRECTION ( 'NONE',  ( -1.000000000000000000, 0.000000000000000000, 0.000000000000000000 ) ) ;
#337 = PERSON_AND_ORGANIZATION ( #263, #216 ) ;
#338 = CARTESIAN_POINT ( 'NONE',  ( 1.600000000000000089, 1.959434878635765230E-16, 153.0000000000000000 ) ) ;
#339 = AXIS2_PLACEMENT_3D ( 'NONE', #65, #217, #360 ) ;
#340 = CARTESIAN_POINT ( 'NONE',  ( 0.000000000000000000, 0.000000000000000000, 3.000000000000000000 ) ) ;
#341 = APPROVAL ( #201, 'NEURÈENÝ' ) ;
#342 = APPROVAL_DATE_TIME ( #285, #135 ) ;
#343 = LINE ( 'NONE', #317, #155 ) ;
#344 = CARTESIAN_POINT ( 'NONE',  ( 1.600000000000000089, 1.959434878635765230E-16, 0.000000000000000000 ) ) ;
#345 = VERTEX_POINT ( 'NONE', #131 ) ;
#346 = CALENDAR_DATE ( 2022, 8, 7 ) ;
#347 = CARTESIAN_POINT ( 'NONE',  ( 0.000000000000000000, 0.000000000000000000, 0.000000000000000000 ) ) ;
#348 = DIRECTION ( 'NONE',  ( 1.000000000000000000, 0.000000000000000000, -0.000000000000000000 ) ) ;
#349 = APPROVAL ( #140, 'NEURÈENÝ' ) ;
#350 = CC_DESIGN_APPROVAL ( #135, ( #130 ) ) ;
#351 = EDGE_LOOP ( 'NONE', ( #328, #300, #174, #330 ) ) ;
#352 = PRODUCT ( 'ba5a', 'ba5a', '', ( #76 ) ) ;
#353 = CARTESIAN_POINT ( 'NONE',  ( -2.799999999999999822, 3.429011037612589276E-16, 2.999999999999998668 ) ) ;
#354 = EDGE_CURVE ( 'NONE', #359, #20, #364, .T. ) ;
#355 = CARTESIAN_POINT ( 'NONE',  ( 2.500000000000000000, 3.061616997868383141E-16, 153.0000000000000000 ) ) ;
#356 = ORIENTED_EDGE ( 'NONE', *, *, #233, .T. ) ;
#357 = AXIS2_PLACEMENT_3D ( 'NONE', #196, #311, #139 ) ;
#358 = CYLINDRICAL_SURFACE ( 'NONE', #55, 1.600000000000000089 ) ;
#359 = VERTEX_POINT ( 'NONE', #160 ) ;
#360 = DIRECTION ( 'NONE',  ( 1.000000000000000000, 0.000000000000000000, -0.000000000000000000 ) ) ;
#361 = ORIENTED_EDGE ( 'NONE', *, *, #312, .F. ) ;
#362 = DIRECTION ( 'NONE',  ( 1.000000000000000000, 0.000000000000000000, 0.000000000000000000 ) ) ;
#363 = ORIENTED_EDGE ( 'NONE', *, *, #35, .F. ) ;
#364 = CIRCLE ( 'NONE', #203, 5.000000000000000000 ) ;
#365 = EDGE_CURVE ( 'NONE', #189, #309, #249, .T. ) ;
#366 = DIRECTION ( 'NONE',  ( 0.000000000000000000, 0.000000000000000000, 1.000000000000000000 ) ) ;
#367 = ORIENTED_EDGE ( 'NONE', *, *, #320, .T. ) ;
#368 = CC_DESIGN_PERSON_AND_ORGANIZATION_ASSIGNMENT ( #87, #375, ( #99 ) ) ;
#369 = PERSON_AND_ORGANIZATION ( #263, #216 ) ;
#370 = CIRCLE ( 'NONE', #248, 5.000000000000000000 ) ;
#371 = DIRECTION ( 'NONE',  ( -0.000000000000000000, -0.000000000000000000, -1.000000000000000000 ) ) ;
#372 = DIRECTION ( 'NONE',  ( -1.000000000000000000, 1.224646799147353207E-16, 0.000000000000000000 ) ) ;
#373 = CALENDAR_DATE ( 2022, 8, 7 ) ;
#374 = ORIENTED_EDGE ( 'NONE', *, *, #235, .T. ) ;
#375 = PERSON_AND_ORGANIZATION_ROLE ( 'creator' ) ;
#376 = DIRECTION ( 'NONE',  ( 0.000000000000000000, 0.000000000000000000, 1.000000000000000000 ) ) ;
#377 = AXIS2_PLACEMENT_3D ( 'NONE', #71, #184, #67 ) ;
#378 = CARTESIAN_POINT ( 'NONE',  ( 0.000000000000000000, 0.000000000000000000, 3.000000000000000000 ) ) ;
#379 = FACE_OUTER_BOUND ( 'NONE', #11, .T. ) ;
#380 = FACE_BOUND ( 'NONE', #292, .T. ) ;
#381 = DIRECTION ( 'NONE',  ( -0.000000000000000000, -0.000000000000000000, -1.000000000000000000 ) ) ;
ENDSEC;
END-ISO-10303-21;
